  0
SECTION
  2
HEADER
  9
$ACADVER
  1
AC1014
  9
$ACADMAINTVER
 70
     9
  9
$DWGCODEPAGE
  3
MAC-ROMAN
  9
$INSBASE
 10
0.0
 20
0.0
 30
0.0
  9
$EXTMIN
 10
1.000000000000000E+20
 20
1.000000000000000E+20
 30
1.000000000000000E+20
  9
$EXTMAX
 10
-1.000000000000000E+20
 20
-1.000000000000000E+20
 30
-1.000000000000000E+20
  9
$LIMMIN
 10
0.0
 20
0.0
  9
$LIMMAX
 10
12.0
 20
9.0
  9
$ORTHOMODE
 70
     0
  9
$REGENMODE
 70
     1
  9
$FILLMODE
 70
     1
  9
$QTEXTMODE
 70
     0
  9
$MIRRTEXT
 70
     1
  9
$DRAGMODE
 70
     2
  9
$LTSCALE
 40
1.0
  9
$OSMODE
 70
    37
  9
$ATTMODE
 70
     1
  9
$TEXTSIZE
 40
0.2
  9
$TRACEWID
 40
0.05
  9
$TEXTSTYLE
  7
STANDARD
  9
$CLAYER
  8
0
  9
$CELTYPE
  6
BYLAYER
  9
$CECOLOR
 62
   256
  9
$CELTSCALE
 40
1.0
  9
$DELOBJ
 70
     1
  9
$DISPSILH
 70
     0
  9
$DIMSCALE
 40
1.0
  9
$DIMASZ
 40
0.18
  9
$DIMEXO
 40
0.0625
  9
$DIMDLI
 40
0.38
  9
$DIMRND
 40
0.0
  9
$DIMDLE
 40
0.0
  9
$DIMEXE
 40
0.18
  9
$DIMTP
 40
0.0
  9
$DIMTM
 40
0.0
  9
$DIMTXT
 40
0.18
  9
$DIMCEN
 40
0.09
  9
$DIMTSZ
 40
0.0
  9
$DIMTOL
 70
     0
  9
$DIMLIM
 70
     0
  9
$DIMTIH
 70
     1
  9
$DIMTOH
 70
     1
  9
$DIMSE1
 70
     0
  9
$DIMSE2
 70
     0
  9
$DIMTAD
 70
     0
  9
$DIMZIN
 70
     0
  9
$DIMBLK
  1

  9
$DIMASO
 70
     1
  9
$DIMSHO
 70
     1
  9
$DIMPOST
  1

  9
$DIMAPOST
  1

  9
$DIMALT
 70
     0
  9
$DIMALTD
 70
     2
  9
$DIMALTF
 40
25.4
  9
$DIMLFAC
 40
1.0
  9
$DIMTOFL
 70
     0
  9
$DIMTVP
 40
0.0
  9
$DIMTIX
 70
     0
  9
$DIMSOXD
 70
     0
  9
$DIMSAH
 70
     0
  9
$DIMBLK1
  1

  9
$DIMBLK2
  1

  9
$DIMSTYLE
  2
STANDARD
  9
$DIMCLRD
 70
     0
  9
$DIMCLRE
 70
     0
  9
$DIMCLRT
 70
     0
  9
$DIMTFAC
 40
1.0
  9
$DIMGAP
 40
0.09
  9
$DIMJUST
 70
     0
  9
$DIMSD1
 70
     0
  9
$DIMSD2
 70
     0
  9
$DIMTOLJ
 70
     1
  9
$DIMTZIN
 70
     0
  9
$DIMALTZ
 70
     0
  9
$DIMALTTZ
 70
     0
  9
$DIMFIT
 70
     3
  9
$DIMUPT
 70
     0
  9
$DIMUNIT
 70
     2
  9
$DIMDEC
 70
     4
  9
$DIMTDEC
 70
     4
  9
$DIMALTU
 70
     2
  9
$DIMALTTD
 70
     2
  9
$DIMTXSTY
  7
STANDARD
  9
$DIMAUNIT
 70
     0
  9
$LUNITS
 70
     2
  9
$LUPREC
 70
     4
  9
$SKETCHINC
 40
0.1
  9
$FILLETRAD
 40
0.5
  9
$AUNITS
 70
     0
  9
$AUPREC
 70
     0
  9
$MENU
  1
.
  9
$ELEVATION
 40
0.0
  9
$PELEVATION
 40
0.0
  9
$THICKNESS
 40
0.0
  9
$LIMCHECK
 70
     0
  9
$CHAMFERA
 40
0.0
  9
$CHAMFERB
 40
0.0
  9
$CHAMFERC
 40
0.0
  9
$CHAMFERD
 40
0.0
  9
$SKPOLY
 70
     0
  9
$TDCREATE
 40
2459271.725893368
  9
$TDUPDATE
 40
2459271.725894155
  9
$TDINDWG
 40
0.0000000116
  9
$TDUSRTIMER
 40
0.0000000116
  9
$USRTIMER
 70
     1
  9
$ANGBASE
 50
0.0
  9
$ANGDIR
 70
     0
  9
$PDMODE
 70
     0
  9
$PDSIZE
 40
0.0
  9
$PLINEWID
 40
0.0
  9
$COORDS
 70
     1
  9
$SPLFRAME
 70
     0
  9
$SPLINETYPE
 70
     6
  9
$SPLINESEGS
 70
     8
  9
$ATTDIA
 70
     0
  9
$ATTREQ
 70
     1
  9
$HANDLING
 70
     1
  9
$HANDSEED
  5
1E3
  9
$SURFTAB1
 70
     6
  9
$SURFTAB2
 70
     6
  9
$SURFTYPE
 70
     6
  9
$SURFU
 70
     6
  9
$SURFV
 70
     6
  9
$UCSNAME
  2

  9
$UCSORG
 10
0.0
 20
0.0
 30
0.0
  9
$UCSXDIR
 10
1.0
 20
0.0
 30
0.0
  9
$UCSYDIR
 10
0.0
 20
1.0
 30
0.0
  9
$PUCSNAME
  2

  9
$PUCSORG
 10
0.0
 20
0.0
 30
0.0
  9
$PUCSXDIR
 10
1.0
 20
0.0
 30
0.0
  9
$PUCSYDIR
 10
0.0
 20
1.0
 30
0.0
  9
$USERI1
 70
     0
  9
$USERI2
 70
     0
  9
$USERI3
 70
     0
  9
$USERI4
 70
     0
  9
$USERI5
 70
     0
  9
$USERR1
 40
0.0
  9
$USERR2
 40
0.0
  9
$USERR3
 40
0.0
  9
$USERR4
 40
0.0
  9
$USERR5
 40
0.0
  9
$WORLDVIEW
 70
     1
  9
$SHADEDGE
 70
     3
  9
$SHADEDIF
 70
    70
  9
$TILEMODE
 70
     1
  9
$MAXACTVP
 70
    64
  9
$PINSBASE
 10
0.0
 20
0.0
 30
0.0
  9
$PLIMCHECK
 70
     0
  9
$PEXTMIN
 10
1.000000000000000E+20
 20
1.000000000000000E+20
 30
1.000000000000000E+20
  9
$PEXTMAX
 10
-1.000000000000000E+20
 20
-1.000000000000000E+20
 30
-1.000000000000000E+20
  9
$PLIMMIN
 10
0.0
 20
0.0
  9
$PLIMMAX
 10
12.0
 20
9.0
  9
$UNITMODE
 70
     0
  9
$VISRETAIN
 70
     1
  9
$PLINEGEN
 70
     0
  9
$PSLTSCALE
 70
     1
  9
$TREEDEPTH
 70
  3020
  9
$PICKSTYLE
 70
     1
  9
$CMLSTYLE
  2
STANDARD
  9
$CMLJUST
 70
     0
  9
$CMLSCALE
 40
1.0
  9
$PROXYGRAPHICS
 70
     1
  9
$MEASUREMENT
 70
     1
  0
ENDSEC
  0
SECTION
  2
CLASSES
  0
CLASS
  1
ACDBDICTIONARYWDFLT
  2
AcDbDictionaryWithDefault
  3
ObjectDBX Classes
 90
        0
280
     0
281
     0
  0
CLASS
  1
VISUALSTYLE
  2
AcDbVisualStyle
  3
ObjectDBX Classes
 90
     4095
280
     0
281
     0
  0
CLASS
  1
MATERIAL
  2
AcDbMaterial
  3
ObjectDBX Classes
 90
     1153
280
     0
281
     0
  0
CLASS
  1
SCALE
  2
AcDbScale
  3
ObjectDBX Classes
 90
     1153
280
     0
281
     0
  0
CLASS
  1
TABLESTYLE
  2
AcDbTableStyle
  3
ObjectDBX Classes
 90
     4095
280
     0
281
     0
  0
CLASS
  1
MLEADERSTYLE
  2
AcDbMLeaderStyle
  3
ACDB_MLEADERSTYLE_CLASS
 90
     4095
280
     0
281
     0
  0
CLASS
  1
SUN
  2
AcDbSun
  3
SCENEOE
 90
     1153
280
     0
281
     0
  0
CLASS
  1
DICTIONARYVAR
  2
AcDbDictionaryVar
  3
ObjectDBX Classes
 90
        0
280
     0
281
     0
  0
CLASS
  1
XRECORD
  2
AcDbXrecord
  3
ObjectDBX Classes
 90
        0
280
     0
281
     0
  0
CLASS
  1
LWPOLYLINE
  2
AcDbPolyline
  3
ObjectDBX Classes
 90
        0
280
     0
281
     1
  0
CLASS
  1
HATCH
  2
AcDbHatch
  3
ObjectDBX Classes
 90
        0
280
     0
281
     1
  0
CLASS
  1
ACDBPLACEHOLDER
  2
AcDbPlaceHolder
  3
ObjectDBX Classes
 90
        0
280
     0
281
     0
  0
CLASS
  1
LAYOUT
  2
AcDbLayout
  3
ObjectDBX Classes
 90
        0
280
     0
281
     0
  0
ENDSEC
  0
SECTION
  2
TABLES
  0
TABLE
  2
VPORT
  5
8
102
{ACAD_XDICTIONARY
360
1D8
102
}
330
0
100
AcDbSymbolTable
 70
     1
  0
VPORT
  5
29
330
8
100
AcDbSymbolTableRecord
100
AcDbViewportTableRecord
  2
*ACTIVE
 70
     0
 10
0.0
 20
0.0
 11
1.0
 21
1.0
 12
0.0
 22
0.0
 13
0.0
 23
0.0
 14
0.5
 24
0.5
 15
0.5
 25
0.5
 16
0.0
 26
0.0
 36
1.0
 17
0.0
 27
0.0
 37
-1000.0
 40
1415.842564213332
 41
2.159730033745782
 42
50.0
 43
609.9820495170407
 44
2002.03324150683
 50
0.0
 51
0.0
 71
     0
 72
   100
 73
     1
 74
     3
 75
     0
 76
     0
 77
     0
 78
     0
  0
ENDTAB
  0
TABLE
  2
LTYPE
  5
5
330
0
100
AcDbSymbolTable
 70
     1
  0
LTYPE
  5
14
330
5
100
AcDbSymbolTableRecord
100
AcDbLinetypeTableRecord
  2
BYBLOCK
 70
     0
  3

 72
    65
 73
     0
 40
0.0
  0
LTYPE
  5
15
330
5
100
AcDbSymbolTableRecord
100
AcDbLinetypeTableRecord
  2
BYLAYER
 70
     0
  3

 72
    65
 73
     0
 40
0.0
  0
LTYPE
  5
16
330
5
100
AcDbSymbolTableRecord
100
AcDbLinetypeTableRecord
  2
CONTINUOUS
 70
     0
  3
Solid line
 72
    65
 73
     0
 40
0.0
  0
ENDTAB
  0
TABLE
  2
LAYER
  5
2
330
0
100
AcDbSymbolTable
 70
     3
  0
LAYER
  5
10
330
2
100
AcDbSymbolTableRecord
100
AcDbLayerTableRecord
  2
0
 70
     0
 62
     7
  6
CONTINUOUS
  0
LAYER
  5
6E
330
2
100
AcDbSymbolTableRecord
100
AcDbLayerTableRecord
  2
PROFILEEDGES
 70
     0
 62
     7
  6
CONTINUOUS
  0
LAYER
  5
6F
330
2
100
AcDbSymbolTableRecord
100
AcDbLayerTableRecord
  2
SECTIONCUTEDGES
 70
     0
 62
     7
  6
CONTINUOUS
  0
ENDTAB
  0
TABLE
  2
STYLE
  5
3
330
0
100
AcDbSymbolTable
 70
     2
  0
STYLE
  5
11
330
3
100
AcDbSymbolTableRecord
100
AcDbTextStyleTableRecord
  2
STANDARD
 70
     0
 40
0.0
 41
1.0
 50
0.0
 71
     0
 42
0.2
  3
txt
  4

  0
STYLE
  5
1A6
330
3
100
AcDbSymbolTableRecord
100
AcDbTextStyleTableRecord
  2
TAHOMA
 70
     0
 40
0.0
 41
1.0
 50
0.0
 71
     0
 42
0.2
  3
Tahoma
  4

1001
ACAD
1000
Tahoma
1071
       34
  0
ENDTAB
  0
TABLE
  2
VIEW
  5
6
330
0
100
AcDbSymbolTable
 70
     0
  0
ENDTAB
  0
TABLE
  2
UCS
  5
7
330
0
100
AcDbSymbolTable
 70
     0
  0
ENDTAB
  0
TABLE
  2
APPID
  5
9
330
0
100
AcDbSymbolTable
 70
     2
  0
APPID
  5
12
330
9
100
AcDbSymbolTableRecord
100
AcDbRegAppTableRecord
  2
ACAD
 70
     0
  0
APPID
  5
1E2
330
9
100
AcDbSymbolTableRecord
100
AcDbRegAppTableRecord
  2
ACAD_MLEADERVER
 70
     0
  0
ENDTAB
  0
TABLE
  2
DIMSTYLE
  5
A
330
0
100
AcDbSymbolTable
 70
     1
  0
DIMSTYLE
105
27
330
A
100
AcDbSymbolTableRecord
100
AcDbDimStyleTableRecord
  2
STANDARD
 70
     0
  3

  4

  5

  6

  7

 40
1.0
 41
0.18
 42
0.0625
 43
0.38
 44
0.18
 45
0.0
 46
0.0
 47
0.0
 48
0.0
140
0.18
141
0.09
142
0.0
143
25.4
144
1.0
145
0.0
146
1.0
147
0.09
 71
     0
 72
     0
 73
     1
 74
     1
 75
     0
 76
     0
 77
     0
 78
     0
170
     0
171
     2
172
     0
173
     0
174
     0
175
     0
176
     0
177
     0
178
     0
270
     2
271
     4
272
     4
273
     2
274
     2
340
11
275
     0
280
     0
281
     0
282
     0
283
     1
284
     0
285
     0
286
     0
287
     3
288
     0
  0
ENDTAB
  0
TABLE
  2
BLOCK_RECORD
  5
1
330
0
100
AcDbSymbolTable
 70
     1
  0
BLOCK_RECORD
  5
1F
330
1
100
AcDbSymbolTableRecord
100
AcDbBlockTableRecord
  2
*MODEL_SPACE
  0
BLOCK_RECORD
  5
1B
330
1
100
AcDbSymbolTableRecord
100
AcDbBlockTableRecord
  2
*PAPER_SPACE
  0
ENDTAB
  0
ENDSEC
  0
SECTION
  2
BLOCKS
  0
BLOCK
  5
20
330
1F
100
AcDbEntity
  8
0
100
AcDbBlockBegin
  2
*MODEL_SPACE
 70
     0
 10
0.0
 20
0.0
 30
0.0
  3
*MODEL_SPACE
  1

  0
ENDBLK
  5
21
330
1F
100
AcDbEntity
  8
0
100
AcDbBlockEnd
  0
BLOCK
  5
1C
330
1B
100
AcDbEntity
 67
     1
  8
0
100
AcDbBlockBegin
  2
*PAPER_SPACE
 70
     0
 10
0.0
 20
0.0
 30
0.0
  3
*PAPER_SPACE
  1

  0
ENDBLK
  5
1D
330
1B
100
AcDbEntity
 67
     1
  8
0
100
AcDbBlockEnd
  0
ENDSEC
  0
SECTION
  2
ENTITIES
  0
LINE
  5
70
330
1F
100
AcDbEntity
  8
0
100
AcDbLine
 10
-1119.501846619488
 20
-145.2542227141074
 30
0.0
 11
-1109.501846619488
 21
-145.2542227141074
 31
0.0
  0
LINE
  5
71
330
1F
100
AcDbEntity
  8
0
100
AcDbLine
 10
430.4981533805122
 20
314.7457772858926
 30
0.0
 11
501.2758639040152
 21
224.7457772858926
 31
0.0
  0
LINE
  5
72
330
1F
100
AcDbEntity
  8
0
100
AcDbLine
 10
332.1264022198154
 20
194.7457772858926
 30
0.0
 11
-653.2161622368402
 21
194.7457772858926
 31
0.0
  0
LINE
  5
73
330
1F
100
AcDbEntity
  8
0
100
AcDbLine
 10
430.4981533805122
 20
314.7457772858926
 30
0.0
 11
355.4981533805126
 21
223.2560976389598
 31
0.0
  0
LINE
  5
74
330
1F
100
AcDbEntity
  8
0
100
AcDbLine
 10
-653.2161622368402
 20
194.7457772858926
 30
0.0
 11
-731.5315028685108
 21
314.7457772858926
 31
0.0
  0
LINE
  5
75
330
1F
100
AcDbEntity
  8
0
100
AcDbLine
 10
-731.5315028685108
 20
314.7457772858926
 30
0.0
 11
-831.3315028685108
 21
314.7457772858926
 31
0.0
  0
LINE
  5
76
330
1F
100
AcDbEntity
  8
0
100
AcDbLine
 10
-831.3315028685108
 20
314.7457772858926
 30
0.0
 11
-890.9446295581353
 21
184.7457772858926
 31
0.0
  0
LINE
  5
77
330
1F
100
AcDbEntity
  8
0
100
AcDbLine
 10
-1119.501846619488
 20
184.7457772858926
 30
0.0
 11
-1119.501846619488
 21
-145.2542227141074
 31
0.0
  0
LINE
  5
78
330
1F
100
AcDbEntity
  8
0
100
AcDbLine
 10
-1119.501846619488
 20
184.7457772858926
 30
0.0
 11
-890.9446295581353
 21
184.7457772858926
 31
0.0
  0
LINE
  5
79
330
1F
100
AcDbEntity
  8
0
100
AcDbLine
 10
1060.498153380512
 20
-145.2542227141074
 30
0.0
 11
1060.498153380512
 21
224.7457772858926
 31
0.0
  0
LINE
  5
7A
330
1F
100
AcDbEntity
  8
0
100
AcDbLine
 10
1060.498153380512
 20
224.7457772858926
 30
0.0
 11
501.2758639040152
 21
224.7457772858926
 31
0.0
  0
LINE
  5
7B
330
1F
100
AcDbEntity
  8
0
100
AcDbLine
 10
-639.5018466194874
 20
-145.2542227141074
 30
0.0
 11
-629.5018466194874
 21
-145.2542227141074
 31
0.0
  0
LINE
  5
7C
330
1F
100
AcDbEntity
  8
0
100
AcDbLine
 10
-699.5047748771747
 20
-66.88650261883441
 30
0.0
 11
-789.501846619488
 21
-66.88650261883441
 31
0.0
  0
LINE
  5
7D
330
1F
100
AcDbEntity
  8
0
100
AcDbLine
 10
-789.501846619488
 20
-66.88650261883441
 30
0.0
 11
-789.501846619488
 21
-48.04414049096717
 31
0.0
  0
LINE
  5
7E
330
1F
100
AcDbEntity
  8
0
100
AcDbLine
 10
-789.501846619488
 20
-48.04414049096717
 30
0.0
 11
-756.0318612607765
 21
-48.04414049096717
 31
0.0
  0
LINE
  5
7F
330
1F
100
AcDbEntity
  8
0
100
AcDbLine
 10
-756.0318612607765
 20
-48.04414049096717
 30
0.0
 11
-756.0318612607765
 21
75.67084242752965
 31
0.0
  0
LINE
  5
80
330
1F
100
AcDbEntity
  8
0
100
AcDbLine
 10
-756.0318612607765
 20
75.67084242752965
 30
0.0
 11
-789.501846619488
 21
75.67084242752965
 31
0.0
  0
LINE
  5
81
330
1F
100
AcDbEntity
  8
0
100
AcDbLine
 10
-789.501846619488
 20
75.67084242752965
 30
0.0
 11
-789.501846619488
 21
92.52979801562141
 31
0.0
  0
LINE
  5
82
330
1F
100
AcDbEntity
  8
0
100
AcDbLine
 10
-789.501846619488
 20
92.52979801562141
 30
0.0
 11
-773.0302626474285
 21
93.8778879076419
 31
0.0
  0
LINE
  5
83
330
1F
100
AcDbEntity
  8
0
100
AcDbLine
 10
-773.0302626474285
 20
93.8778879076419
 30
0.0
 11
-761.5482106995271
 21
97.92218454563604
 31
0.0
  0
LINE
  5
84
330
1F
100
AcDbEntity
  8
0
100
AcDbLine
 10
-761.5482106995271
 20
97.92218454563604
 30
0.0
 11
-754.528801152797
 21
105.7163404235033
 31
0.0
  0
LINE
  5
85
330
1F
100
AcDbEntity
  8
0
100
AcDbLine
 10
-754.528801152797
 20
105.7163404235033
 30
0.0
 11
-751.4452336375456
 21
118.3140830327029
 31
0.0
  0
LINE
  5
86
330
1F
100
AcDbEntity
  8
0
100
AcDbLine
 10
-751.4452336375456
 20
118.3140830327029
 30
0.0
 11
-732.2309827834705
 21
118.3140830327029
 31
0.0
  0
LINE
  5
87
330
1F
100
AcDbEntity
  8
0
100
AcDbLine
 10
-732.2309827834705
 20
118.3140830327029
 30
0.0
 11
-732.2309827834705
 21
-48.04414049096717
 31
0.0
  0
LINE
  5
88
330
1F
100
AcDbEntity
  8
0
100
AcDbLine
 10
-732.2309827834705
 20
-48.04414049096717
 30
0.0
 11
-699.5047748771747
 21
-48.04414049096717
 31
0.0
  0
LINE
  5
89
330
1F
100
AcDbEntity
  8
0
100
AcDbLine
 10
-699.5047748771747
 20
-48.04414049096717
 30
0.0
 11
-699.5047748771747
 21
-66.88650261883441
 31
0.0
  0
LINE
  5
8A
330
1F
100
AcDbEntity
  8
0
100
AcDbLine
 10
77.99688122436125
 20
-74.64804903586567
 30
0.0
 11
-35.92503190399405
 21
-74.64804903586567
 31
0.0
  0
LINE
  5
8B
330
1F
100
AcDbEntity
  8
0
100
AcDbLine
 10
-35.92503190399405
 20
-74.64804903586567
 30
0.0
 11
-35.92503190399405
 21
-48.7398011100482
 31
0.0
  0
LINE
  5
8C
330
1F
100
AcDbEntity
  8
0
100
AcDbLine
 10
-35.92503190399405
 20
-48.7398011100482
 30
0.0
 11
-12.74396797036789
 21
-26.42647753757382
 31
0.0
  0
LINE
  5
8D
330
1F
100
AcDbEntity
  8
0
100
AcDbLine
 10
-12.74396797036789
 20
-26.42647753757382
 30
0.0
 11
8.577652332218742
 21
-4.237116873835408
 31
0.0
  0
LINE
  5
8E
330
1F
100
AcDbEntity
  8
0
100
AcDbLine
 10
8.577652332218742
 20
-4.237116873835408
 30
0.0
 11
26.30436501645496
 21
16.6351494286292
 31
0.0
  0
LINE
  5
8F
330
1F
100
AcDbEntity
  8
0
100
AcDbLine
 10
26.30436501645496
 20
16.6351494286292
 30
0.0
 11
37.33704715896349
 21
32.88977429258723
 31
0.0
  0
LINE
  5
90
330
1F
100
AcDbEntity
  8
0
100
AcDbLine
 10
37.33704715896349
 20
32.88977429258723
 30
0.0
 11
43.10133202231147
 21
47.0680308171114
 31
0.0
  0
LINE
  5
91
330
1F
100
AcDbEntity
  8
0
100
AcDbLine
 10
43.10133202231147
 20
47.0680308171114
 30
0.0
 11
45.02274750059355
 21
61.71115057369998
 31
0.0
  0
LINE
  5
92
330
1F
100
AcDbEntity
  8
0
100
AcDbLine
 10
45.02274750059355
 20
61.71115057369998
 30
0.0
 11
42.60547078024216
 21
75.22310762592058
 31
0.0
  0
LINE
  5
93
330
1F
100
AcDbEntity
  8
0
100
AcDbLine
 10
42.60547078024216
 20
75.22310762592058
 30
0.0
 11
35.97345516286783
 21
84.89221450732613
 31
0.0
  0
LINE
  5
94
330
1F
100
AcDbEntity
  8
0
100
AcDbLine
 10
35.97345516286783
 20
84.89221450732613
 30
0.0
 11
25.93245955525437
 21
90.47054540044472
 31
0.0
  0
LINE
  5
95
330
1F
100
AcDbEntity
  8
0
100
AcDbLine
 10
25.93245955525437
 20
90.47054540044472
 30
0.0
 11
13.41220577292153
 21
92.32998903148426
 31
0.0
  0
LINE
  5
96
330
1F
100
AcDbEntity
  8
0
100
AcDbLine
 10
13.41220577292153
 20
92.32998903148426
 30
0.0
 11
0.0861930838048802
 21
90.65648976354869
 31
0.0
  0
LINE
  5
97
330
1F
100
AcDbEntity
  8
0
100
AcDbLine
 10
0.0861930838048802
 20
90.65648976354869
 30
0.0
 11
-12.86793087910385
 21
86.50373232089372
 31
0.0
  0
LINE
  5
98
330
1F
100
AcDbEntity
  8
0
100
AcDbLine
 10
-12.86793087910385
 20
86.50373232089372
 30
0.0
 11
-22.90892648671733
 21
81.421253062719
 31
0.0
  0
LINE
  5
99
330
1F
100
AcDbEntity
  8
0
100
AcDbLine
 10
-22.90892648671733
 20
81.421253062719
 30
0.0
 11
-30.71858973708336
 21
76.33877380454429
 31
0.0
  0
LINE
  5
9A
330
1F
100
AcDbEntity
  8
0
100
AcDbLine
 10
-30.71858973708336
 20
76.33877380454429
 30
0.0
 11
-32.08218173317901
 21
76.33877380454429
 31
0.0
  0
LINE
  5
9B
330
1F
100
AcDbEntity
  8
0
100
AcDbLine
 10
-32.08218173317901
 20
76.33877380454429
 30
0.0
 11
-32.08218173317901
 21
102.6189104565697
 31
0.0
  0
LINE
  5
9C
330
1F
100
AcDbEntity
  8
0
100
AcDbLine
 10
-32.08218173317901
 20
102.6189104565697
 30
0.0
 11
-10.6985799762244
 21
110.1186664350958
 31
0.0
  0
LINE
  5
9D
330
1F
100
AcDbEntity
  8
0
100
AcDbLine
 10
-10.6985799762244
 20
110.1186664350958
 30
0.0
 11
15.27164940396105
 21
113.7755722428069
 31
0.0
  0
LINE
  5
9E
330
1F
100
AcDbEntity
  8
0
100
AcDbLine
 10
15.27164940396105
 20
113.7755722428069
 30
0.0
 11
38.2667829203105
 21
110.3511140113525
 31
0.0
  0
LINE
  5
9F
330
1F
100
AcDbEntity
  8
0
100
AcDbLine
 10
38.2667829203105
 20
110.3511140113525
 30
0.0
 11
47.67244619111332
 21
106.0705219593606
 31
0.0
  0
LINE
  5
A0
330
1F
100
AcDbEntity
  8
0
100
AcDbLine
 10
47.67244619111332
 20
106.0705219593606
 30
0.0
 11
55.68355765188687
 21
100.0776708274823
 31
0.0
  0
LINE
  5
A1
330
1F
100
AcDbEntity
  8
0
100
AcDbLine
 10
55.68355765188687
 20
100.0776708274823
 30
0.0
 11
62.08316338547642
 21
92.62051881849925
 31
0.0
  0
LINE
  5
A2
330
1F
100
AcDbEntity
  8
0
100
AcDbLine
 10
62.08316338547642
 20
92.62051881849925
 30
0.0
 11
66.65429335954914
 21
83.94700949207478
 31
0.0
  0
LINE
  5
A3
330
1F
100
AcDbEntity
  8
0
100
AcDbLine
 10
66.65429335954914
 20
83.94700949207478
 30
0.0
 11
69.3969612875018
 21
74.05710804174842
 31
0.0
  0
LINE
  5
A4
330
1F
100
AcDbEntity
  8
0
100
AcDbLine
 10
69.3969612875018
 20
74.05710804174842
 30
0.0
 11
70.3111808827312
 21
62.95077966105966
 31
0.0
  0
LINE
  5
A5
330
1F
100
AcDbEntity
  8
0
100
AcDbLine
 10
70.3111808827312
 20
62.95077966105966
 30
0.0
 11
67.76994125364382
 21
42.9927513545687
 31
0.0
  0
LINE
  5
A6
330
1F
100
AcDbEntity
  8
0
100
AcDbLine
 10
67.76994125364382
 20
42.9927513545687
 30
0.0
 11
60.76603691006159
 21
26.00983285774097
 31
0.0
  0
LINE
  5
A7
330
1F
100
AcDbEntity
  8
0
100
AcDbLine
 10
60.76603691006159
 20
26.00983285774097
 30
0.0
 11
49.73333803256037
 21
10.018617630801
 31
0.0
  0
LINE
  5
A8
330
1F
100
AcDbEntity
  8
0
100
AcDbLine
 10
49.73333803256037
 20
10.018617630801
 30
0.0
 11
36.0974180716038
 21
-5.600708869931066
 31
0.0
  0
LINE
  5
A9
330
1F
100
AcDbEntity
  8
0
100
AcDbLine
 10
36.0974180716038
 20
-5.600708869931066
 30
0.0
 11
10.12718869141835
 21
-31.88084552195644
 31
0.0
  0
LINE
  5
AA
330
1F
100
AcDbEntity
  8
0
100
AcDbLine
 10
10.12718869141835
 20
-31.88084552195644
 30
0.0
 11
-12.74396797036789
 21
-53.45039164201501
 31
0.0
  0
LINE
  5
AB
330
1F
100
AcDbEntity
  8
0
100
AcDbLine
 10
-12.74396797036789
 20
-53.45039164201501
 30
0.0
 11
77.99688122436125
 21
-53.45039164201501
 31
0.0
  0
LINE
  5
AC
330
1F
100
AcDbEntity
  8
0
100
AcDbLine
 10
77.99688122436125
 20
-53.45039164201501
 30
0.0
 11
77.99688122436125
 21
-74.64804903586567
 31
0.0
  0
LINE
  5
AD
330
1F
100
AcDbEntity
  8
0
100
AcDbLine
 10
790.9098742389082
 20
93.4550384091491
 30
0.0
 11
777.5218800954236
 21
91.8435205955815
 31
0.0
  0
LINE
  5
AE
330
1F
100
AcDbEntity
  8
0
100
AcDbLine
 10
777.5218800954236
 20
91.8435205955815
 30
0.0
 11
764.381811769411
 21
87.62878169855856
 31
0.0
  0
LINE
  5
AF
330
1F
100
AcDbEntity
  8
0
100
AcDbLine
 10
764.381811769411
 20
87.62878169855856
 30
0.0
 11
754.0309088899576
 21
82.42233953164786
 31
0.0
  0
LINE
  5
B0
330
1F
100
AcDbEntity
  8
0
100
AcDbLine
 10
754.0309088899576
 20
82.42233953164786
 30
0.0
 11
746.1592641852235
 21
77.33986027347315
 31
0.0
  0
LINE
  5
B1
330
1F
100
AcDbEntity
  8
0
100
AcDbLine
 10
746.1592641852235
 20
77.33986027347315
 30
0.0
 11
744.671709280392
 21
77.33986027347315
 31
0.0
  0
LINE
  5
B2
330
1F
100
AcDbEntity
  8
0
100
AcDbLine
 10
744.671709280392
 20
77.33986027347315
 30
0.0
 11
744.671709280392
 21
103.4960340167626
 31
0.0
  0
LINE
  5
B3
330
1F
100
AcDbEntity
  8
0
100
AcDbLine
 10
744.671709280392
 20
103.4960340167626
 30
0.0
 11
766.5511626722904
 21
111.3676787214966
 31
0.0
  0
LINE
  5
B4
330
1F
100
AcDbEntity
  8
0
100
AcDbLine
 10
766.5511626722904
 20
111.3676787214966
 30
0.0
 11
792.8932807786838
 21
114.9006216204717
 31
0.0
  0
LINE
  5
B5
330
1F
100
AcDbEntity
  8
0
100
AcDbLine
 10
792.8932807786838
 20
114.9006216204717
 30
0.0
 11
814.7727341705823
 21
112.3593819913843
 31
0.0
  0
LINE
  5
B6
330
1F
100
AcDbEntity
  8
0
100
AcDbLine
 10
814.7727341705823
 20
112.3593819913843
 30
0.0
 11
831.693671213042
 21
104.4877372866503
 31
0.0
  0
LINE
  5
B7
330
1F
100
AcDbEntity
  8
0
100
AcDbLine
 10
831.693671213042
 20
104.4877372866503
 30
0.0
 11
838.8680295921293
 21
97.91770622271667
 31
0.0
  0
LINE
  5
B8
330
1F
100
AcDbEntity
  8
0
100
AcDbLine
 10
838.8680295921293
 20
97.91770622271667
 30
0.0
 11
844.0279806322709
 21
90.10803987327792
 31
0.0
  0
LINE
  5
B9
330
1F
100
AcDbEntity
  8
0
100
AcDbLine
 10
844.0279806322709
 20
90.10803987327792
 30
0.0
 11
847.142553905209
 21
80.96577891793385
 31
0.0
  0
LINE
  5
BA
330
1F
100
AcDbEntity
  8
0
100
AcDbLine
 10
847.142553905209
 20
80.96577891793385
 30
0.0
 11
848.1807380749258
 21
70.39793738425891
 31
0.0
  0
LINE
  5
BB
330
1F
100
AcDbEntity
  8
0
100
AcDbLine
 10
848.1807380749258
 20
70.39793738425891
 30
0.0
 11
845.6705017242671
 21
56.08021677664544
 31
0.0
  0
LINE
  5
BC
330
1F
100
AcDbEntity
  8
0
100
AcDbLine
 10
845.6705017242671
 20
56.08021677664544
 30
0.0
 11
838.1397424673123
 21
43.62194909728964
 31
0.0
  0
LINE
  5
BD
330
1F
100
AcDbEntity
  8
0
100
AcDbLine
 10
838.1397424673123
 20
43.62194909728964
 30
0.0
 11
827.1070485483275
 21
34.20075749650876
 31
0.0
  0
LINE
  5
BE
330
1F
100
AcDbEntity
  8
0
100
AcDbLine
 10
827.1070485483275
 20
34.20075749650876
 30
0.0
 11
814.0909381725344
 21
28.99432586644532
 31
0.0
  0
LINE
  5
BF
330
1F
100
AcDbEntity
  8
0
100
AcDbLine
 10
814.0909381725344
 20
28.99432586644532
 30
0.0
 11
814.0909381725344
 21
27.25884514414177
 31
0.0
  0
LINE
  5
C0
330
1F
100
AcDbEntity
  8
0
100
AcDbLine
 10
814.0909381725344
 20
27.25884514414177
 30
0.0
 11
826.5492105004992
 21
23.41599497332674
 31
0.0
  0
LINE
  5
C1
330
1F
100
AcDbEntity
  8
0
100
AcDbLine
 10
826.5492105004992
 20
23.41599497332674
 30
0.0
 11
838.8835199197281
 21
15.35840590548877
 31
0.0
  0
LINE
  5
C2
330
1F
100
AcDbEntity
  8
0
100
AcDbLine
 10
838.8835199197281
 20
15.35840590548877
 30
0.0
 11
848.1807380749258
 21
1.66050449016422
 31
0.0
  0
LINE
  5
C3
330
1F
100
AcDbEntity
  8
0
100
AcDbLine
 10
848.1807380749258
 20
1.66050449016422
 30
0.0
 11
850.8769358335886
 21
-7.621213730309186
 31
0.0
  0
LINE
  5
C4
330
1F
100
AcDbEntity
  8
0
100
AcDbLine
 10
850.8769358335886
 20
-7.621213730309186
 30
0.0
 11
851.7756624282689
 21
-18.73139399690264
 31
0.0
  0
LINE
  5
C5
330
1F
100
AcDbEntity
  8
0
100
AcDbLine
 10
851.7756624282689
 20
-18.73139399690264
 30
0.0
 11
850.7064876863216
 21
-30.74030333743461
 31
0.0
  0
LINE
  5
C6
330
1F
100
AcDbEntity
  8
0
100
AcDbLine
 10
850.7064876863216
 20
-30.74030333743461
 30
0.0
 11
847.498942076878
 21
-41.72651356742485
 31
0.0
  0
LINE
  5
C7
330
1F
100
AcDbEntity
  8
0
100
AcDbLine
 10
847.498942076878
 20
-41.72651356742485
 30
0.0
 11
842.3389904169219
 21
-51.59706319712225
 31
0.0
  0
LINE
  5
C8
330
1F
100
AcDbEntity
  8
0
100
AcDbLine
 10
842.3389904169219
 20
-51.59706319712225
 30
0.0
 11
835.412558475121
 21
-60.25896842345217
 31
0.0
  0
LINE
  5
C9
330
1F
100
AcDbEntity
  8
0
100
AcDbLine
 10
835.412558475121
 20
-60.25896842345217
 30
0.0
 11
826.5182239570635
 21
-67.6657573338963
 31
0.0
  0
LINE
  5
CA
330
1F
100
AcDbEntity
  8
0
100
AcDbLine
 10
826.5182239570635
 20
-67.6657573338963
 30
0.0
 11
815.9503818035739
 21
-73.02714802325697
 31
0.0
  0
LINE
  5
CB
330
1F
100
AcDbEntity
  8
0
100
AcDbLine
 10
815.9503818035739
 20
-73.02714802325697
 30
0.0
 11
803.7710298941059
 21
-76.2811798009534
 31
0.0
  0
LINE
  5
CC
330
1F
100
AcDbEntity
  8
0
100
AcDbLine
 10
803.7710298941059
 20
-76.2811798009534
 30
0.0
 11
790.0421338777564
 21
-77.36584982901586
 31
0.0
  0
LINE
  5
CD
330
1F
100
AcDbEntity
  8
0
100
AcDbLine
 10
790.0421338777564
 20
-77.36584982901586
 30
0.0
 11
762.5223681383713
 21
-74.0188512931447
 31
0.0
  0
LINE
  5
CE
330
1F
100
AcDbEntity
  8
0
100
AcDbLine
 10
762.5223681383713
 20
-74.0188512931447
 30
0.0
 11
739.5892300222172
 21
-65.96126222530674
 31
0.0
  0
LINE
  5
CF
330
1F
100
AcDbEntity
  8
0
100
AcDbLine
 10
739.5892300222172
 20
-65.96126222530674
 30
0.0
 11
739.5892300222172
 21
-39.80508848201733
 31
0.0
  0
LINE
  5
D0
330
1F
100
AcDbEntity
  8
0
100
AcDbLine
 10
739.5892300222172
 20
-39.80508848201733
 30
0.0
 11
741.3247107445208
 21
-39.80508848201733
 31
0.0
  0
LINE
  5
D1
330
1F
100
AcDbEntity
  8
0
100
AcDbLine
 10
741.3247107445208
 20
-39.80508848201733
 30
0.0
 11
762.2744423208994
 21
-50.71382445078258
 31
0.0
  0
LINE
  5
D2
330
1F
100
AcDbEntity
  8
0
100
AcDbLine
 10
762.2744423208994
 20
-50.71382445078258
 30
0.0
 11
775.4145106469122
 21
-54.61866258401831
 31
0.0
  0
LINE
  5
D3
330
1F
100
AcDbEntity
  8
0
100
AcDbLine
 10
775.4145106469122
 20
-54.61866258401831
 30
0.0
 11
788.5545789729249
 21
-55.92026661769327
 31
0.0
  0
LINE
  5
D4
330
1F
100
AcDbEntity
  8
0
100
AcDbLine
 10
788.5545789729249
 20
-55.92026661769327
 30
0.0
 11
803.740035293081
 21
-53.50298989734188
 31
0.0
  0
LINE
  5
D5
330
1F
100
AcDbEntity
  8
0
100
AcDbLine
 10
803.740035293081
 20
-53.50298989734188
 30
0.0
 11
810.7284474496207
 21
-50.32644415734676
 31
0.0
  0
LINE
  5
D6
330
1F
100
AcDbEntity
  8
0
100
AcDbLine
 10
810.7284474496207
 20
-50.32644415734676
 30
0.0
 11
816.4462334385178
 21
-45.63134519260786
 31
0.0
  0
LINE
  5
D7
330
1F
100
AcDbEntity
  8
0
100
AcDbLine
 10
816.4462334385178
 20
-45.63134519260786
 30
0.0
 11
824.007970871412
 21
-33.6069430452189
 31
0.0
  0
LINE
  5
D8
330
1F
100
AcDbEntity
  8
0
100
AcDbLine
 10
824.007970871412
 20
-33.6069430452189
 30
0.0
 11
826.6111919548672
 21
-16.99591327459908
 31
0.0
  0
LINE
  5
D9
330
1F
100
AcDbEntity
  8
0
100
AcDbLine
 10
826.6111919548672
 20
-16.99591327459908
 30
0.0
 11
823.698063599572
 21
-0.508846412715234
 31
0.0
  0
LINE
  5
DA
330
1F
100
AcDbEntity
  8
0
100
AcDbLine
 10
823.698063599572
 20
-0.508846412715234
 30
0.0
 11
815.578493077366
 21
9.656112103634202
 31
0.0
  0
LINE
  5
DB
330
1F
100
AcDbEntity
  8
0
100
AcDbLine
 10
815.578493077366
 20
9.656112103634202
 30
0.0
 11
803.2441836581371
 21
14.80057281617691
 31
0.0
  0
LINE
  5
DC
330
1F
100
AcDbEntity
  8
0
100
AcDbLine
 10
803.2441836581371
 20
14.80057281617691
 30
0.0
 11
787.810801520509
 21
16.22614626664054
 31
0.0
  0
LINE
  5
DD
330
1F
100
AcDbEntity
  8
0
100
AcDbLine
 10
787.810801520509
 20
16.22614626664054
 30
0.0
 11
777.2739542779517
 21
16.22614626664054
 31
0.0
  0
LINE
  5
DE
330
1F
100
AcDbEntity
  8
0
100
AcDbLine
 10
777.2739542779517
 20
16.22614626664054
 30
0.0
 11
777.2739542779517
 21
36.80398911681136
 31
0.0
  0
LINE
  5
DF
330
1F
100
AcDbEntity
  8
0
100
AcDbLine
 10
777.2739542779517
 20
36.80398911681136
 30
0.0
 11
785.4555062545256
 21
36.80398911681136
 31
0.0
  0
LINE
  5
E0
330
1F
100
AcDbEntity
  8
0
100
AcDbLine
 10
785.4555062545256
 20
36.80398911681136
 30
0.0
 11
800.6254750362484
 21
38.78738573955415
 31
0.0
  0
LINE
  5
E1
330
1F
100
AcDbEntity
  8
0
100
AcDbLine
 10
800.6254750362484
 20
38.78738573955415
 30
0.0
 11
812.6653647220708
 21
44.73761527591336
 31
0.0
  0
LINE
  5
E2
330
1F
100
AcDbEntity
  8
0
100
AcDbLine
 10
812.6653647220708
 20
44.73761527591336
 30
0.0
 11
820.521527156795
 21
54.46869462437602
 31
0.0
  0
LINE
  5
E3
330
1F
100
AcDbEntity
  8
0
100
AcDbLine
 10
820.521527156795
 20
54.46869462437602
 30
0.0
 11
823.14023051026
 21
67.79471630080354
 31
0.0
  0
LINE
  5
E4
330
1F
100
AcDbEntity
  8
0
100
AcDbLine
 10
823.14023051026
 20
67.79471630080354
 30
0.0
 11
820.4130465180688
 21
79.75713699382453
 31
0.0
  0
LINE
  5
E5
330
1F
100
AcDbEntity
  8
0
100
AcDbLine
 10
820.4130465180688
 20
79.75713699382453
 30
0.0
 11
813.4711236288546
 21
87.75274460729453
 31
0.0
  0
LINE
  5
E6
330
1F
100
AcDbEntity
  8
0
100
AcDbLine
 10
813.4711236288546
 20
87.75274460729453
 30
0.0
 11
803.0582392950332
 21
92.21540932178941
 31
0.0
  0
LINE
  5
E7
330
1F
100
AcDbEntity
  8
0
100
AcDbLine
 10
803.0582392950332
 20
92.21540932178941
 30
0.0
 11
790.9098742389082
 21
93.4550384091491
 31
0.0
  0
LINE
  5
E8
330
1F
100
AcDbEntity
  8
0
100
AcDbLine
 10
-1109.501846619488
 20
-145.2542227141074
 30
0.0
 11
-1109.501846619488
 21
167.7457772858926
 31
0.0
  0
LINE
  5
E9
330
1F
100
AcDbEntity
  8
0
100
AcDbLine
 10
-1109.501846619488
 20
167.7457772858926
 30
0.0
 11
-639.5018466194874
 21
167.7457772858926
 31
0.0
  0
LINE
  5
EA
330
1F
100
AcDbEntity
  8
0
100
AcDbLine
 10
-639.5018466194874
 20
167.7457772858926
 30
0.0
 11
-639.5018466194874
 21
-145.2542227141074
 31
0.0
  0
LINE
  5
EB
330
1F
100
AcDbEntity
  8
0
100
AcDbLine
 10
-639.5018466194874
 20
-145.2542227141074
 30
0.0
 11
-1109.501846619488
 21
-145.2542227141074
 31
0.0
  0
LINE
  5
EC
330
1F
100
AcDbEntity
  8
0
100
AcDbLine
 10
-629.5018466194874
 20
-145.2542227141074
 30
0.0
 11
560.4981533805127
 21
-145.2542227141073
 31
0.0
  0
LINE
  5
ED
330
1F
100
AcDbEntity
  8
0
100
AcDbLine
 10
-629.5018466194874
 20
-145.2542227141074
 30
0.0
 11
-629.5018466194875
 21
162.7457772858926
 31
0.0
  0
LINE
  5
EE
330
1F
100
AcDbEntity
  8
0
100
AcDbLine
 10
580.4981533805123
 20
-130.2542227141074
 30
0.0
 11
1050.498153380512
 21
-130.2542227141074
 31
0.0
  0
LINE
  5
EF
330
1F
100
AcDbEntity
  8
0
100
AcDbLine
 10
580.4981533805123
 20
-130.2542227141074
 30
0.0
 11
580.4981533805123
 21
182.7457772858926
 31
0.0
  0
LINE
  5
F0
330
1F
100
AcDbEntity
  8
0
100
AcDbLine
 10
1050.498153380512
 20
132.7457772858924
 30
0.0
 11
1048.794444694966
 21
145.6867295410185
 31
0.0
  0
LINE
  5
F1
330
1F
100
AcDbEntity
  8
0
100
AcDbLine
 10
1048.794444694966
 20
145.6867295410185
 30
0.0
 11
1043.799423569734
 21
157.7457772858925
 31
0.0
  0
LINE
  5
F2
330
1F
100
AcDbEntity
  8
0
100
AcDbLine
 10
1043.799423569734
 20
157.7457772858925
 30
0.0
 11
1035.85349243984
 21
168.1011163452199
 31
0.0
  0
LINE
  5
F3
330
1F
100
AcDbEntity
  8
0
100
AcDbLine
 10
1035.85349243984
 20
168.1011163452199
 30
0.0
 11
1025.498153380512
 21
176.0470474751145
 31
0.0
  0
LINE
  5
F4
330
1F
100
AcDbEntity
  8
0
100
AcDbLine
 10
1025.498153380512
 20
176.0470474751145
 30
0.0
 11
1013.439105635638
 21
181.0420686003461
 31
0.0
  0
LINE
  5
F5
330
1F
100
AcDbEntity
  8
0
100
AcDbLine
 10
1013.439105635638
 20
181.0420686003461
 30
0.0
 11
1000.498153380512
 21
182.7457772858926
 31
0.0
  0
LINE
  5
F6
330
1F
100
AcDbEntity
  8
0
100
AcDbLine
 10
1000.498153380512
 20
182.7457772858926
 30
0.0
 11
997.9981533805116
 21
182.4166460419241
 31
0.0
  0
LINE
  5
F7
330
1F
100
AcDbEntity
  8
0
100
AcDbLine
 10
997.9981533805116
 20
182.4166460419241
 30
0.0
 11
995.4981533805125
 21
182.7457772858925
 31
0.0
  0
LINE
  5
F8
330
1F
100
AcDbEntity
  8
0
100
AcDbLine
 10
995.4981533805125
 20
182.7457772858925
 30
0.0
 11
1000.498153380512
 21
182.7457772858926
 31
0.0
  0
LINE
  5
F9
330
1F
100
AcDbEntity
  8
0
100
AcDbLine
 10
1050.498153380512
 20
-130.2542227141074
 30
0.0
 11
1050.498153380512
 21
132.7457772858924
 31
0.0
  0
LINE
  5
FA
330
1F
100
AcDbEntity
  8
0
100
AcDbLine
 10
560.4981533805127
 20
-145.2542227141073
 30
0.0
 11
1060.498153380512
 21
-145.2542227141074
 31
0.0
  0
LINE
  5
FB
330
1F
100
AcDbEntity
  8
0
100
AcDbLine
 10
570.4981533805125
 20
221.7457772858926
 30
0.0
 11
570.4981533805125
 21
-135.2542227141074
 31
0.0
  0
LINE
  5
FC
330
1F
100
AcDbEntity
  8
0
100
AcDbLine
 10
355.4981533805126
 20
223.2560976389598
 30
0.0
 11
332.1264022198154
 21
194.7457772858926
 31
0.0
  0
LINE
  5
FD
330
1F
100
AcDbEntity
  8
0
100
AcDbLine
 10
355.4981533805126
 20
221.7457772858926
 30
0.0
 11
355.4981533805126
 21
223.2560976389598
 31
0.0
  0
LINE
  5
FE
330
1F
100
AcDbEntity
  8
0
100
AcDbLine
 10
570.4981533805125
 20
221.7457772858926
 30
0.0
 11
355.4981533805126
 21
221.7457772858926
 31
0.0
  0
LINE
  5
FF
330
1F
100
AcDbEntity
  8
0
100
AcDbLine
 10
355.4981533805126
 20
221.7457772858926
 30
0.0
 11
355.4981533805126
 21
162.7457772858926
 31
0.0
  0
LINE
  5
100
330
1F
100
AcDbEntity
  8
0
100
AcDbLine
 10
355.4981533805126
 20
162.7457772858926
 30
0.0
 11
-629.5018466194875
 21
162.7457772858926
 31
0.0
  0
LINE
  5
101
330
1F
100
AcDbEntity
  8
0
100
AcDbLine
 10
560.4981533805127
 20
-145.2542227141073
 30
0.0
 11
563.0863438315379
 21
-144.913480976998
 31
0.0
  0
LINE
  5
102
330
1F
100
AcDbEntity
  8
0
100
AcDbLine
 10
563.0863438315379
 20
-144.913480976998
 30
0.0
 11
565.4981533805125
 21
-143.9144767519517
 31
0.0
  0
LINE
  5
103
330
1F
100
AcDbEntity
  8
0
100
AcDbLine
 10
565.4981533805125
 20
-143.9144767519517
 30
0.0
 11
567.5692211923778
 21
-142.3252905259728
 31
0.0
  0
LINE
  5
104
330
1F
100
AcDbEntity
  8
0
100
AcDbLine
 10
567.5692211923778
 20
-142.3252905259728
 30
0.0
 11
569.1584074183568
 21
-140.2542227141074
 31
0.0
  0
LINE
  5
105
330
1F
100
AcDbEntity
  8
0
100
AcDbLine
 10
569.1584074183568
 20
-140.2542227141074
 30
0.0
 11
570.1574116434031
 21
-137.8424131651326
 31
0.0
  0
LINE
  5
106
330
1F
100
AcDbEntity
  8
0
100
AcDbLine
 10
570.1574116434031
 20
-137.8424131651326
 30
0.0
 11
570.4981533805125
 21
-135.2542227141074
 31
0.0
  0
LINE
  5
107
330
1F
100
AcDbEntity
  8
0
100
AcDbLine
 10
580.4981533805123
 20
182.7457772858926
 30
0.0
 11
995.4981533805125
 21
182.7457772858925
 31
0.0
  0
LINE
  5
108
330
1F
100
AcDbEntity
  8
0
100
AcDbLine
 10
-1119.501846619488
 20
194.7457772858926
 30
0.0
 11
-1119.501846619488
 21
184.7457772858926
 31
0.0
  0
LINE
  5
109
330
1F
100
AcDbEntity
  8
0
 62
    49
100
AcDbLine
 10
-1125.076029943162
 20
-145.2542227141074
 30
0.0
 11
-1162.049535167788
 21
-145.2542227141074
 31
0.0
  0
LINE
  5
10A
330
1F
100
AcDbEntity
  8
0
 62
    49
100
AcDbLine
 10
-1125.076029943162
 20
184.7457772858926
 30
0.0
 11
-1162.049535167788
 21
184.7457772858926
 31
0.0
  0
LINE
  5
10B
330
1F
100
AcDbEntity
  8
0
 62
    49
100
AcDbLine
 10
-1157.271663747495
 20
-145.2542227141074
 30
0.0
 11
-1157.271663747496
 21
0.6342916047227813
 31
0.0
  0
LINE
  5
10C
330
1F
100
AcDbEntity
  8
0
 62
    49
100
AcDbLine
 10
-1157.271663747496
 20
38.85726296706257
 30
0.0
 11
-1157.271663747495
 21
184.7457772858926
 31
0.0
  0
LINE
  5
10D
330
1F
100
AcDbEntity
  8
0
 62
    49
100
AcDbLine
 10
-1119.501846619488
 20
-145.2542227141074
 30
0.0
 11
-79.66949653255837
 21
-145.2542227141074
 31
0.0
  0
LINE
  5
10E
330
1F
100
AcDbEntity
  8
0
 62
    49
100
AcDbLine
 10
20.66580329358293
 20
-145.2542227141074
 30
0.0
 11
1060.498153380512
 21
-145.2542227141074
 31
0.0
  0
LINE
  5
10F
330
1F
100
AcDbEntity
  8
0
 62
    49
100
AcDbLine
 10
1066.072336704187
 20
-145.2542227141074
 30
0.0
 11
1118.874426751624
 21
-145.2542227141074
 31
0.0
  0
LINE
  5
110
330
1F
100
AcDbEntity
  8
0
 62
    49
100
AcDbLine
 10
1066.072336704187
 20
224.7457772858926
 30
0.0
 11
1118.874426751624
 21
224.7457772858926
 31
0.0
  0
LINE
  5
111
330
1F
100
AcDbEntity
  8
0
 62
    49
100
AcDbLine
 10
1114.096555331331
 20
-145.2542227141074
 30
0.0
 11
1114.096555331332
 21
20.63429160472266
 31
0.0
  0
LINE
  5
112
330
1F
100
AcDbEntity
  8
0
 62
    49
100
AcDbLine
 10
1114.096555331332
 20
58.85726296706247
 30
0.0
 11
1114.096555331331
 21
224.7457772858926
 31
0.0
  0
LINE
  5
113
330
1F
100
AcDbEntity
  8
0
100
AcDbLine
 10
-629.5018466194875
 20
162.7457772858926
 30
0.0
 11
-629.5018466194874
 21
164.7457772858926
 31
0.0
  0
LINE
  5
114
330
1F
100
AcDbEntity
  8
0
 62
    49
100
AcDbLine
 10
-629.5018466194875
 20
168.3199606095671
 30
0.0
 11
-629.5018466194875
 21
248.8034560201164
 31
0.0
  0
LINE
  5
115
330
1F
100
AcDbEntity
  8
0
 62
    49
100
AcDbLine
 10
355.4981533805126
 20
168.3199606095671
 30
0.0
 11
355.4981533805126
 21
248.8034560201164
 31
0.0
  0
LINE
  5
116
330
1F
100
AcDbEntity
  8
0
 62
    49
100
AcDbLine
 10
-629.5018466194875
 20
244.025584599824
 30
0.0
 11
-181.5953132088836
 21
244.0255845998242
 31
0.0
  0
LINE
  5
117
330
1F
100
AcDbEntity
  8
0
 62
    49
100
AcDbLine
 10
-92.40838003009095
 20
244.0255845998242
 30
0.0
 11
355.4981533805126
 21
244.025584599824
 31
0.0
  0
LINE
  5
118
330
1F
100
AcDbEntity
  8
0
 62
    49
100
AcDbLine
 10
-623.927663295813
 20
-145.2542227141074
 30
0.0
 11
-568.5303005833505
 21
-145.2542227141074
 31
0.0
  0
LINE
  5
119
330
1F
100
AcDbEntity
  8
0
 62
    49
100
AcDbLine
 10
-623.927663295813
 20
162.7457772858926
 30
0.0
 11
-568.5303005833504
 21
162.7457772858926
 31
0.0
  0
LINE
  5
11A
330
1F
100
AcDbEntity
  8
0
 62
    49
100
AcDbLine
 10
-573.3081720036429
 20
-145.2542227141074
 30
0.0
 11
-573.3081720036429
 21
-10.36570839527736
 31
0.0
  0
LINE
  5
11B
330
1F
100
AcDbEntity
  8
0
 62
    49
100
AcDbLine
 10
-573.3081720036429
 20
27.85726296706226
 30
0.0
 11
-573.3081720036429
 21
162.7457772858926
 31
0.0
  0
LINE
  5
11C
330
1F
100
AcDbEntity
  8
0
 62
    49
100
AcDbLine
 10
355.4981533805126
 20
227.3199606095672
 30
0.0
 11
355.4981533805126
 21
343.0333587035311
 31
0.0
  0
LINE
  5
11D
330
1F
100
AcDbEntity
  8
0
 62
    49
100
AcDbLine
 10
570.4981533805125
 20
227.3199606095672
 30
0.0
 11
570.4981533805125
 21
343.0333587035311
 31
0.0
  0
LINE
  5
11E
330
1F
100
AcDbEntity
  8
0
 62
    49
100
AcDbLine
 10
355.4981533805126
 20
338.2554872832387
 30
0.0
 11
418.4046867911158
 21
338.2554872832387
 31
0.0
  0
LINE
  5
11F
330
1F
100
AcDbEntity
  8
0
 62
    49
100
AcDbLine
 10
507.5916199699083
 20
338.2554872832387
 30
0.0
 11
570.4981533805125
 21
338.2554872832387
 31
0.0
  0
LINE
  5
120
330
1F
100
AcDbEntity
  8
0
 62
    49
100
AcDbLine
 10
580.4981533805123
 20
138.3199606095672
 30
0.0
 11
580.4981533805123
 21
343.0333587035311
 31
0.0
  0
LINE
  5
121
330
1F
100
AcDbEntity
  8
0
 62
    49
100
AcDbLine
 10
1050.498153380512
 20
138.319960609567
 30
0.0
 11
1050.498153380512
 21
343.0333587035311
 31
0.0
  0
LINE
  5
122
330
1F
100
AcDbEntity
  8
0
 62
    49
100
AcDbLine
 10
580.4981533805123
 20
338.2554872832387
 30
0.0
 11
770.904686791116
 21
338.2554872832387
 31
0.0
  0
LINE
  5
123
330
1F
100
AcDbEntity
  8
0
 62
    49
100
AcDbLine
 10
860.0916199699083
 20
338.2554872832387
 30
0.0
 11
1050.498153380512
 21
338.2554872832387
 31
0.0
  0
LINE
  5
124
330
1F
100
AcDbEntity
  8
0
 62
    49
100
AcDbLine
 10
564.9239700568379
 20
221.7457772858926
 30
0.0
 11
469.6034955390878
 21
221.7457772858927
 31
0.0
  0
LINE
  5
125
330
1F
100
AcDbEntity
  8
0
 62
    49
100
AcDbLine
 10
520.3708758724259
 20
-145.2542227141074
 30
0.0
 11
469.6034955390877
 21
-145.2542227141073
 31
0.0
  0
LINE
  5
126
330
1F
100
AcDbEntity
  8
0
 62
    49
100
AcDbLine
 10
474.3813669593803
 20
221.7457772858927
 30
0.0
 11
474.3813669593802
 21
57.35726296706241
 31
0.0
  0
LINE
  5
127
330
1F
100
AcDbEntity
  8
0
 62
    49
100
AcDbLine
 10
474.3813669593802
 20
19.13429160472277
 30
0.0
 11
474.3813669593801
 21
-145.2542227141073
 31
0.0
  0
LINE
  5
128
330
1F
100
AcDbEntity
  8
0
 62
    49
100
AcDbLine
 10
-629.5018466194874
 20
-150.8284060377819
 30
0.0
 11
-629.5018466194874
 21
-222.5963136961647
 31
0.0
  0
LINE
  5
129
330
1F
100
AcDbEntity
  8
0
 62
    49
100
AcDbLine
 10
570.4981533805126
 20
-150.8284060377819
 30
0.0
 11
570.4981533805126
 21
-222.5963136961647
 31
0.0
  0
LINE
  5
12A
330
1F
100
AcDbEntity
  8
0
 62
    49
100
AcDbLine
 10
-629.5018466194874
 20
-217.8184422758722
 30
0.0
 11
-79.66949653255837
 21
-217.8184422758723
 31
0.0
  0
LINE
  5
12B
330
1F
100
AcDbEntity
  8
0
 62
    49
100
AcDbLine
 10
20.66580329358328
 20
-217.8184422758723
 30
0.0
 11
570.4981533805126
 21
-217.8184422758722
 31
0.0
  0
LINE
  5
12C
330
1F
100
AcDbEntity
  8
0
 62
    49
100
AcDbLine
 10
-1109.501846619488
 20
-145.2542227141074
 30
0.0
 11
-919.0953132088839
 21
-145.2542227141074
 31
0.0
  0
LINE
  5
12D
330
1F
100
AcDbEntity
  8
0
 62
    49
100
AcDbLine
 10
-829.9083800300913
 20
-145.2542227141074
 30
0.0
 11
-639.5018466194873
 21
-145.2542227141074
 31
0.0
  0
LINE
  5
12E
330
1F
100
AcDbEntity
  8
0
 62
    49
100
AcDbLine
 10
-645.0760299431619
 20
167.7457772858926
 30
0.0
 11
-904.3600376312329
 21
167.7457772858927
 31
0.0
  0
LINE
  5
12F
330
1F
100
AcDbEntity
  8
0
 62
    49
100
AcDbLine
 10
-645.076029943162
 20
-145.2542227141074
 30
0.0
 11
-904.360037631233
 21
-145.2542227141073
 31
0.0
  0
LINE
  5
130
330
1F
100
AcDbEntity
  8
0
 62
    49
100
AcDbLine
 10
-899.5821662109405
 20
167.7457772858927
 30
0.0
 11
-899.5821662109404
 21
30.35726296706255
 31
0.0
  0
LINE
  5
131
330
1F
100
AcDbEntity
  8
0
 62
    49
100
AcDbLine
 10
-899.5821662109404
 20
-7.865708395277226
 30
0.0
 11
-899.5821662109405
 21
-145.2542227141073
 31
0.0
  0
POLYLINE
  5
132
330
1F
100
AcDbEntity
  8
0
 62
    49
100
AcDbPolyFaceMesh
 66
     1
 10
0.0
 20
0.0
 30
0.0
 70
    64
 71
     3
 72
     1
  0
VERTEX
  5
133
330
132
100
AcDbEntity
  8
0
100
AcDbVertex
100
AcDbPolyFaceMeshVertex
 10
-1152.493792327203
 20
-130.92060845323
 30
0.0
 70
   192
  0
VERTEX
  5
134
330
132
100
AcDbEntity
  8
0
100
AcDbVertex
100
AcDbPolyFaceMeshVertex
 10
-1157.271663747495
 20
-145.2542227141074
 30
0.0
 70
   192
  0
VERTEX
  5
135
330
132
100
AcDbEntity
  8
0
100
AcDbVertex
100
AcDbPolyFaceMeshVertex
 10
-1162.049535167788
 20
-130.92060845323
 30
0.0
 70
   192
  0
VERTEX
  5
136
330
132
100
AcDbEntity
  8
0
 62
    49
100
AcDbFaceRecord
 10
0.0
 20
0.0
 30
0.0
 70
   128
 71
     1
 72
     2
 73
     3
  0
SEQEND
  5
137
330
132
100
AcDbEntity
  8
0
 62
    49
  0
POLYLINE
  5
138
330
1F
100
AcDbEntity
  8
0
 62
    49
100
AcDbPolyFaceMesh
 66
     1
 10
0.0
 20
0.0
 30
0.0
 70
    64
 71
     3
 72
     1
  0
VERTEX
  5
139
330
138
100
AcDbEntity
  8
0
100
AcDbVertex
100
AcDbPolyFaceMeshVertex
 10
-1152.493792327203
 20
170.4121630250152
 30
0.0
 70
   192
  0
VERTEX
  5
13A
330
138
100
AcDbEntity
  8
0
100
AcDbVertex
100
AcDbPolyFaceMeshVertex
 10
-1162.049535167788
 20
170.4121630250152
 30
0.0
 70
   192
  0
VERTEX
  5
13B
330
138
100
AcDbEntity
  8
0
100
AcDbVertex
100
AcDbPolyFaceMeshVertex
 10
-1157.271663747495
 20
184.7457772858926
 30
0.0
 70
   192
  0
VERTEX
  5
13C
330
138
100
AcDbEntity
  8
0
 62
    49
100
AcDbFaceRecord
 10
0.0
 20
0.0
 30
0.0
 70
   128
 71
     1
 72
     2
 73
     3
  0
SEQEND
  5
13D
330
138
100
AcDbEntity
  8
0
 62
    49
  0
POLYLINE
  5
142
330
1F
100
AcDbEntity
  8
0
 62
    49
100
AcDbPolyFaceMesh
 66
     1
 10
0.0
 20
0.0
 30
0.0
 70
    64
 71
     3
 72
     1
  0
VERTEX
  5
143
330
142
100
AcDbEntity
  8
0
100
AcDbVertex
100
AcDbPolyFaceMeshVertex
 10
1118.874426751624
 20
-130.92060845323
 30
0.0
 70
   192
  0
VERTEX
  5
144
330
142
100
AcDbEntity
  8
0
100
AcDbVertex
100
AcDbPolyFaceMeshVertex
 10
1114.096555331331
 20
-145.2542227141074
 30
0.0
 70
   192
  0
VERTEX
  5
145
330
142
100
AcDbEntity
  8
0
100
AcDbVertex
100
AcDbPolyFaceMeshVertex
 10
1109.318683911039
 20
-130.92060845323
 30
0.0
 70
   192
  0
VERTEX
  5
146
330
142
100
AcDbEntity
  8
0
 62
    49
100
AcDbFaceRecord
 10
0.0
 20
0.0
 30
0.0
 70
   128
 71
     1
 72
     2
 73
     3
  0
SEQEND
  5
147
330
142
100
AcDbEntity
  8
0
 62
    49
  0
POLYLINE
  5
148
330
1F
100
AcDbEntity
  8
0
 62
    49
100
AcDbPolyFaceMesh
 66
     1
 10
0.0
 20
0.0
 30
0.0
 70
    64
 71
     3
 72
     1
  0
VERTEX
  5
149
330
148
100
AcDbEntity
  8
0
100
AcDbVertex
100
AcDbPolyFaceMeshVertex
 10
1118.874426751624
 20
210.4121630250152
 30
0.0
 70
   192
  0
VERTEX
  5
14A
330
148
100
AcDbEntity
  8
0
100
AcDbVertex
100
AcDbPolyFaceMeshVertex
 10
1109.318683911039
 20
210.4121630250152
 30
0.0
 70
   192
  0
VERTEX
  5
14B
330
148
100
AcDbEntity
  8
0
100
AcDbVertex
100
AcDbPolyFaceMeshVertex
 10
1114.096555331331
 20
224.7457772858926
 30
0.0
 70
   192
  0
VERTEX
  5
14C
330
148
100
AcDbEntity
  8
0
 62
    49
100
AcDbFaceRecord
 10
0.0
 20
0.0
 30
0.0
 70
   128
 71
     1
 72
     2
 73
     3
  0
SEQEND
  5
14D
330
148
100
AcDbEntity
  8
0
 62
    49
  0
POLYLINE
  5
14E
330
1F
100
AcDbEntity
  8
0
 62
    49
100
AcDbPolyFaceMesh
 66
     1
 10
0.0
 20
0.0
 30
0.0
 70
    64
 71
     3
 72
     1
  0
VERTEX
  5
14F
330
14E
100
AcDbEntity
  8
0
100
AcDbVertex
100
AcDbPolyFaceMeshVertex
 10
-615.1682323586101
 20
239.2477131795316
 30
0.0
 70
   192
  0
VERTEX
  5
150
330
14E
100
AcDbEntity
  8
0
100
AcDbVertex
100
AcDbPolyFaceMeshVertex
 10
-629.5018466194875
 20
244.025584599824
 30
0.0
 70
   192
  0
VERTEX
  5
151
330
14E
100
AcDbEntity
  8
0
100
AcDbVertex
100
AcDbPolyFaceMeshVertex
 10
-615.1682323586101
 20
248.8034560201165
 30
0.0
 70
   192
  0
VERTEX
  5
152
330
14E
100
AcDbEntity
  8
0
 62
    49
100
AcDbFaceRecord
 10
0.0
 20
0.0
 30
0.0
 70
   128
 71
     1
 72
     2
 73
     3
  0
SEQEND
  5
153
330
14E
100
AcDbEntity
  8
0
 62
    49
  0
POLYLINE
  5
154
330
1F
100
AcDbEntity
  8
0
 62
    49
100
AcDbPolyFaceMesh
 66
     1
 10
0.0
 20
0.0
 30
0.0
 70
    64
 71
     3
 72
     1
  0
VERTEX
  5
155
330
154
100
AcDbEntity
  8
0
100
AcDbVertex
100
AcDbPolyFaceMeshVertex
 10
355.4981533805126
 20
244.025584599824
 30
0.0
 70
   192
  0
VERTEX
  5
156
330
154
100
AcDbEntity
  8
0
100
AcDbVertex
100
AcDbPolyFaceMeshVertex
 10
341.1645391196352
 20
239.2477131795316
 30
0.0
 70
   192
  0
VERTEX
  5
157
330
154
100
AcDbEntity
  8
0
100
AcDbVertex
100
AcDbPolyFaceMeshVertex
 10
341.1645391196352
 20
248.8034560201165
 30
0.0
 70
   192
  0
VERTEX
  5
158
330
154
100
AcDbEntity
  8
0
 62
    49
100
AcDbFaceRecord
 10
0.0
 20
0.0
 30
0.0
 70
   128
 71
     1
 72
     2
 73
     3
  0
SEQEND
  5
159
330
154
100
AcDbEntity
  8
0
 62
    49
  0
POLYLINE
  5
15A
330
1F
100
AcDbEntity
  8
0
 62
    49
100
AcDbPolyFaceMesh
 66
     1
 10
0.0
 20
0.0
 30
0.0
 70
    64
 71
     3
 72
     1
  0
VERTEX
  5
15B
330
15A
100
AcDbEntity
  8
0
100
AcDbVertex
100
AcDbPolyFaceMeshVertex
 10
-568.5303005833505
 20
-130.92060845323
 30
0.0
 70
   192
  0
VERTEX
  5
15C
330
15A
100
AcDbEntity
  8
0
100
AcDbVertex
100
AcDbPolyFaceMeshVertex
 10
-573.3081720036429
 20
-145.2542227141074
 30
0.0
 70
   192
  0
VERTEX
  5
15D
330
15A
100
AcDbEntity
  8
0
100
AcDbVertex
100
AcDbPolyFaceMeshVertex
 10
-578.0860434239354
 20
-130.92060845323
 30
0.0
 70
   192
  0
VERTEX
  5
15E
330
15A
100
AcDbEntity
  8
0
 62
    49
100
AcDbFaceRecord
 10
0.0
 20
0.0
 30
0.0
 70
   128
 71
     1
 72
     2
 73
     3
  0
SEQEND
  5
15F
330
15A
100
AcDbEntity
  8
0
 62
    49
  0
POLYLINE
  5
160
330
1F
100
AcDbEntity
  8
0
 62
    49
100
AcDbPolyFaceMesh
 66
     1
 10
0.0
 20
0.0
 30
0.0
 70
    64
 71
     3
 72
     1
  0
VERTEX
  5
161
330
160
100
AcDbEntity
  8
0
100
AcDbVertex
100
AcDbPolyFaceMeshVertex
 10
-568.5303005833505
 20
148.4121630250152
 30
0.0
 70
   192
  0
VERTEX
  5
162
330
160
100
AcDbEntity
  8
0
100
AcDbVertex
100
AcDbPolyFaceMeshVertex
 10
-578.0860434239354
 20
148.4121630250152
 30
0.0
 70
   192
  0
VERTEX
  5
163
330
160
100
AcDbEntity
  8
0
100
AcDbVertex
100
AcDbPolyFaceMeshVertex
 10
-573.3081720036429
 20
162.7457772858926
 30
0.0
 70
   192
  0
VERTEX
  5
164
330
160
100
AcDbEntity
  8
0
 62
    49
100
AcDbFaceRecord
 10
0.0
 20
0.0
 30
0.0
 70
   128
 71
     1
 72
     2
 73
     3
  0
SEQEND
  5
165
330
160
100
AcDbEntity
  8
0
 62
    49
  0
POLYLINE
  5
166
330
1F
100
AcDbEntity
  8
0
 62
    49
100
AcDbPolyFaceMesh
 66
     1
 10
0.0
 20
0.0
 30
0.0
 70
    64
 71
     3
 72
     1
  0
VERTEX
  5
167
330
166
100
AcDbEntity
  8
0
100
AcDbVertex
100
AcDbPolyFaceMeshVertex
 10
369.83176764139
 20
333.4776158629462
 30
0.0
 70
   192
  0
VERTEX
  5
168
330
166
100
AcDbEntity
  8
0
100
AcDbVertex
100
AcDbPolyFaceMeshVertex
 10
355.4981533805126
 20
338.2554872832387
 30
0.0
 70
   192
  0
VERTEX
  5
169
330
166
100
AcDbEntity
  8
0
100
AcDbVertex
100
AcDbPolyFaceMeshVertex
 10
369.83176764139
 20
343.0333587035311
 30
0.0
 70
   192
  0
VERTEX
  5
16A
330
166
100
AcDbEntity
  8
0
 62
    49
100
AcDbFaceRecord
 10
0.0
 20
0.0
 30
0.0
 70
   128
 71
     1
 72
     2
 73
     3
  0
SEQEND
  5
16B
330
166
100
AcDbEntity
  8
0
 62
    49
  0
POLYLINE
  5
16C
330
1F
100
AcDbEntity
  8
0
 62
    49
100
AcDbPolyFaceMesh
 66
     1
 10
0.0
 20
0.0
 30
0.0
 70
    64
 71
     3
 72
     1
  0
VERTEX
  5
16D
330
16C
100
AcDbEntity
  8
0
100
AcDbVertex
100
AcDbPolyFaceMeshVertex
 10
570.4981533805125
 20
338.2554872832387
 30
0.0
 70
   192
  0
VERTEX
  5
16E
330
16C
100
AcDbEntity
  8
0
100
AcDbVertex
100
AcDbPolyFaceMeshVertex
 10
556.164539119635
 20
333.4776158629462
 30
0.0
 70
   192
  0
VERTEX
  5
16F
330
16C
100
AcDbEntity
  8
0
100
AcDbVertex
100
AcDbPolyFaceMeshVertex
 10
556.164539119635
 20
343.0333587035311
 30
0.0
 70
   192
  0
VERTEX
  5
170
330
16C
100
AcDbEntity
  8
0
 62
    49
100
AcDbFaceRecord
 10
0.0
 20
0.0
 30
0.0
 70
   128
 71
     1
 72
     2
 73
     3
  0
SEQEND
  5
171
330
16C
100
AcDbEntity
  8
0
 62
    49
  0
POLYLINE
  5
172
330
1F
100
AcDbEntity
  8
0
 62
    49
100
AcDbPolyFaceMesh
 66
     1
 10
0.0
 20
0.0
 30
0.0
 70
    64
 71
     3
 72
     1
  0
VERTEX
  5
173
330
172
100
AcDbEntity
  8
0
100
AcDbVertex
100
AcDbPolyFaceMeshVertex
 10
594.8317676413898
 20
333.4776158629462
 30
0.0
 70
   192
  0
VERTEX
  5
174
330
172
100
AcDbEntity
  8
0
100
AcDbVertex
100
AcDbPolyFaceMeshVertex
 10
580.4981533805123
 20
338.2554872832387
 30
0.0
 70
   192
  0
VERTEX
  5
175
330
172
100
AcDbEntity
  8
0
100
AcDbVertex
100
AcDbPolyFaceMeshVertex
 10
594.8317676413898
 20
343.0333587035311
 30
0.0
 70
   192
  0
VERTEX
  5
176
330
172
100
AcDbEntity
  8
0
 62
    49
100
AcDbFaceRecord
 10
0.0
 20
0.0
 30
0.0
 70
   128
 71
     1
 72
     2
 73
     3
  0
SEQEND
  5
177
330
172
100
AcDbEntity
  8
0
 62
    49
  0
POLYLINE
  5
178
330
1F
100
AcDbEntity
  8
0
 62
    49
100
AcDbPolyFaceMesh
 66
     1
 10
0.0
 20
0.0
 30
0.0
 70
    64
 71
     3
 72
     1
  0
VERTEX
  5
179
330
178
100
AcDbEntity
  8
0
100
AcDbVertex
100
AcDbPolyFaceMeshVertex
 10
1050.498153380512
 20
338.2554872832387
 30
0.0
 70
   192
  0
VERTEX
  5
17A
330
178
100
AcDbEntity
  8
0
100
AcDbVertex
100
AcDbPolyFaceMeshVertex
 10
1036.164539119635
 20
333.4776158629462
 30
0.0
 70
   192
  0
VERTEX
  5
17B
330
178
100
AcDbEntity
  8
0
100
AcDbVertex
100
AcDbPolyFaceMeshVertex
 10
1036.164539119635
 20
343.0333587035311
 30
0.0
 70
   192
  0
VERTEX
  5
17C
330
178
100
AcDbEntity
  8
0
 62
    49
100
AcDbFaceRecord
 10
0.0
 20
0.0
 30
0.0
 70
   128
 71
     1
 72
     2
 73
     3
  0
SEQEND
  5
17D
330
178
100
AcDbEntity
  8
0
 62
    49
  0
POLYLINE
  5
17E
330
1F
100
AcDbEntity
  8
0
 62
    49
100
AcDbPolyFaceMesh
 66
     1
 10
0.0
 20
0.0
 30
0.0
 70
    64
 71
     3
 72
     1
  0
VERTEX
  5
17F
330
17E
100
AcDbEntity
  8
0
100
AcDbVertex
100
AcDbPolyFaceMeshVertex
 10
479.1592383796727
 20
207.4121630250153
 30
0.0
 70
   192
  0
VERTEX
  5
180
330
17E
100
AcDbEntity
  8
0
100
AcDbVertex
100
AcDbPolyFaceMeshVertex
 10
469.6034955390878
 20
207.4121630250153
 30
0.0
 70
   192
  0
VERTEX
  5
181
330
17E
100
AcDbEntity
  8
0
100
AcDbVertex
100
AcDbPolyFaceMeshVertex
 10
474.3813669593803
 20
221.7457772858926
 30
0.0
 70
   192
  0
VERTEX
  5
182
330
17E
100
AcDbEntity
  8
0
 62
    49
100
AcDbFaceRecord
 10
0.0
 20
0.0
 30
0.0
 70
   128
 71
     1
 72
     2
 73
     3
  0
SEQEND
  5
183
330
17E
100
AcDbEntity
  8
0
 62
    49
  0
POLYLINE
  5
184
330
1F
100
AcDbEntity
  8
0
 62
    49
100
AcDbPolyFaceMesh
 66
     1
 10
0.0
 20
0.0
 30
0.0
 70
    64
 71
     3
 72
     1
  0
VERTEX
  5
185
330
184
100
AcDbEntity
  8
0
100
AcDbVertex
100
AcDbPolyFaceMeshVertex
 10
479.1592383796726
 20
-130.92060845323
 30
0.0
 70
   192
  0
VERTEX
  5
186
330
184
100
AcDbEntity
  8
0
100
AcDbVertex
100
AcDbPolyFaceMeshVertex
 10
474.3813669593801
 20
-145.2542227141073
 30
0.0
 70
   192
  0
VERTEX
  5
187
330
184
100
AcDbEntity
  8
0
100
AcDbVertex
100
AcDbPolyFaceMeshVertex
 10
469.6034955390877
 20
-130.92060845323
 30
0.0
 70
   192
  0
VERTEX
  5
188
330
184
100
AcDbEntity
  8
0
 62
    49
100
AcDbFaceRecord
 10
0.0
 20
0.0
 30
0.0
 70
   128
 71
     1
 72
     2
 73
     3
  0
SEQEND
  5
189
330
184
100
AcDbEntity
  8
0
 62
    49
  0
POLYLINE
  5
18A
330
1F
100
AcDbEntity
  8
0
 62
    49
100
AcDbPolyFaceMesh
 66
     1
 10
0.0
 20
0.0
 30
0.0
 70
    64
 71
     3
 72
     1
  0
VERTEX
  5
18B
330
18A
100
AcDbEntity
  8
0
100
AcDbVertex
100
AcDbPolyFaceMeshVertex
 10
-615.16823235861
 20
-222.5963136961647
 30
0.0
 70
   192
  0
VERTEX
  5
18C
330
18A
100
AcDbEntity
  8
0
100
AcDbVertex
100
AcDbPolyFaceMeshVertex
 10
-629.5018466194874
 20
-217.8184422758722
 30
0.0
 70
   192
  0
VERTEX
  5
18D
330
18A
100
AcDbEntity
  8
0
100
AcDbVertex
100
AcDbPolyFaceMeshVertex
 10
-615.16823235861
 20
-213.0405708555798
 30
0.0
 70
   192
  0
VERTEX
  5
18E
330
18A
100
AcDbEntity
  8
0
 62
    49
100
AcDbFaceRecord
 10
0.0
 20
0.0
 30
0.0
 70
   128
 71
     1
 72
     2
 73
     3
  0
SEQEND
  5
18F
330
18A
100
AcDbEntity
  8
0
 62
    49
  0
POLYLINE
  5
190
330
1F
100
AcDbEntity
  8
0
 62
    49
100
AcDbPolyFaceMesh
 66
     1
 10
0.0
 20
0.0
 30
0.0
 70
    64
 71
     3
 72
     1
  0
VERTEX
  5
191
330
190
100
AcDbEntity
  8
0
100
AcDbVertex
100
AcDbPolyFaceMeshVertex
 10
570.4981533805125
 20
-217.8184422758722
 30
0.0
 70
   192
  0
VERTEX
  5
192
330
190
100
AcDbEntity
  8
0
100
AcDbVertex
100
AcDbPolyFaceMeshVertex
 10
556.164539119635
 20
-222.5963136961647
 30
0.0
 70
   192
  0
VERTEX
  5
193
330
190
100
AcDbEntity
  8
0
100
AcDbVertex
100
AcDbPolyFaceMeshVertex
 10
556.164539119635
 20
-213.0405708555798
 30
0.0
 70
   192
  0
VERTEX
  5
194
330
190
100
AcDbEntity
  8
0
 62
    49
100
AcDbFaceRecord
 10
0.0
 20
0.0
 30
0.0
 70
   128
 71
     1
 72
     2
 73
     3
  0
SEQEND
  5
195
330
190
100
AcDbEntity
  8
0
 62
    49
  0
POLYLINE
  5
19A
330
1F
100
AcDbEntity
  8
0
 62
    49
100
AcDbPolyFaceMesh
 66
     1
 10
0.0
 20
0.0
 30
0.0
 70
    64
 71
     3
 72
     1
  0
VERTEX
  5
19B
330
19A
100
AcDbEntity
  8
0
100
AcDbVertex
100
AcDbPolyFaceMeshVertex
 10
-894.804294790648
 20
153.4121630250154
 30
0.0
 70
   192
  0
VERTEX
  5
19C
330
19A
100
AcDbEntity
  8
0
100
AcDbVertex
100
AcDbPolyFaceMeshVertex
 10
-904.360037631233
 20
153.4121630250154
 30
0.0
 70
   192
  0
VERTEX
  5
19D
330
19A
100
AcDbEntity
  8
0
100
AcDbVertex
100
AcDbPolyFaceMeshVertex
 10
-899.5821662109405
 20
167.7457772858927
 30
0.0
 70
   192
  0
VERTEX
  5
19E
330
19A
100
AcDbEntity
  8
0
 62
    49
100
AcDbFaceRecord
 10
0.0
 20
0.0
 30
0.0
 70
   128
 71
     1
 72
     2
 73
     3
  0
SEQEND
  5
19F
330
19A
100
AcDbEntity
  8
0
 62
    49
  0
POLYLINE
  5
1A0
330
1F
100
AcDbEntity
  8
0
 62
    49
100
AcDbPolyFaceMesh
 66
     1
 10
0.0
 20
0.0
 30
0.0
 70
    64
 71
     3
 72
     1
  0
VERTEX
  5
1A1
330
1A0
100
AcDbEntity
  8
0
100
AcDbVertex
100
AcDbPolyFaceMeshVertex
 10
-894.804294790648
 20
-130.9206084532299
 30
0.0
 70
   192
  0
VERTEX
  5
1A2
330
1A0
100
AcDbEntity
  8
0
100
AcDbVertex
100
AcDbPolyFaceMeshVertex
 10
-899.5821662109405
 20
-145.2542227141073
 30
0.0
 70
   192
  0
VERTEX
  5
1A3
330
1A0
100
AcDbEntity
  8
0
100
AcDbVertex
100
AcDbPolyFaceMeshVertex
 10
-904.360037631233
 20
-130.9206084532299
 30
0.0
 70
   192
  0
VERTEX
  5
1A4
330
1A0
100
AcDbEntity
  8
0
 62
    49
100
AcDbFaceRecord
 10
0.0
 20
0.0
 30
0.0
 70
   128
 71
     1
 72
     2
 73
     3
  0
SEQEND
  5
1A5
330
1A0
100
AcDbEntity
  8
0
 62
    49
  0
MTEXT
  5
1A7
330
1F
100
AcDbEntity
  8
0
 62
    49
100
AcDbMText
 10
-1197.087258916599
 20
10.93089118773825
 30
0.0
 40
17.71978729386705
 41
0.0
 71
     7
 72
     1
  1
330,0mm
  7
TAHOMA
  0
MTEXT
  5
1A8
330
1F
100
AcDbEntity
  8
0
 62
    49
100
AcDbMText
 10
1074.280960162228
 20
30.93089118773821
 30
0.0
 40
17.71978729386705
 41
0.0
 71
     7
 72
     1
  1
370,0mm
  7
TAHOMA
  0
MTEXT
  5
1A9
330
1F
100
AcDbEntity
  8
0
 62
    49
100
AcDbMText
 10
-176.8174417885913
 20
235.2106985016696
 30
0.0
 40
17.71978729386704
 41
0.0
 71
     7
 72
     1
  1
985,0mm
  7
TAHOMA
  0
MTEXT
  5
1AA
330
1F
100
AcDbEntity
  8
0
 62
    49
100
AcDbMText
 10
-613.1237671727466
 20
-0.069108812261778
 30
0.0
 40
17.71978729386705
 41
0.0
 71
     7
 72
     1
  1
308,0mm
  7
TAHOMA
  0
MTEXT
  5
1AB
330
1F
100
AcDbEntity
  8
0
 62
    49
100
AcDbMText
 10
423.1825582114087
 20
329.4406011850842
 30
0.0
 40
17.71978729386704
 41
0.0
 71
     7
 72
     1
  1
215,0mm
  7
TAHOMA
  0
MTEXT
  5
1AC
330
1F
100
AcDbEntity
  8
0
 62
    49
100
AcDbMText
 10
775.6825582114083
 20
329.4406011850842
 30
0.0
 40
17.71978729386704
 41
0.0
 71
     7
 72
     1
  1
470,0mm
  7
TAHOMA
  0
MTEXT
  5
1AD
330
1F
100
AcDbEntity
  8
0
 62
    49
100
AcDbMText
 10
434.5657717902765
 20
29.4308911877383
 30
0.0
 40
17.71978729386705
 41
0.0
 71
     7
 72
     1
  1
367,0mm
  7
TAHOMA
  0
MTEXT
  5
1AE
330
1F
100
AcDbEntity
  8
0
 62
    49
100
AcDbMText
 10
-74.89162511226587
 20
-226.6333283740267
 30
0.0
 40
17.71978729386704
 41
0.0
 71
     7
 72
     1
  1
1200,0mm
  7
TAHOMA
  0
MTEXT
  5
1AF
330
1F
100
AcDbEntity
  8
0
 62
    49
100
AcDbMText
 10
-939.3977613800444
 20
2.430891187738353
 30
0.0
 40
17.71978729386705
 41
0.0
 71
     7
 72
     1
  1
313,0mm
  7
TAHOMA
  0
ENDSEC
  0
SECTION
  2
OBJECTS
  0
DICTIONARY
  5
C
330
0
100
AcDbDictionary
  3
ACAD_GROUP
350
D
  3
ACAD_LAYOUT
350
1A
  3
ACAD_MATERIAL
350
43
  3
ACAD_MLEADERSTYLE
350
6B
  3
ACAD_MLINESTYLE
350
17
  3
ACAD_PLOTSETTINGS
350
19
  3
ACAD_SCALELIST
350
47
  3
ACAD_VISUALSTYLE
350
2A
  3
ACDBHEADERROUNDTRIPXREC
350
1B0
  3
ACDBVARIABLEDICTIONARY
350
1D1
  0
DICTIONARY
  5
1D8
330
8
100
AcDbDictionary
280
     1
  3
ACAD_XREC_ROUNDTRIP
360
1D9
  0
DICTIONARY
  5
D
102
{ACAD_REACTORS
330
C
102
}
330
C
100
AcDbDictionary
  0
DICTIONARY
  5
1A
102
{ACAD_REACTORS
330
C
102
}
330
C
100
AcDbDictionary
  0
DICTIONARY
  5
43
102
{ACAD_REACTORS
330
C
102
}
330
C
100
AcDbDictionary
  3
BYBLOCK
350
45
  3
BYLAYER
350
44
  3
GLOBAL
350
46
  0
DICTIONARY
  5
6B
102
{ACAD_REACTORS
330
C
102
}
330
C
100
AcDbDictionary
  3
STANDARD
350
6C
  0
DICTIONARY
  5
17
102
{ACAD_REACTORS
330
C
102
}
330
C
100
AcDbDictionary
  3
STANDARD
350
18
  0
DICTIONARY
  5
19
102
{ACAD_REACTORS
330
C
102
}
330
C
100
AcDbDictionary
  0
DICTIONARY
  5
47
102
{ACAD_REACTORS
330
C
102
}
330
C
100
AcDbDictionary
  3
A0
350
48
  3
A1
350
49
  3
A2
350
4A
  3
A3
350
4B
  3
A4
350
4C
  3
A5
350
4D
  3
A6
350
4E
  3
A7
350
4F
  3
A8
350
50
  3
A9
350
51
  3
B0
350
52
  3
B1
350
53
  3
B2
350
54
  3
B3
350
55
  3
B4
350
56
  3
B5
350
57
  3
B6
350
58
  3
B7
350
59
  3
B8
350
5A
  3
B9
350
5B
  3
C0
350
5C
  3
C1
350
5D
  3
C2
350
5E
  3
C3
350
5F
  3
C4
350
60
  3
C5
350
61
  3
C6
350
62
  3
C7
350
63
  3
C8
350
64
  3
C9
350
65
  3
D0
350
66
  3
D1
350
67
  3
D2
350
68
  0
DICTIONARY
  5
2A
102
{ACAD_REACTORS
330
C
102
}
330
C
100
AcDbDictionary
  3
2DWIREFRAME
350
2F
  3
BASIC
350
32
  3
BRIGHTEN
350
36
  3
COLORCHANGE
350
3A
  3
CONCEPTUAL
350
34
  3
DIM
350
35
  3
EDGECOLOROFF
350
3D
  3
FACEPATTERN
350
39
  3
FLAT
350
2B
  3
FLATWITHEDGES
350
2C
  3
GOURAUD
350
2D
  3
GOURAUDWITHEDGES
350
2E
  3
HIDDEN
350
31
  3
JITTEROFF
350
3B
  3
LINEPATTERN
350
38
  3
OVERHANGOFF
350
3C
  3
REALISTIC
350
33
  3
SHADED
350
42
  3
SHADED_WITH_EDGES
350
41
  3
SHADES_OF_GRAY
350
3E
  3
SKETCHY
350
3F
  3
THICKEN
350
37
  3
WIREFRAME
350
30
  3
X-RAY
350
40
  0
DICTIONARY
  5
1B0
102
{ACAD_REACTORS
330
C
102
}
330
C
100
AcDbDictionary
  3
CEPSNID
350
1BA
  3
CEPSNTYPE
350
1B9
  3
DIMSTYLEDATA
350
1D0
  3
FINGERPRINTGUID
350
1BB
  3
HYPERLINKBASE
350
1B3
  3
INSUNITS
350
1B8
  3
LAYOUTDICT
350
1B5
  3
LWETCUNION
350
1B7
  3
PLOTSETDICT
350
1B6
  3
PSVPSCALE
350
1BD
  3
PUCSBASE
350
1C0
  3
PUCSORGBACK
350
1C6
  3
PUCSORGBOTTOM
350
1C2
  3
PUCSORGFRONT
350
1C5
  3
PUCSORGLEFT
350
1C3
  3
PUCSORGRIGHT
350
1C4
  3
PUCSORGTOP
350
1C1
  3
PUCSORTHOREF
350
1BE
  3
PUCSORTHOVIEW
350
1BF
  3
STYLESHEET
350
1B4
  3
TSTACKALIGN
350
1B1
  3
TSTACKSIZE
350
1B2
  3
UCSBASE
350
1C9
  3
UCSORGBACK
350
1CF
  3
UCSORGBOTTOM
350
1CB
  3
UCSORGFRONT
350
1CE
  3
UCSORGLEFT
350
1CC
  3
UCSORGRIGHT
350
1CD
  3
UCSORGTOP
350
1CA
  3
UCSORTHOREF
350
1C7
  3
UCSORTHOVIEW
350
1C8
  3
VERSIONGUID
350
1BC
  0
DICTIONARY
  5
1D1
102
{ACAD_REACTORS
330
C
102
}
330
C
100
AcDbDictionary
  3
CANNOSCALE
350
1DA
  3
CMLEADERSTYLE
350
1D3
  3
CTABLESTYLE
350
1D2
  3
DIMASSOC
350
1D6
  3
HIDETEXT
350
1D7
  3
MSLTSCALE
350
1DB
  0
XRECORD
  5
1D9
102
{ACAD_REACTORS
330
1D8
102
}
330
1D8
100
AcDbXrecord
102
VTR_0.000_0.000_1.000_1.000_VISUALSTYLE
340
2F
102
VTR_0.000_0.000_1.000_1.000_GRIDDISPLAY
 70
     3
102
VTR_0.000_0.000_1.000_1.000_GRIDMAJOR
 70
     5
102
VTR_0.000_0.000_1.000_1.000_DEFAULTLIGHTING
280
     1
102
VTR_0.000_0.000_1.000_1.000_DEFAULTLIGHTINGTYPE
 70
     1
102
VTR_0.000_0.000_1.000_1.000_BRIGHTNESS
141
0.0
102
VTR_0.000_0.000_1.000_1.000_CONTRAST
142
0.0
  0
MATERIAL
  5
45
102
{ACAD_REACTORS
330
43
102
}
102
{ACAD_XDICTIONARY
360
1DE
102
}
330
43
100
AcDbMaterial
  1
BYBLOCK
  0
MATERIAL
  5
44
102
{ACAD_REACTORS
330
43
102
}
102
{ACAD_XDICTIONARY
360
1DC
102
}
330
43
100
AcDbMaterial
  1
BYLAYER
  0
MATERIAL
  5
46
102
{ACAD_REACTORS
330
43
102
}
102
{ACAD_XDICTIONARY
360
1E0
102
}
330
43
100
AcDbMaterial
  1
GLOBAL
  0
ACAD_PROXY_OBJECT
  5
6C
102
{ACAD_REACTORS
330
6B
102
}
330
6B
100
AcDbProxyObject
 90
      499
 91
      505
 93
      610
310
40901902A4063FBFFFFFE056BD1B81E855B9FC0AD7A3703D0AD73F4214DD185B99185C9900AD7A3703D0AC73F90141901A02B5E8DC0F42B1CFC02B5E8DC0F42B1CFE5764000000000000300FC0
340
14
340
0
340
11
340
0
 94
        0
1001
ACAD_MLEADERVER
1070
     2
  0
MLINESTYLE
  5
18
102
{ACAD_REACTORS
330
17
102
}
330
17
100
AcDbMlineStyle
  2
Standard
 70
     0
  3

 62
   256
 51
90.0
 52
90.0
 71
     2
 49
0.5
 62
   256
  6
BYLAYER
 49
-0.5
 62
   256
  6
BYLAYER
  0
ACAD_PROXY_OBJECT
  5
48
102
{ACAD_REACTORS
330
47
102
}
330
47
100
AcDbProxyObject
 90
      499
 91
      503
 93
       41
310
903313A31580
  0
ACAD_PROXY_OBJECT
  5
49
102
{ACAD_REACTORS
330
47
102
}
330
47
100
AcDbProxyObject
 90
      499
 91
      503
 93
      105
310
903313A324000000000000004000
  0
ACAD_PROXY_OBJECT
  5
4A
102
{ACAD_REACTORS
330
47
102
}
330
47
100
AcDbProxyObject
 90
      499
 91
      503
 93
      105
310
903313A344000000000000104000
  0
ACAD_PROXY_OBJECT
  5
4B
102
{ACAD_REACTORS
330
47
102
}
330
47
100
AcDbProxyObject
 90
      499
 91
      503
 93
      105
310
903313A354000000000000144000
  0
ACAD_PROXY_OBJECT
  5
4C
102
{ACAD_REACTORS
330
47
102
}
330
47
100
AcDbProxyObject
 90
      499
 91
      503
 93
      105
310
903313A384000000000000204000
  0
ACAD_PROXY_OBJECT
  5
4D
102
{ACAD_REACTORS
330
47
102
}
330
47
100
AcDbProxyObject
 90
      499
 91
      503
 93
      113
310
904313A31304000000000000244000
  0
ACAD_PROXY_OBJECT
  5
4E
102
{ACAD_REACTORS
330
47
102
}
330
47
100
AcDbProxyObject
 90
      499
 91
      503
 93
      113
310
904313A31364000000000000304000
  0
ACAD_PROXY_OBJECT
  5
4F
102
{ACAD_REACTORS
330
47
102
}
330
47
100
AcDbProxyObject
 90
      499
 91
      503
 93
      113
310
904313A32304000000000000344000
  0
ACAD_PROXY_OBJECT
  5
50
102
{ACAD_REACTORS
330
47
102
}
330
47
100
AcDbProxyObject
 90
      499
 91
      503
 93
      113
310
904313A333040000000000003E4000
  0
ACAD_PROXY_OBJECT
  5
51
102
{ACAD_REACTORS
330
47
102
}
330
47
100
AcDbProxyObject
 90
      499
 91
      503
 93
      113
310
904313A34304000000000000444000
  0
ACAD_PROXY_OBJECT
  5
52
102
{ACAD_REACTORS
330
47
102
}
330
47
100
AcDbProxyObject
 90
      499
 91
      503
 93
      113
310
904313A35304000000000000494000
  0
ACAD_PROXY_OBJECT
  5
53
102
{ACAD_REACTORS
330
47
102
}
330
47
100
AcDbProxyObject
 90
      499
 91
      503
 93
      121
310
905313A3130304000000000000594000
  0
ACAD_PROXY_OBJECT
  5
54
102
{ACAD_REACTORS
330
47
102
}
330
47
100
AcDbProxyObject
 90
      499
 91
      503
 93
      105
310
903323A310000000000000010100
  0
ACAD_PROXY_OBJECT
  5
55
102
{ACAD_REACTORS
330
47
102
}
330
47
100
AcDbProxyObject
 90
      499
 91
      503
 93
      105
310
903343A310000000000000410100
  0
ACAD_PROXY_OBJECT
  5
56
102
{ACAD_REACTORS
330
47
102
}
330
47
100
AcDbProxyObject
 90
      499
 91
      503
 93
      105
310
903383A310000000000000810100
  0
ACAD_PROXY_OBJECT
  5
57
102
{ACAD_REACTORS
330
47
102
}
330
47
100
AcDbProxyObject
 90
      499
 91
      503
 93
      113
310
90431303A310000000000000910100
  0
ACAD_PROXY_OBJECT
  5
58
102
{ACAD_REACTORS
330
47
102
}
330
47
100
AcDbProxyObject
 90
      499
 91
      503
 93
      121
310
9053130303A310000000000001650100
  0
ACAD_PROXY_OBJECT
  5
59
102
{ACAD_REACTORS
330
47
102
}
330
47
100
AcDbProxyObject
 90
      499
 91
      503
 93
      257
310
90E312F31323822203D2031272D3022000000000000200FC000000000000284000
  0
ACAD_PROXY_OBJECT
  5
5A
102
{ACAD_REACTORS
330
47
102
}
330
47
100
AcDbProxyObject
 90
      499
 91
      503
 93
      249
310
90D312F363422203D2031272D3022000000000000240FC000000000000284000
  0
ACAD_PROXY_OBJECT
  5
5B
102
{ACAD_REACTORS
330
47
102
}
330
47
100
AcDbProxyObject
 90
      499
 91
      503
 93
      249
310
90D312F333222203D2031272D3022000000000000280FC000000000000284000
  0
ACAD_PROXY_OBJECT
  5
5C
102
{ACAD_REACTORS
330
47
102
}
330
47
100
AcDbProxyObject
 90
      499
 91
      503
 93
      249
310
90D312F313622203D2031272D30220000000000002C0FC000000000000284000
  0
ACAD_PROXY_OBJECT
  5
5D
102
{ACAD_REACTORS
330
47
102
}
330
47
100
AcDbProxyObject
 90
      499
 91
      503
 93
      249
310
90D332F333222203D2031272D30220000000000002E0FC000000000000284000
  0
ACAD_PROXY_OBJECT
  5
5E
102
{ACAD_REACTORS
330
47
102
}
330
47
100
AcDbProxyObject
 90
      499
 91
      503
 93
      241
310
90C312F3822203D2031272D3022000000000000300FC000000000000284000
  0
ACAD_PROXY_OBJECT
  5
5F
102
{ACAD_REACTORS
330
47
102
}
330
47
100
AcDbProxyObject
 90
      499
 91
      503
 93
      249
310
90D332F313622203D2031272D3022000000000000320FC000000000000284000
  0
ACAD_PROXY_OBJECT
  5
60
102
{ACAD_REACTORS
330
47
102
}
330
47
100
AcDbProxyObject
 90
      499
 91
      503
 93
      241
310
90C312F3422203D2031272D3022000000000000340FC000000000000284000
  0
ACAD_PROXY_OBJECT
  5
61
102
{ACAD_REACTORS
330
47
102
}
330
47
100
AcDbProxyObject
 90
      499
 91
      503
 93
      241
310
90C332F3822203D2031272D3022000000000000360FC000000000000284000
  0
ACAD_PROXY_OBJECT
  5
62
102
{ACAD_REACTORS
330
47
102
}
330
47
100
AcDbProxyObject
 90
      499
 91
      503
 93
      241
310
90C312F3222203D2031272D3022000000000000380FC000000000000284000
  0
ACAD_PROXY_OBJECT
  5
63
102
{ACAD_REACTORS
330
47
102
}
330
47
100
AcDbProxyObject
 90
      499
 91
      503
 93
      241
310
90C332F3422203D2031272D30220000000000003A0FC000000000000284000
  0
ACAD_PROXY_OBJECT
  5
64
102
{ACAD_REACTORS
330
47
102
}
330
47
100
AcDbProxyObject
 90
      499
 91
      503
 93
      161
310
90A3122203D2031272D30224000000000000284000
  0
ACAD_PROXY_OBJECT
  5
65
102
{ACAD_REACTORS
330
47
102
}
330
47
100
AcDbProxyObject
 90
      499
 91
      503
 93
      257
310
90E312D312F3222203D2031272D30220000000000003E0FC000000000000284000
  0
ACAD_PROXY_OBJECT
  5
66
102
{ACAD_REACTORS
330
47
102
}
330
47
100
AcDbProxyObject
 90
      499
 91
      503
 93
      225
310
90A3322203D2031272D302200000000000002100000000000000284000
  0
ACAD_PROXY_OBJECT
  5
67
102
{ACAD_REACTORS
330
47
102
}
330
47
100
AcDbProxyObject
 90
      499
 91
      503
 93
      225
310
90A3622203D2031272D302200000000000006100000000000000284000
  0
ACAD_PROXY_OBJECT
  5
68
102
{ACAD_REACTORS
330
47
102
}
330
47
100
AcDbProxyObject
 90
      499
 91
      503
 93
      249
310
90D31272D3022203D2031272D30220000000000000A100000000000000284000
  0
ACAD_PROXY_OBJECT
  5
2F
102
{ACAD_REACTORS
330
2A
102
}
330
2A
100
AcDbProxyObject
 90
      499
 91
      501
 93
      436
310
42CC9915DA5C99599C985B595049028333333333333E33F0000000000000F90107901411070040501600405405064090741402480A0340
1001
ACAD
1000
AcDbSavedByObjectVersion
1070
     0
  0
ACAD_PROXY_OBJECT
  5
32
102
{ACAD_REACTORS
330
2A
102
}
330
2A
100
AcDbProxyObject
 90
      499
 91
      501
 93
      388
310
4150985CDA58D07406404333333333333E33F0000000000000F90107A41107004050150841D405064090741402480A0350
1001
ACAD
1000
AcDbSavedByObjectVersion
1070
     0
  0
ACAD_PROXY_OBJECT
  5
36
102
{ACAD_REACTORS
330
2A
102
}
330
2A
100
AcDbProxyObject
 90
      499
 91
      501
 93
      428
310
42109C9A59DA1D195B90C409028333333333333E33F0000000000000F9010790141107004050150841D405064090741402480A029950
1001
ACAD
1000
AcDbSavedByObjectVersion
1070
     0
  0
ACAD_PROXY_OBJECT
  5
3A
102
{ACAD_REACTORS
330
2A
102
}
330
2A
100
AcDbProxyObject
 90
      499
 91
      501
 93
      452
310
42D0DBDB1BDC90DA185B99D95104090240C333333333333E33F0000000000000F90108901411070040501508421405064090741402480A0350
1001
ACAD
1000
AcDbSavedByObjectVersion
1070
     0
  0
ACAD_PROXY_OBJECT
  5
34
102
{ACAD_REACTORS
330
2A
102
}
330
2A
100
AcDbProxyObject
 90
      499
 91
      501
 93
      500
310
4290DBDB98D95C1D1D585B10940D028333333333333E33F0000000000000F90107902409070040501000000000018199010841D405064090740C02480A0340
1001
ACAD
1000
AcDbSavedByObjectVersion
1070
     0
  0
ACAD_PROXY_OBJECT
  5
35
102
{ACAD_REACTORS
330
2A
102
}
330
2A
100
AcDbProxyObject
 90
      499
 91
      501
 93
      412
310
40D11A5B50B409028333333333333E33F0000000000000F9010790141107004050150841D405064090741402480A02677FFFFFD0
1001
ACAD
1000
AcDbSavedByObjectVersion
1070
     0
  0
ACAD_PROXY_OBJECT
  5
3D
102
{ACAD_REACTORS
330
2A
102
}
330
2A
100
AcDbProxyObject
 90
      499
 91
      501
 93
      452
310
43115919D950DBDB1BDC93D999916409028333333333333E33F0000000000000F9010790141107004050150841D405064090741402480A0350
1001
ACAD
1000
AcDbSavedByObjectVersion
1070
     0
  0
ACAD_PROXY_OBJECT
  5
39
102
{ACAD_REACTORS
330
2A
102
}
330
2A
100
AcDbProxyObject
 90
      499
 91
      501
 93
      444
310
42D19858D95C185D1D195C9B90F409028333333333333E33F0000000000000F9010790141107004050150841D405064090741402480A0350
1001
ACAD
1000
AcDbSavedByObjectVersion
1070
     0
  0
ACAD_PROXY_OBJECT
  5
2B
102
{ACAD_REACTORS
330
2A
102
}
330
2A
100
AcDbProxyObject
 90
      499
 91
      501
 93
      380
310
41119B185D240901404333333333333E33F0000000000000F9010740A907004050150841D405064090741402480A1B50
1001
ACAD
1000
AcDbSavedByObjectVersion
1070
     0
  0
ACAD_PROXY_OBJECT
  5
2C
102
{ACAD_REACTORS
330
2A
102
}
330
2A
100
AcDbProxyObject
 90
      499
 91
      501
 93
      468
310
43519B185D15DA5D1A115919D95CD0140901404333333333333E33F0000000000000F90107409019070040501600405405064090741402480A1B50
1001
ACAD
1000
AcDbSavedByObjectVersion
1070
     0
  0
ACAD_PROXY_OBJECT
  5
2D
102
{ACAD_REACTORS
330
2A
102
}
330
2A
100
AcDbProxyObject
 90
      499
 91
      501
 93
      404
310
41D1DBDD5C985D5910240902404333333333333E33F0000000000000F9010740A9070040501641D405064090741402480A1B50
1001
ACAD
1000
AcDbSavedByObjectVersion
1070
     0
  0
ACAD_PROXY_OBJECT
  5
2E
102
{ACAD_REACTORS
330
2A
102
}
330
2A
100
AcDbProxyObject
 90
      499
 91
      501
 93
      492
310
4411DBDD5C985D5915DA5D1A115919D95CD0340902404333333333333E33F0000000000000F90107409019070040501600405405064090741402480A1B50
1001
ACAD
1000
AcDbSavedByObjectVersion
1070
     0
  0
ACAD_PROXY_OBJECT
  5
31
102
{ACAD_REACTORS
330
2A
102
}
330
2A
100
AcDbProxyObject
 90
      499
 91
      501
 93
      476
310
41921A5919195B90640502408333333333333E33F0000000000000F901079024090700405020000000000001110200405405064090740C02480A0340
1001
ACAD
1000
AcDbSavedByObjectVersion
1070
     0
  0
ACAD_PROXY_OBJECT
  5
3B
102
{ACAD_REACTORS
330
2A
102
}
330
2A
100
AcDbProxyObject
 90
      499
 91
      501
 93
      428
310
42529A5D1D195C93D999914409028333333333333E33F0000000000000F9010790141107004050150A41D405064090741402480A0350
1001
ACAD
1000
AcDbSavedByObjectVersion
1070
     0
  0
ACAD_PROXY_OBJECT
  5
38
102
{ACAD_REACTORS
330
2A
102
}
330
2A
100
AcDbProxyObject
 90
      499
 91
      501
 93
      444
310
42D31A5B995C185D1D195C9B90E409028333333333333E33F0000000000000F9010790141107004050750841D405064090741402483A0350
1001
ACAD
1000
AcDbSavedByObjectVersion
1070
     0
  0
ACAD_PROXY_OBJECT
  5
3C
102
{ACAD_REACTORS
330
2A
102
}
330
2A
100
AcDbProxyObject
 90
      499
 91
      501
 93
      444
310
42D3DD995C9A185B99D3D999915409028333333333333E33F0000000000000F9010790141107004050150941D405064090741402480A0350
1001
ACAD
1000
AcDbSavedByObjectVersion
1070
     0
  0
ACAD_PROXY_OBJECT
  5
33
102
{ACAD_REACTORS
330
2A
102
}
330
2A
100
AcDbProxyObject
 90
      499
 91
      501
 93
      428
310
425499585B1A5CDD1A58D08409038333333333333E33F0000000000000F9010740A907004050150800405405064090740C02480A1B40
1001
ACAD
1000
AcDbSavedByObjectVersion
1070
     0
  0
ACAD_PROXY_OBJECT
  5
42
102
{ACAD_REACTORS
330
2A
102
}
330
2A
100
AcDbProxyObject
 90
      499
 91
      501
 93
      420
310
4194DA1859195911B40902404333333333333E33F0000000000000F9010740A41107004050150800405405064090840C02480A0B40
1001
ACAD
1000
AcDbSavedByObjectVersion
1070
     0
  0
ACAD_PROXY_OBJECT
  5
41
102
{ACAD_REACTORS
330
2A
102
}
330
2A
100
AcDbProxyObject
 90
      499
 91
      501
 93
      516
310
4454DA18591959081DDA5D1A08195919D95CD1A40902404333333333333E33F0000000000000F901074090142907004050250800405405064090740C02480A0B40
1001
ACAD
1000
AcDbSavedByObjectVersion
1070
     0
  0
ACAD_PROXY_OBJECT
  5
3E
102
{ACAD_REACTORS
330
2A
102
}
330
2A
100
AcDbProxyObject
 90
      499
 91
      501
 93
      532
310
4394DA1859195CC81BD98811DC985E5174090240C333333333333E33F0000000000000F901079024090741D01000000000000111010841D405064090740C02480A0340
1001
ACAD
1000
AcDbSavedByObjectVersion
1070
     0
  0
ACAD_PROXY_OBJECT
  5
3F
102
{ACAD_REACTORS
330
2A
102
}
330
2A
100
AcDbProxyObject
 90
      499
 91
      501
 93
      476
310
41D4DAD95D18DA1E51840502408333333333333E33F0000000000000F901079024090741D01000000000000111010B41D405064090741802480A0340
1001
ACAD
1000
AcDbSavedByObjectVersion
1070
     0
  0
ACAD_PROXY_OBJECT
  5
37
102
{ACAD_REACTORS
330
2A
102
}
330
2A
100
AcDbProxyObject
 90
      499
 91
      501
 93
      412
310
41D51A1A58DAD95B90D409028333333333333E33F0000000000000F9010790141107004050150C41D405064090741402480A0350
1001
ACAD
1000
AcDbSavedByObjectVersion
1070
     0
  0
ACAD_PROXY_OBJECT
  5
30
102
{ACAD_REACTORS
330
2A
102
}
330
2A
100
AcDbProxyObject
 90
      499
 91
      501
 93
      420
310
4255DA5C99599C985B595059028333333333333E33F0000000000000F90107901411070040501600405405064090740C02480A0340
1001
ACAD
1000
AcDbSavedByObjectVersion
1070
     0
  0
ACAD_PROXY_OBJECT
  5
40
102
{ACAD_REACTORS
330
2A
102
}
330
2A
100
AcDbProxyObject
 90
      499
 91
      501
 93
      404
310
41560B54985E51940902404000000000000E03F0000000000000F9010740501907004050150841D405064090740C02480A1B40
1001
ACAD
1000
AcDbSavedByObjectVersion
1070
     0
  0
XRECORD
  5
1BA
102
{ACAD_REACTORS
330
1B0
102
}
330
1B0
100
AcDbXrecord
340
0
  0
XRECORD
  5
1B9
102
{ACAD_REACTORS
330
1B0
102
}
330
1B0
100
AcDbXrecord
 90
        0
  0
XRECORD
  5
1D0
102
{ACAD_REACTORS
330
1B0
102
}
330
1B0
100
AcDbXrecord
1000
DSTYLE
1002
{
1070
   171
 70
     2
1070
   143
 40
25.4
1070
   274
 70
     2
1070
    41
 40
0.18
1070
   141
 40
0.09
1070
   271
 70
     4
1070
    43
 40
0.38
1070
   278
 70
    46
1070
    44
 40
0.18
1070
    42
 40
0.0625
1070
   147
 40
0.09
1070
    77
 70
     0
1070
   272
 70
     4
1070
    73
 70
     1
1070
   172
 70
     0
1070
    74
 70
     1
1070
   283
 70
     1
1070
   340
340
11
1070
   140
 40
0.18
1070
   284
 70
     0
1070
    78
 70
     0
1002
}
  0
XRECORD
  5
1BB
102
{ACAD_REACTORS
330
1B0
102
}
330
1B0
100
AcDbXrecord
  1
{931E877D-A9DA-4098-ACCC-C071F23C77A5}
  0
XRECORD
  5
1B3
102
{ACAD_REACTORS
330
1B0
102
}
330
1B0
100
AcDbXrecord
  1

  0
XRECORD
  5
1B8
102
{ACAD_REACTORS
330
1B0
102
}
330
1B0
100
AcDbXrecord
 90
        4
  0
XRECORD
  5
1B5
102
{ACAD_REACTORS
330
1B0
102
}
330
1B0
100
AcDbXrecord
340
1A
  0
XRECORD
  5
1B7
102
{ACAD_REACTORS
330
1B0
102
}
330
1B0
100
AcDbXrecord
 90
    10781
  0
XRECORD
  5
1B6
102
{ACAD_REACTORS
330
1B0
102
}
330
1B0
100
AcDbXrecord
340
19
  0
XRECORD
  5
1BD
102
{ACAD_REACTORS
330
1B0
102
}
330
1B0
100
AcDbXrecord
 40
0.0
  0
XRECORD
  5
1C0
102
{ACAD_REACTORS
330
1B0
102
}
330
1B0
100
AcDbXrecord
340
0
  0
XRECORD
  5
1C6
102
{ACAD_REACTORS
330
1B0
102
}
330
1B0
100
AcDbXrecord
 10
0.0
 20
0.0
 30
0.0
  0
XRECORD
  5
1C2
102
{ACAD_REACTORS
330
1B0
102
}
330
1B0
100
AcDbXrecord
 10
0.0
 20
0.0
 30
0.0
  0
XRECORD
  5
1C5
102
{ACAD_REACTORS
330
1B0
102
}
330
1B0
100
AcDbXrecord
 10
0.0
 20
0.0
 30
0.0
  0
XRECORD
  5
1C3
102
{ACAD_REACTORS
330
1B0
102
}
330
1B0
100
AcDbXrecord
 10
0.0
 20
0.0
 30
0.0
  0
XRECORD
  5
1C4
102
{ACAD_REACTORS
330
1B0
102
}
330
1B0
100
AcDbXrecord
 10
0.0
 20
0.0
 30
0.0
  0
XRECORD
  5
1C1
102
{ACAD_REACTORS
330
1B0
102
}
330
1B0
100
AcDbXrecord
 10
0.0
 20
0.0
 30
0.0
  0
XRECORD
  5
1BE
102
{ACAD_REACTORS
330
1B0
102
}
330
1B0
100
AcDbXrecord
340
0
  0
XRECORD
  5
1BF
102
{ACAD_REACTORS
330
1B0
102
}
330
1B0
100
AcDbXrecord
 70
     0
  0
XRECORD
  5
1B4
102
{ACAD_REACTORS
330
1B0
102
}
330
1B0
100
AcDbXrecord
  1

  0
XRECORD
  5
1B1
102
{ACAD_REACTORS
330
1B0
102
}
330
1B0
100
AcDbXrecord
 90
        1
  0
XRECORD
  5
1B2
102
{ACAD_REACTORS
330
1B0
102
}
330
1B0
100
AcDbXrecord
 90
       70
  0
XRECORD
  5
1C9
102
{ACAD_REACTORS
330
1B0
102
}
330
1B0
100
AcDbXrecord
340
0
  0
XRECORD
  5
1CF
102
{ACAD_REACTORS
330
1B0
102
}
330
1B0
100
AcDbXrecord
 10
0.0
 20
0.0
 30
0.0
  0
XRECORD
  5
1CB
102
{ACAD_REACTORS
330
1B0
102
}
330
1B0
100
AcDbXrecord
 10
0.0
 20
0.0
 30
0.0
  0
XRECORD
  5
1CE
102
{ACAD_REACTORS
330
1B0
102
}
330
1B0
100
AcDbXrecord
 10
0.0
 20
0.0
 30
0.0
  0
XRECORD
  5
1CC
102
{ACAD_REACTORS
330
1B0
102
}
330
1B0
100
AcDbXrecord
 10
0.0
 20
0.0
 30
0.0
  0
XRECORD
  5
1CD
102
{ACAD_REACTORS
330
1B0
102
}
330
1B0
100
AcDbXrecord
 10
0.0
 20
0.0
 30
0.0
  0
XRECORD
  5
1CA
102
{ACAD_REACTORS
330
1B0
102
}
330
1B0
100
AcDbXrecord
 10
0.0
 20
0.0
 30
0.0
  0
XRECORD
  5
1C7
102
{ACAD_REACTORS
330
1B0
102
}
330
1B0
100
AcDbXrecord
340
0
  0
XRECORD
  5
1C8
102
{ACAD_REACTORS
330
1B0
102
}
330
1B0
100
AcDbXrecord
 70
     0
  0
XRECORD
  5
1BC
102
{ACAD_REACTORS
330
1B0
102
}
330
1B0
100
AcDbXrecord
  1
{FAEB1C32-E019-11D5-929B-00C0DF256EC4}
  0
DICTIONARYVAR
  5
1DA
102
{ACAD_REACTORS
330
1D1
102
}
330
1D1
100
DictionaryVariables
280
     0
  1
1:1
  0
DICTIONARYVAR
  5
1D3
102
{ACAD_REACTORS
330
1D1
102
}
330
1D1
100
DictionaryVariables
280
     0
  1
Standard
  0
DICTIONARYVAR
  5
1D2
102
{ACAD_REACTORS
330
1D1
102
}
330
1D1
100
DictionaryVariables
280
     0
  1
Standard
  0
DICTIONARYVAR
  5
1D6
102
{ACAD_REACTORS
330
1D1
102
}
330
1D1
100
DictionaryVariables
280
     0
  1
2
  0
DICTIONARYVAR
  5
1D7
102
{ACAD_REACTORS
330
1D1
102
}
330
1D1
100
DictionaryVariables
280
     0
  1
1
  0
DICTIONARYVAR
  5
1DB
102
{ACAD_REACTORS
330
1D1
102
}
330
1D1
100
DictionaryVariables
280
     0
  1
1
  0
DICTIONARY
  5
1DE
330
45
100
AcDbDictionary
280
     1
  3
ACAD_XREC_ROUNDTRIP
360
1DF
  0
DICTIONARY
  5
1DC
330
44
100
AcDbDictionary
280
     1
  3
ACAD_XREC_ROUNDTRIP
360
1DD
  0
DICTIONARY
  5
1E0
330
46
100
AcDbDictionary
280
     1
  3
ACAD_XREC_ROUNDTRIP
360
1E1
  0
XRECORD
  5
1DF
102
{ACAD_REACTORS
330
1DE
102
}
330
1DE
100
AcDbXrecord
102
MATERIAL
148
0.0
149
0.0
149
0.0
 93
        0
 94
      127
282
     0
 72
     1
 77
     1
171
     1
175
     1
179
     1
273
     0
  0
XRECORD
  5
1DD
102
{ACAD_REACTORS
330
1DC
102
}
330
1DC
100
AcDbXrecord
102
MATERIAL
148
0.0
149
0.0
149
0.0
 93
        0
 94
      127
282
     0
 72
     1
 77
     1
171
     1
175
     1
179
     1
273
     0
  0
XRECORD
  5
1E1
102
{ACAD_REACTORS
330
1E0
102
}
330
1E0
100
AcDbXrecord
102
MATERIAL
148
0.0
149
0.0
149
0.0
 93
        0
 94
      127
282
     0
 72
     1
 77
     1
171
     1
175
     1
179
     1
273
     0
  0
ENDSEC
  0
EOF
