  0
SECTION
  2
HEADER
  9
$ACADVER
  1
AC1027
  9
$ACADMAINTVER
 70
   125
  9
$DWGCODEPAGE
  3
ANSI_1252
  9
$LASTSAVEDBY
  1
Devraj
  9
$REQUIREDVERSIONS
160
                 0
  9
$INSBASE
 10
0.0
 20
0.0
 30
0.0
  9
$EXTMIN
 10
-10.3827619047619
 20
-37.904
 30
-8.699999999999999
  9
$EXTMAX
 10
22.07343502970148
 20
38.40906285519589
 30
2.2
  9
$LIMMIN
 10
0.0
 20
0.0
  9
$LIMMAX
 10
12.0
 20
9.0
  9
$ORTHOMODE
 70
     0
  9
$REGENMODE
 70
     1
  9
$FILLMODE
 70
     1
  9
$QTEXTMODE
 70
     0
  9
$MIRRTEXT
 70
     0
  9
$LTSCALE
 40
1.0
  9
$ATTMODE
 70
     1
  9
$TEXTSIZE
 40
0.2
  9
$TRACEWID
 40
0.05
  9
$TEXTSTYLE
  7
romans
  9
$CLAYER
  8
0
  9
$CELTYPE
  6
ByLayer
  9
$CECOLOR
 62
   256
  9
$CELTSCALE
 40
1.0
  9
$DISPSILH
 70
     0
  9
$DIMSCALE
 40
1.0
  9
$DIMASZ
 40
0.18
  9
$DIMEXO
 40
0.0625
  9
$DIMDLI
 40
0.38
  9
$DIMRND
 40
0.0
  9
$DIMDLE
 40
0.0
  9
$DIMEXE
 40
0.18
  9
$DIMTP
 40
0.0
  9
$DIMTM
 40
0.0
  9
$DIMTXT
 40
0.18
  9
$DIMCEN
 40
0.09
  9
$DIMTSZ
 40
0.0
  9
$DIMTOL
 70
     0
  9
$DIMLIM
 70
     0
  9
$DIMTIH
 70
     1
  9
$DIMTOH
 70
     1
  9
$DIMSE1
 70
     0
  9
$DIMSE2
 70
     0
  9
$DIMTAD
 70
     0
  9
$DIMZIN
 70
     0
  9
$DIMBLK
  1

  9
$DIMASO
 70
     1
  9
$DIMSHO
 70
     1
  9
$DIMPOST
  1

  9
$DIMAPOST
  1

  9
$DIMALT
 70
     0
  9
$DIMALTD
 70
     2
  9
$DIMALTF
 40
25.4
  9
$DIMLFAC
 40
1.0
  9
$DIMTOFL
 70
     0
  9
$DIMTVP
 40
0.0
  9
$DIMTIX
 70
     0
  9
$DIMSOXD
 70
     0
  9
$DIMSAH
 70
     0
  9
$DIMBLK1
  1

  9
$DIMBLK2
  1

  9
$DIMSTYLE
  2
Standard
  9
$DIMCLRD
 70
     0
  9
$DIMCLRE
 70
     0
  9
$DIMCLRT
 70
     0
  9
$DIMTFAC
 40
1.0
  9
$DIMGAP
 40
0.09
  9
$DIMJUST
 70
     0
  9
$DIMSD1
 70
     0
  9
$DIMSD2
 70
     0
  9
$DIMTOLJ
 70
     1
  9
$DIMTZIN
 70
     0
  9
$DIMALTZ
 70
     0
  9
$DIMALTTZ
 70
     0
  9
$DIMUPT
 70
     0
  9
$DIMDEC
 70
     4
  9
$DIMTDEC
 70
     4
  9
$DIMALTU
 70
     2
  9
$DIMALTTD
 70
     2
  9
$DIMTXSTY
  7
Standard
  9
$DIMAUNIT
 70
     0
  9
$DIMADEC
 70
     0
  9
$DIMALTRND
 40
0.0
  9
$DIMAZIN
 70
     0
  9
$DIMDSEP
 70
    46
  9
$DIMATFIT
 70
     3
  9
$DIMFRAC
 70
     0
  9
$DIMLDRBLK
  1

  9
$DIMLUNIT
 70
     2
  9
$DIMLWD
 70
    -2
  9
$DIMLWE
 70
    -2
  9
$DIMTMOVE
 70
     0
  9
$DIMFXL
 40
1.0
  9
$DIMFXLON
 70
     0
  9
$DIMJOGANG
 40
0.7853981633974483
  9
$DIMTFILL
 70
     0
  9
$DIMTFILLCLR
 70
     0
  9
$DIMARCSYM
 70
     0
  9
$DIMLTYPE
  6

  9
$DIMLTEX1
  6

  9
$DIMLTEX2
  6

  9
$DIMTXTDIRECTION
 70
     0
  9
$LUNITS
 70
     2
  9
$LUPREC
 70
     4
  9
$SKETCHINC
 40
0.1
  9
$FILLETRAD
 40
0.0
  9
$AUNITS
 70
     0
  9
$AUPREC
 70
     0
  9
$MENU
  1
.
  9
$ELEVATION
 40
0.0
  9
$PELEVATION
 40
0.0
  9
$THICKNESS
 40
0.0
  9
$LIMCHECK
 70
     0
  9
$CHAMFERA
 40
0.0
  9
$CHAMFERB
 40
0.0
  9
$CHAMFERC
 40
0.0
  9
$CHAMFERD
 40
0.0
  9
$SKPOLY
 70
     0
  9
$TDCREATE
 40
2458664.373622685
  9
$TDUCREATE
 40
2458664.134039352
  9
$TDUPDATE
 40
2458664.401516204
  9
$TDUUPDATE
 40
2458664.161932870
  9
$TDINDWG
 40
0.0278935185
  9
$TDUSRTIMER
 40
0.0278935185
  9
$USRTIMER
 70
     1
  9
$ANGBASE
 50
0.0
  9
$ANGDIR
 70
     0
  9
$PDMODE
 70
     0
  9
$PDSIZE
 40
0.0
  9
$PLINEWID
 40
0.0
  9
$SPLFRAME
 70
     0
  9
$SPLINETYPE
 70
     6
  9
$SPLINESEGS
 70
     8
  9
$HANDSEED
  5
B89
  9
$SURFTAB1
 70
     6
  9
$SURFTAB2
 70
     6
  9
$SURFTYPE
 70
     6
  9
$SURFU
 70
     6
  9
$SURFV
 70
     6
  9
$UCSBASE
  2

  9
$UCSNAME
  2

  9
$UCSORG
 10
0.0
 20
0.0
 30
0.0
  9
$UCSXDIR
 10
1.0
 20
0.0
 30
0.0
  9
$UCSYDIR
 10
0.0
 20
1.0
 30
0.0
  9
$UCSORTHOREF
  2

  9
$UCSORTHOVIEW
 70
     0
  9
$UCSORGTOP
 10
0.0
 20
0.0
 30
0.0
  9
$UCSORGBOTTOM
 10
0.0
 20
0.0
 30
0.0
  9
$UCSORGLEFT
 10
0.0
 20
0.0
 30
0.0
  9
$UCSORGRIGHT
 10
0.0
 20
0.0
 30
0.0
  9
$UCSORGFRONT
 10
0.0
 20
0.0
 30
0.0
  9
$UCSORGBACK
 10
0.0
 20
0.0
 30
0.0
  9
$PUCSBASE
  2

  9
$PUCSNAME
  2

  9
$PUCSORG
 10
0.0
 20
0.0
 30
0.0
  9
$PUCSXDIR
 10
1.0
 20
0.0
 30
0.0
  9
$PUCSYDIR
 10
0.0
 20
1.0
 30
0.0
  9
$PUCSORTHOREF
  2

  9
$PUCSORTHOVIEW
 70
     0
  9
$PUCSORGTOP
 10
0.0
 20
0.0
 30
0.0
  9
$PUCSORGBOTTOM
 10
0.0
 20
0.0
 30
0.0
  9
$PUCSORGLEFT
 10
0.0
 20
0.0
 30
0.0
  9
$PUCSORGRIGHT
 10
0.0
 20
0.0
 30
0.0
  9
$PUCSORGFRONT
 10
0.0
 20
0.0
 30
0.0
  9
$PUCSORGBACK
 10
0.0
 20
0.0
 30
0.0
  9
$USERI1
 70
     0
  9
$USERI2
 70
     0
  9
$USERI3
 70
     0
  9
$USERI4
 70
     0
  9
$USERI5
 70
     0
  9
$USERR1
 40
0.0
  9
$USERR2
 40
0.0
  9
$USERR3
 40
0.0
  9
$USERR4
 40
0.0
  9
$USERR5
 40
0.0
  9
$WORLDVIEW
 70
     1
  9
$SHADEDGE
 70
     3
  9
$SHADEDIF
 70
    70
  9
$TILEMODE
 70
     1
  9
$MAXACTVP
 70
    64
  9
$PINSBASE
 10
0.0
 20
0.0
 30
0.0
  9
$PLIMCHECK
 70
     0
  9
$PEXTMIN
 10
1.049999952316284
 20
0.7999999523162842
 30
0.0
  9
$PEXTMAX
 10
9.449999570846559
 20
7.199999570846558
 30
0.0
  9
$PLIMMIN
 10
-0.2500002402958907
 20
-0.2499999962453767
  9
$PLIMMAX
 10
10.74999951940822
 20
8.249999763458733
  9
$UNITMODE
 70
     0
  9
$VISRETAIN
 70
     1
  9
$PLINEGEN
 70
     0
  9
$PSLTSCALE
 70
     1
  9
$TREEDEPTH
 70
  3020
  9
$CMLSTYLE
  2
Standard
  9
$CMLJUST
 70
     0
  9
$CMLSCALE
 40
1.0
  9
$PROXYGRAPHICS
 70
     1
  9
$MEASUREMENT
 70
     0
  9
$CELWEIGHT
370
    -1
  9
$ENDCAPS
280
     0
  9
$JOINSTYLE
280
     0
  9
$LWDISPLAY
290
     0
  9
$INSUNITS
 70
     1
  9
$HYPERLINKBASE
  1

  9
$STYLESHEET
  1

  9
$XEDIT
290
     1
  9
$CEPSNTYPE
380
     0
  9
$PSTYLEMODE
290
     1
  9
$FINGERPRINTGUID
  2
{2B956E71-99CF-6A45-8D29-078CC5370377}
  9
$VERSIONGUID
  2
{7D4290D9-EFD9-B345-A399-F3258A67063E}
  9
$EXTNAMES
290
     1
  9
$PSVPSCALE
 40
0.0
  9
$OLESTARTUP
290
     0
  9
$SORTENTS
280
   127
  9
$INDEXCTL
280
     0
  9
$HIDETEXT
280
     1
  9
$XCLIPFRAME
280
     2
  9
$HALOGAP
280
     0
  9
$OBSCOLOR
 70
   257
  9
$OBSLTYPE
280
     0
  9
$INTERSECTIONDISPLAY
280
     0
  9
$INTERSECTIONCOLOR
 70
   257
  9
$DIMASSOC
280
     2
  9
$PROJECTNAME
  1

  9
$CAMERADISPLAY
290
     0
  9
$LENSLENGTH
 40
50.0
  9
$CAMERAHEIGHT
 40
0.0
  9
$STEPSPERSEC
 40
2.0
  9
$STEPSIZE
 40
6.0
  9
$3DDWFPREC
 40
2.0
  9
$PSOLWIDTH
 40
0.25
  9
$PSOLHEIGHT
 40
4.0
  9
$LOFTANG1
 40
1.570796326794896
  9
$LOFTANG2
 40
1.570796326794896
  9
$LOFTMAG1
 40
0.0
  9
$LOFTMAG2
 40
0.0
  9
$LOFTPARAM
 70
     7
  9
$LOFTNORMALS
280
     1
  9
$LATITUDE
 40
37.795
  9
$LONGITUDE
 40
-122.394
  9
$NORTHDIRECTION
 40
0.0
  9
$TIMEZONE
 70
 -8000
  9
$LIGHTGLYPHDISPLAY
280
     1
  9
$TILEMODELIGHTSYNCH
280
     1
  9
$CMATERIAL
347
96
  9
$SOLIDHIST
280
     0
  9
$SHOWHIST
280
     1
  9
$DWFFRAME
280
     2
  9
$DGNFRAME
280
     0
  9
$REALWORLDSCALE
290
     1
  9
$INTERFERECOLOR
 62
     1
  9
$INTERFEREOBJVS
345
A3
  9
$INTERFEREVPVS
346
A0
  9
$CSHADOW
280
     0
  9
$SHADOWPLANELOCATION
 40
0.0
  0
ENDSEC
  0
SECTION
  2
CLASSES
  0
CLASS
  1
ACDBDICTIONARYWDFLT
  2
AcDbDictionaryWithDefault
  3
ObjectDBX Classes
 90
        0
 91
        1
280
     0
281
     0
  0
CLASS
  1
DICTIONARYVAR
  2
AcDbDictionaryVar
  3
ObjectDBX Classes
 90
        0
 91
        9
280
     0
281
     0
  0
CLASS
  1
TABLESTYLE
  2
AcDbTableStyle
  3
ObjectDBX Classes
 90
     4095
 91
        1
280
     0
281
     0
  0
CLASS
  1
MATERIAL
  2
AcDbMaterial
  3
ObjectDBX Classes
 90
     1153
 91
        3
280
     0
281
     0
  0
CLASS
  1
VISUALSTYLE
  2
AcDbVisualStyle
  3
ObjectDBX Classes
 90
     4095
 91
       24
280
     0
281
     0
  0
CLASS
  1
SCALE
  2
AcDbScale
  3
ObjectDBX Classes
 90
     1153
 91
       33
280
     0
281
     0
  0
CLASS
  1
MLEADERSTYLE
  2
AcDbMLeaderStyle
  3
ACDB_MLEADERSTYLE_CLASS
 90
     4095
 91
        2
280
     0
281
     0
  0
CLASS
  1
CELLSTYLEMAP
  2
AcDbCellStyleMap
  3
ObjectDBX Classes
 90
     1152
 91
        5
280
     0
281
     0
  0
CLASS
  1
EXACXREFPANELOBJECT
  2
ExAcXREFPanelObject
  3
EXAC_ESW
 90
     1025
 91
        0
280
     0
281
     0
  0
CLASS
  1
NPOCOLLECTION
  2
AcDbImpNonPersistentObjectsCollection
  3
ObjectDBX Classes
 90
     1153
 91
        1
280
     0
281
     0
  0
CLASS
  1
LAYER_INDEX
  2
AcDbLayerIndex
  3
ObjectDBX Classes
 90
        0
 91
        0
280
     0
281
     0
  0
CLASS
  1
SPATIAL_INDEX
  2
AcDbSpatialIndex
  3
ObjectDBX Classes
 90
        0
 91
        0
280
     0
281
     0
  0
CLASS
  1
IDBUFFER
  2
AcDbIdBuffer
  3
ObjectDBX Classes
 90
        0
 91
        0
280
     0
281
     0
  0
CLASS
  1
ACDBSECTIONVIEWSTYLE
  2
AcDbSectionViewStyle
  3
ObjectDBX Classes
 90
     1025
 91
        1
280
     0
281
     0
  0
CLASS
  1
ACDBDETAILVIEWSTYLE
  2
AcDbDetailViewStyle
  3
ObjectDBX Classes
 90
     1025
 91
        1
280
     0
281
     0
  0
CLASS
  1
SOLID_BACKGROUND
  2
AcDbSolidBackground
  3
SCENEOE
 90
     4095
 91
        1
280
     0
281
     0
  0
ENDSEC
  0
SECTION
  2
TABLES
  0
TABLE
  2
VPORT
  5
8
330
0
100
AcDbSymbolTable
 70
     1
1001
ACAD
1000
DbSaveVer
1071
        5
  0
VPORT
  5
94
330
8
100
AcDbSymbolTableRecord
100
AcDbViewportTableRecord
  2
*Active
 70
     0
 10
0.0
 20
0.0
 11
1.0
 21
1.0
 12
489531887960396.0
 22
1304330021980762
 13
0.0
 23
0.0
 14
0.5
 24
0.5
 15
0.5
 25
0.5
 16
0.0
 26
0.0
 36
268.0406273849637
 17
5.106717109680175
 27
1.213987350463867
 37
48.20000076293945
 40
6616702265752227
 41
2.644937586685159
 42
50.0
 43
0.0
 44
0.0
 50
0.0
 51
270.0
 71
     0
 72
  1000
 73
     1
 74
     3
 75
     0
 76
     1
 77
     0
 78
     0
281
     0
 65
     1
110
0.0
120
0.0
130
0.0
111
1.0
121
0.0
131
0.0
112
0.0
122
1.0
132
0.0
 79
     0
146
0.0
348
9F
 60
     3
 61
     5
292
     1
282
     1
141
0.0
142
0.0
 63
   250
421
  3355443
1001
ACAD_NAV_VCDISPLAY
1070
     3
  0
ENDTAB
  0
TABLE
  2
LTYPE
  5
5
330
0
100
AcDbSymbolTable
 70
     1
  0
LTYPE
  5
14
330
5
100
AcDbSymbolTableRecord
100
AcDbLinetypeTableRecord
  2
ByBlock
 70
     0
  3

 72
    65
 73
     0
 40
0.0
  0
LTYPE
  5
15
330
5
100
AcDbSymbolTableRecord
100
AcDbLinetypeTableRecord
  2
ByLayer
 70
     0
  3

 72
    65
 73
     0
 40
0.0
  0
LTYPE
  5
16
330
5
100
AcDbSymbolTableRecord
100
AcDbLinetypeTableRecord
  2
Continuous
 70
     0
  3
Solid line
 72
    65
 73
     0
 40
0.0
  0
ENDTAB
  0
TABLE
  2
LAYER
  5
2
102
{ACAD_XDICTIONARY
360
18E
102
}
330
0
100
AcDbSymbolTable
 70
    14
  0
LAYER
  5
10
102
{ACAD_XDICTIONARY
360
E6
102
}
330
2
100
AcDbSymbolTableRecord
100
AcDbLayerTableRecord
  2
0
 70
     0
 62
     7
  6
Continuous
370
    -3
390
F
347
98
348
0
  0
LAYER
  5
1F8
330
2
100
AcDbSymbolTableRecord
100
AcDbLayerTableRecord
  2
Index_Contour
 70
     0
 62
     8
  6
Continuous
370
    -3
390
F
347
98
348
0
  0
LAYER
  5
1F9
330
2
100
AcDbSymbolTableRecord
100
AcDbLayerTableRecord
  2
Contour
 70
     0
 62
     4
  6
Continuous
370
    -3
390
F
347
98
348
0
  0
LAYER
  5
1FA
330
2
100
AcDbSymbolTableRecord
100
AcDbLayerTableRecord
  2
Cont_Annotation
 70
     0
 62
     7
  6
Continuous
370
    -3
390
F
347
98
348
0
  0
LAYER
  5
1FB
330
2
100
AcDbSymbolTableRecord
100
AcDbLayerTableRecord
  2
Spot_Height
 70
     0
 62
     7
  6
Continuous
370
    -3
390
F
347
98
348
0
  0
LAYER
  5
1FC
330
2
100
AcDbSymbolTableRecord
100
AcDbLayerTableRecord
  2
Triangle
 70
     0
 62
    11
  6
Continuous
370
    -3
390
F
347
98
348
0
  0
LAYER
  5
1FD
330
2
100
AcDbSymbolTableRecord
100
AcDbLayerTableRecord
  2
Features
 70
     0
 62
     5
  6
Continuous
370
    -3
390
F
347
98
348
0
  0
LAYER
  5
1FE
330
2
100
AcDbSymbolTableRecord
100
AcDbLayerTableRecord
  2
Boundary
 70
     0
 62
     6
  6
Continuous
370
    -3
390
F
347
98
348
0
  0
LAYER
  5
1FF
330
2
100
AcDbSymbolTableRecord
100
AcDbLayerTableRecord
  2
Void
 70
     0
 62
     2
  6
Continuous
370
    -3
390
F
347
98
348
0
  0
LAYER
  5
200
330
2
100
AcDbSymbolTableRecord
100
AcDbLayerTableRecord
  2
Points-NUM
 70
     0
 62
     4
  6
Continuous
370
    -3
390
F
347
98
348
0
  0
LAYER
  5
201
330
2
100
AcDbSymbolTableRecord
100
AcDbLayerTableRecord
  2
Points-TXT
 70
     0
 62
     3
  6
Continuous
370
    -3
390
F
347
98
348
0
  0
LAYER
  5
202
330
2
100
AcDbSymbolTableRecord
100
AcDbLayerTableRecord
  2
Points-ELV
 70
     0
 62
     6
  6
Continuous
370
    -3
390
F
347
98
348
0
  0
LAYER
  5
203
330
2
100
AcDbSymbolTableRecord
100
AcDbLayerTableRecord
  2
Points
 70
     0
 62
     7
  6
Continuous
370
    -3
390
F
347
98
348
0
  0
LAYER
  5
204
330
2
100
AcDbSymbolTableRecord
100
AcDbLayerTableRecord
  2
Points-Blk
 70
     0
 62
     7
  6
Continuous
370
    -3
390
F
347
98
348
0
  0
ENDTAB
  0
TABLE
  2
STYLE
  5
3
330
0
100
AcDbSymbolTable
 70
     3
  0
STYLE
  5
11
330
3
100
AcDbSymbolTableRecord
100
AcDbTextStyleTableRecord
  2
Standard
 70
     0
 40
0.0
 41
1.0
 50
0.0
 71
     0
 42
0.2
  3
arial.ttf
  4

1001
ACAD
1000
Arial
1071
       34
  0
STYLE
  5
DC
330
3
100
AcDbSymbolTableRecord
100
AcDbTextStyleTableRecord
  2
Annotative
 70
     0
 40
0.0
 41
1.0
 50
0.0
 71
     0
 42
0.2
  3
arial.ttf
  4

1001
AcadAnnotative
1000
AnnotativeData
1002
{
1070
     1
1070
     1
1002
}
1001
ACAD
1000
Arial
1071
       34
  0
STYLE
  5
1F7
330
3
100
AcDbSymbolTableRecord
100
AcDbTextStyleTableRecord
  2
romans
 70
     0
 40
0.0
 41
1.0
 50
0.0
 71
     0
 42
0.2
  3
romans.shx
  4

  0
ENDTAB
  0
TABLE
  2
VIEW
  5
6
330
0
100
AcDbSymbolTable
 70
     5
  0
ENDTAB
  0
TABLE
  2
UCS
  5
7
330
0
100
AcDbSymbolTable
 70
     0
  0
ENDTAB
  0
TABLE
  2
APPID
  5
9
330
0
100
AcDbSymbolTable
 70
    11
  0
APPID
  5
12
330
9
100
AcDbSymbolTableRecord
100
AcDbRegAppTableRecord
  2
ACAD
 70
     0
  0
APPID
  5
DD
330
9
100
AcDbSymbolTableRecord
100
AcDbRegAppTableRecord
  2
AcadAnnoPO
 70
     0
  0
APPID
  5
DE
330
9
100
AcDbSymbolTableRecord
100
AcDbRegAppTableRecord
  2
AcadAnnotative
 70
     0
  0
APPID
  5
DF
330
9
100
AcDbSymbolTableRecord
100
AcDbRegAppTableRecord
  2
ACAD_DSTYLE_DIMJAG
 70
     0
  0
APPID
  5
E0
330
9
100
AcDbSymbolTableRecord
100
AcDbRegAppTableRecord
  2
ACAD_DSTYLE_DIMTALN
 70
     0
  0
APPID
  5
107
330
9
100
AcDbSymbolTableRecord
100
AcDbRegAppTableRecord
  2
ACAD_MLEADERVER
 70
     0
  0
APPID
  5
1A6
330
9
100
AcDbSymbolTableRecord
100
AcDbRegAppTableRecord
  2
ACAD_NAV_VCDISPLAY
 70
     0
  0
APPID
  5
3B5
330
9
100
AcDbSymbolTableRecord
100
AcDbRegAppTableRecord
  2
AcCmTransparency
 70
     0
  0
APPID
  5
3B6
330
9
100
AcDbSymbolTableRecord
100
AcDbRegAppTableRecord
  2
GradientColor1ACI
 70
     0
  0
APPID
  5
3B7
330
9
100
AcDbSymbolTableRecord
100
AcDbRegAppTableRecord
  2
GradientColor2ACI
 70
     0
  0
APPID
  5
99F
330
9
100
AcDbSymbolTableRecord
100
AcDbRegAppTableRecord
  2
ACAD_PSEXT
 70
     0
  0
ENDTAB
  0
TABLE
  2
DIMSTYLE
  5
A
330
0
100
AcDbSymbolTable
 70
     2
100
AcDbDimStyleTable
 71
     2
340
27
340
E1
  0
DIMSTYLE
105
27
330
A
100
AcDbSymbolTableRecord
100
AcDbDimStyleTableRecord
  2
Standard
 70
     0
340
11
  0
DIMSTYLE
105
E1
330
A
100
AcDbSymbolTableRecord
100
AcDbDimStyleTableRecord
  2
Annotative
 70
     0
 40
0.0
340
11
1001
AcadAnnotative
1000
AnnotativeData
1002
{
1070
     1
1070
     1
1002
}
1001
ACAD_DSTYLE_DIMJAG
1070
   388
1040
1.5
1001
ACAD_DSTYLE_DIMTALN
1070
   392
1070
     0
  0
ENDTAB
  0
TABLE
  2
BLOCK_RECORD
  5
1
330
0
100
AcDbSymbolTable
 70
     2
  0
BLOCK_RECORD
  5
1F
102
{ACAD_XDICTIONARY
360
15D
102
}
330
1
100
AcDbSymbolTableRecord
100
AcDbBlockTableRecord
  2
*Model_Space
340
22
 70
     0
280
     1
281
     0
  0
BLOCK_RECORD
  5
5D
330
1
100
AcDbSymbolTableRecord
100
AcDbBlockTableRecord
  2
*Paper_Space
340
5E
 70
     0
280
     1
281
     0
  0
BLOCK_RECORD
  5
58
330
1
100
AcDbSymbolTableRecord
100
AcDbBlockTableRecord
  2
*Paper_Space0
340
59
 70
     0
280
     1
281
     0
  0
BLOCK_RECORD
  5
205
330
1
100
AcDbSymbolTableRecord
100
AcDbBlockTableRecord
  2
POINTS
340
0
102
{BLKREFS
331
A8C
331
A91
331
A96
331
A9B
331
AA0
331
AA5
331
AAA
331
AAF
331
AB4
331
AB9
331
ABE
331
AC3
331
AC8
331
ACD
331
AD2
331
AD7
331
ADC
331
AE1
331
AE6
331
AEB
331
AF0
331
AF5
331
AFA
331
AFF
331
A14
331
A19
331
A1E
331
A23
331
A28
331
A2D
331
A32
331
A37
331
A3C
331
A41
331
A46
331
A4B
331
A50
331
A55
331
A5A
331
A5F
331
A64
331
A69
331
A6E
331
A73
331
A78
331
A7D
331
A82
331
A87
331
9AB
331
9B0
331
9B5
331
9BA
331
9BF
331
9C4
331
9C9
331
9CE
331
9D3
331
9D8
331
9DD
331
9E2
331
9E7
331
9EC
331
9F1
331
9F6
331
9FB
331
A00
331
A05
331
A0A
331
A0F
331
B04
331
B09
331
B0E
331
B13
331
B18
331
B1D
331
B22
331
B27
331
B2C
331
B31
331
B36
331
B3B
331
B40
331
B45
102
}
 70
     0
280
     1
281
     0
  0
ENDTAB
  0
ENDSEC
  0
SECTION
  2
BLOCKS
  0
BLOCK
  5
20
330
1F
100
AcDbEntity
  8
0
100
AcDbBlockBegin
  2
*Model_Space
 70
     0
 10
0.0
 20
0.0
 30
0.0
  3
*Model_Space
  1

  0
ENDBLK
  5
21
330
1F
100
AcDbEntity
  8
0
100
AcDbBlockEnd
  0
BLOCK
  5
5F
330
5D
100
AcDbEntity
 67
     1
  8
0
100
AcDbBlockBegin
  2
*Paper_Space
 70
     0
 10
0.0
 20
0.0
 30
0.0
  3
*Paper_Space
  1

  0
ENDBLK
  5
60
330
5D
100
AcDbEntity
 67
     1
  8
0
100
AcDbBlockEnd
  0
BLOCK
  5
5A
330
58
100
AcDbEntity
 67
     1
  8
0
100
AcDbBlockBegin
  2
*Paper_Space0
 70
     0
 10
0.0
 20
0.0
 30
0.0
  3
*Paper_Space0
  1

  0
ENDBLK
  5
5B
330
58
100
AcDbEntity
 67
     1
  8
0
100
AcDbBlockEnd
  0
BLOCK
  5
206
330
205
100
AcDbEntity
  8
0
100
AcDbBlockBegin
  2
POINTS
 70
     2
 10
0.0
 20
0.0
 30
0.0
  3
POINTS
  1

  0
POINT
  5
207
330
205
100
AcDbEntity
  8
Points
100
AcDbPoint
 10
0.0
 20
0.0
 30
0.0
  0
LINE
  5
208
330
205
100
AcDbEntity
  8
Points
100
AcDbLine
 10
0.0
 20
0.0
 30
0.0
 11
0.0
 21
0.0
 31
0.0
  0
ATTDEF
  5
209
330
205
100
AcDbEntity
  8
Points-NUM
100
AcDbText
 10
0.0
 20
0.3333333333333333
 30
0.0
 40
1.0
  1

  7
romans
 72
     2
 11
0.0
 21
0.0
 31
0.0
100
AcDbAttributeDefinition
280
     0
  3
Point#
  2
PTNUM
 70
     0
 74
     1
280
     0
  0
ATTDEF
  5
20A
330
205
100
AcDbEntity
  8
Points-TXT
100
AcDbText
 10
0.0
 20
0.3333333333333333
 30
0.0
 40
1.0
  1

  7
romans
 72
     2
 11
0.0
 21
0.0
 31
0.0
100
AcDbAttributeDefinition
280
     0
  3
Description
  2
DESC
 70
     0
 74
     1
280
     0
  0
ATTDEF
  5
20B
330
205
100
AcDbEntity
  8
Points-ELV
100
AcDbText
 10
-0.2357022603955158
 20
0.2357022603955158
 30
0.0
 40
1.0
  1

 50
45.0
  7
romans
 11
0.0
 21
0.0
 31
0.0
100
AcDbAttributeDefinition
280
     0
  3
Elevation
  2
ELEV
 70
     0
 74
     1
280
     0
  0
ENDBLK
  5
20C
330
205
100
AcDbEntity
  8
0
100
AcDbBlockEnd
  0
ENDSEC
  0
SECTION
  2
ENTITIES
  0
INSERT
  5
9AB
330
1F
100
AcDbEntity
  8
Points
  6
Continuous
100
AcDbBlockReference
 66
     1
  2
POINTS
 10
0.0
 20
2.1
 30
0.0
  0
ATTRIB
  5
9AC
330
9AB
100
AcDbEntity
  8
Points-NUM
100
AcDbText
 10
-0.3809523809523809
 20
2.245833333333333
 30
0.0
 40
0.25
  1
1
  7
romans
 72
     2
 11
-0.25
 21
2.1625
 31
0.0
100
AcDbAttribute
280
     0
  2
PTNUM
 70
     0
 74
     1
280
     0
  0
ATTRIB
  5
9AD
330
9AB
100
AcDbEntity
  8
Points-TXT
100
AcDbText
 10
-0.25
 20
1.870833333333333
 30
0.0
 40
0.25
  1

  7
romans
 72
     2
 11
-0.25
 21
1.7875
 31
0.0
100
AcDbAttribute
280
     0
  2
DESC
 70
     0
 74
     1
280
     0
  0
ATTRIB
  5
9AE
330
9AB
100
AcDbEntity
  8
Points-ELV
100
AcDbText
 10
-0.058925565098879
 20
2.533925565098879
 30
0.0
 40
0.25
  1
0
 50
45.0
  7
romans
 11
0.0
 21
2.475
 31
0.0
100
AcDbAttribute
280
     0
  2
ELEV
 70
     0
 74
     1
280
     0
  0
SEQEND
  5
9AF
330
9AB
100
AcDbEntity
  8
0
  6
Continuous
  0
INSERT
  5
9B0
330
1F
100
AcDbEntity
  8
Points
  6
Continuous
100
AcDbBlockReference
 66
     1
  2
POINTS
 10
0.0
 20
2.799999999999999
 30
-0.37
  0
ATTRIB
  5
9B1
330
9B0
100
AcDbEntity
  8
Points-NUM
100
AcDbText
 10
-0.4523809523809524
 20
2.945833333333333
 30
-0.37
 40
0.25
  1
2
  7
romans
 72
     2
 11
-0.25
 21
2.862499999999999
 31
-0.37
100
AcDbAttribute
280
     0
  2
PTNUM
 70
     0
 74
     1
280
     0
  0
ATTRIB
  5
9B2
330
9B0
100
AcDbEntity
  8
Points-TXT
100
AcDbText
 10
-0.25
 20
2.570833333333333
 30
-0.37
 40
0.25
  1

  7
romans
 72
     2
 11
-0.25
 21
2.487499999999999
 31
-0.37
100
AcDbAttribute
280
     0
  2
DESC
 70
     0
 74
     1
280
     0
  0
ATTRIB
  5
9B3
330
9B0
100
AcDbEntity
  8
Points-ELV
100
AcDbText
 10
-0.058925565098879
 20
3.233925565098878
 30
-0.37
 40
0.25
  1
-0.37
 50
45.0
  7
romans
 11
0.0
 21
3.174999999999999
 31
-0.37
100
AcDbAttribute
280
     0
  2
ELEV
 70
     0
 74
     1
280
     0
  0
SEQEND
  5
9B4
330
9B0
100
AcDbEntity
  8
0
  6
Continuous
  0
INSERT
  5
9B5
330
1F
100
AcDbEntity
  8
Points
  6
Continuous
100
AcDbBlockReference
 66
     1
  2
POINTS
 10
0.0
 20
4.099999999999999
 30
-0.9699999999999999
  0
ATTRIB
  5
9B6
330
9B5
100
AcDbEntity
  8
Points-NUM
100
AcDbText
 10
-0.4523809523809524
 20
4.245833333333332
 30
-0.9699999999999999
 40
0.25
  1
3
  7
romans
 72
     2
 11
-0.25
 21
4.162499999999999
 31
-0.9699999999999999
100
AcDbAttribute
280
     0
  2
PTNUM
 70
     0
 74
     1
280
     0
  0
ATTRIB
  5
9B7
330
9B5
100
AcDbEntity
  8
Points-TXT
100
AcDbText
 10
-0.25
 20
3.870833333333333
 30
-0.9699999999999999
 40
0.25
  1

  7
romans
 72
     2
 11
-0.25
 21
3.7875
 31
-0.9699999999999999
100
AcDbAttribute
280
     0
  2
DESC
 70
     0
 74
     1
280
     0
  0
ATTRIB
  5
9B8
330
9B5
100
AcDbEntity
  8
Points-ELV
100
AcDbText
 10
-0.058925565098879
 20
4.533925565098878
 30
-0.9699999999999999
 40
0.25
  1
-0.97
 50
45.0
  7
romans
 11
0.0
 21
4.474999999999999
 31
-0.9699999999999999
100
AcDbAttribute
280
     0
  2
ELEV
 70
     0
 74
     1
280
     0
  0
SEQEND
  5
9B9
330
9B5
100
AcDbEntity
  8
0
  6
Continuous
  0
INSERT
  5
9BA
330
1F
100
AcDbEntity
  8
Points
  6
Continuous
100
AcDbBlockReference
 66
     1
  2
POINTS
 10
0.0
 20
5.0
 30
-1.52
  0
ATTRIB
  5
9BB
330
9BA
100
AcDbEntity
  8
Points-NUM
100
AcDbText
 10
-0.4642857142857144
 20
5.145833333333333
 30
-1.52
 40
0.25
  1
4
  7
romans
 72
     2
 11
-0.25
 21
5.0625
 31
-1.52
100
AcDbAttribute
280
     0
  2
PTNUM
 70
     0
 74
     1
280
     0
  0
ATTRIB
  5
9BC
330
9BA
100
AcDbEntity
  8
Points-TXT
100
AcDbText
 10
-0.25
 20
4.770833333333333
 30
-1.52
 40
0.25
  1

  7
romans
 72
     2
 11
-0.25
 21
4.6875
 31
-1.52
100
AcDbAttribute
280
     0
  2
DESC
 70
     0
 74
     1
280
     0
  0
ATTRIB
  5
9BD
330
9BA
100
AcDbEntity
  8
Points-ELV
100
AcDbText
 10
-0.058925565098879
 20
5.433925565098879
 30
-1.52
 40
0.25
  1
-1.52
 50
45.0
  7
romans
 11
0.0
 21
5.375
 31
-1.52
100
AcDbAttribute
280
     0
  2
ELEV
 70
     0
 74
     1
280
     0
  0
SEQEND
  5
9BE
330
9BA
100
AcDbEntity
  8
0
  6
Continuous
  0
INSERT
  5
9BF
330
1F
100
AcDbEntity
  8
Points
  6
Continuous
100
AcDbBlockReference
 66
     1
  2
POINTS
 10
0.0
 20
5.5
 30
-1.81
  0
ATTRIB
  5
9C0
330
9BF
100
AcDbEntity
  8
Points-NUM
100
AcDbText
 10
-0.4523809523809524
 20
5.645833333333333
 30
-1.81
 40
0.25
  1
5
  7
romans
 72
     2
 11
-0.25
 21
5.5625
 31
-1.81
100
AcDbAttribute
280
     0
  2
PTNUM
 70
     0
 74
     1
280
     0
  0
ATTRIB
  5
9C1
330
9BF
100
AcDbEntity
  8
Points-TXT
100
AcDbText
 10
-0.25
 20
5.270833333333333
 30
-1.81
 40
0.25
  1

  7
romans
 72
     2
 11
-0.25
 21
5.1875
 31
-1.81
100
AcDbAttribute
280
     0
  2
DESC
 70
     0
 74
     1
280
     0
  0
ATTRIB
  5
9C2
330
9BF
100
AcDbEntity
  8
Points-ELV
100
AcDbText
 10
-0.058925565098879
 20
5.933925565098879
 30
-1.81
 40
0.25
  1
-1.81
 50
45.0
  7
romans
 11
0.0
 21
5.875
 31
-1.81
100
AcDbAttribute
280
     0
  2
ELEV
 70
     0
 74
     1
280
     0
  0
SEQEND
  5
9C3
330
9BF
100
AcDbEntity
  8
0
  6
Continuous
  0
INSERT
  5
9C4
330
1F
100
AcDbEntity
  8
Points
  6
Continuous
100
AcDbBlockReference
 66
     1
  2
POINTS
 10
20.9
 20
36.2
 30
-0.04
  0
ATTRIB
  5
9C5
330
9C4
100
AcDbEntity
  8
Points-NUM
100
AcDbText
 10
20.44761904761905
 20
36.34583333333334
 30
-0.04
 40
0.25
  1
6
  7
romans
 72
     2
 11
20.65
 21
36.26250000000001
 31
-0.04
100
AcDbAttribute
280
     0
  2
PTNUM
 70
     0
 74
     1
280
     0
  0
ATTRIB
  5
9C6
330
9C4
100
AcDbEntity
  8
Points-TXT
100
AcDbText
 10
20.65
 20
35.97083333333334
 30
-0.04
 40
0.25
  1

  7
romans
 72
     2
 11
20.65
 21
35.8875
 31
-0.04
100
AcDbAttribute
280
     0
  2
DESC
 70
     0
 74
     1
280
     0
  0
ATTRIB
  5
9C7
330
9C4
100
AcDbEntity
  8
Points-ELV
100
AcDbText
 10
20.84107443490112
 20
36.63392556509889
 30
-0.04
 40
0.25
  1
-0.04
 50
45.0
  7
romans
 11
20.9
 21
36.57500000000001
 31
-0.04
100
AcDbAttribute
280
     0
  2
ELEV
 70
     0
 74
     1
280
     0
  0
SEQEND
  5
9C8
330
9C4
100
AcDbEntity
  8
0
  6
Continuous
  0
INSERT
  5
9C9
330
1F
100
AcDbEntity
  8
Points
  6
Continuous
100
AcDbBlockReference
 66
     1
  2
POINTS
 10
21.4
 20
37.066
 30
-0.11
  0
ATTRIB
  5
9CA
330
9C9
100
AcDbEntity
  8
Points-NUM
100
AcDbText
 10
20.94761904761905
 20
37.21183333333334
 30
-0.11
 40
0.25
  1
7
  7
romans
 72
     2
 11
21.15
 21
37.1285
 31
-0.11
100
AcDbAttribute
280
     0
  2
PTNUM
 70
     0
 74
     1
280
     0
  0
ATTRIB
  5
9CB
330
9C9
100
AcDbEntity
  8
Points-TXT
100
AcDbText
 10
21.15
 20
36.83683333333334
 30
-0.11
 40
0.25
  1

  7
romans
 72
     2
 11
21.15
 21
36.7535
 31
-0.11
100
AcDbAttribute
280
     0
  2
DESC
 70
     0
 74
     1
280
     0
  0
ATTRIB
  5
9CC
330
9C9
100
AcDbEntity
  8
Points-ELV
100
AcDbText
 10
21.34107443490112
 20
37.49992556509889
 30
-0.11
 40
0.25
  1
-0.11
 50
45.0
  7
romans
 11
21.4
 21
37.441
 31
-0.11
100
AcDbAttribute
280
     0
  2
ELEV
 70
     0
 74
     1
280
     0
  0
SEQEND
  5
9CD
330
9C9
100
AcDbEntity
  8
0
  6
Continuous
  0
INSERT
  5
9CE
330
1F
100
AcDbEntity
  8
Points
  6
Continuous
100
AcDbBlockReference
 66
     1
  2
POINTS
 10
16.85
 20
29.185
 30
0.0
  0
ATTRIB
  5
9CF
330
9CE
100
AcDbEntity
  8
Points-NUM
100
AcDbText
 10
16.39761904761905
 20
29.33083333333333
 30
0.0
 40
0.25
  1
8
  7
romans
 72
     2
 11
16.6
 21
29.2475
 31
0.0
100
AcDbAttribute
280
     0
  2
PTNUM
 70
     0
 74
     1
280
     0
  0
ATTRIB
  5
9D0
330
9CE
100
AcDbEntity
  8
Points-TXT
100
AcDbText
 10
16.6
 20
28.95583333333333
 30
0.0
 40
0.25
  1

  7
romans
 72
     2
 11
16.6
 21
28.8725
 31
0.0
100
AcDbAttribute
280
     0
  2
DESC
 70
     0
 74
     1
280
     0
  0
ATTRIB
  5
9D1
330
9CE
100
AcDbEntity
  8
Points-ELV
100
AcDbText
 10
16.79107443490112
 20
29.61892556509888
 30
0.0
 40
0.25
  1
0
 50
45.0
  7
romans
 11
16.85
 21
29.56
 31
0.0
100
AcDbAttribute
280
     0
  2
ELEV
 70
     0
 74
     1
280
     0
  0
SEQEND
  5
9D2
330
9CE
100
AcDbEntity
  8
0
  6
Continuous
  0
INSERT
  5
9D3
330
1F
100
AcDbEntity
  8
Points
  6
Continuous
100
AcDbBlockReference
 66
     1
  2
POINTS
 10
7.969999999999999
 20
7.902999999999999
 30
-5.48
  0
ATTRIB
  5
9D4
330
9D3
100
AcDbEntity
  8
Points-NUM
100
AcDbText
 10
7.529523809523809
 20
8.048833333333332
 30
-5.48
 40
0.25
  1
9
  7
romans
 72
     2
 11
7.719999999999999
 21
7.965499999999999
 31
-5.48
100
AcDbAttribute
280
     0
  2
PTNUM
 70
     0
 74
     1
280
     0
  0
ATTRIB
  5
9D5
330
9D3
100
AcDbEntity
  8
Points-TXT
100
AcDbText
 10
7.719999999999999
 20
7.673833333333332
 30
-5.48
 40
0.25
  1

  7
romans
 72
     2
 11
7.719999999999999
 21
7.590499999999999
 31
-5.48
100
AcDbAttribute
280
     0
  2
DESC
 70
     0
 74
     1
280
     0
  0
ATTRIB
  5
9D6
330
9D3
100
AcDbEntity
  8
Points-ELV
100
AcDbText
 10
7.91107443490112
 20
8.336925565098876
 30
-5.48
 40
0.25
  1
-5.48
 50
45.0
  7
romans
 11
7.969999999999999
 21
8.277999999999998
 31
-5.48
100
AcDbAttribute
280
     0
  2
ELEV
 70
     0
 74
     1
280
     0
  0
SEQEND
  5
9D7
330
9D3
100
AcDbEntity
  8
0
  6
Continuous
  0
INSERT
  5
9D8
330
1F
100
AcDbEntity
  8
Points
  6
Continuous
100
AcDbBlockReference
 66
     1
  2
POINTS
 10
0.005
 20
0.038
 30
-5.86
  0
ATTRIB
  5
9D9
330
9D8
100
AcDbEntity
  8
Points-NUM
100
AcDbText
 10
-0.6854761904761907
 20
0.1838333333333333
 30
-5.86
 40
0.25
  1
10
  7
romans
 72
     2
 11
-0.245
 21
0.1005
 31
-5.86
100
AcDbAttribute
280
     0
  2
PTNUM
 70
     0
 74
     1
280
     0
  0
ATTRIB
  5
9DA
330
9D8
100
AcDbEntity
  8
Points-TXT
100
AcDbText
 10
-0.245
 20
-0.1911666666666667
 30
-5.86
 40
0.25
  1

  7
romans
 72
     2
 11
-0.245
 21
-0.2745
 31
-5.86
100
AcDbAttribute
280
     0
  2
DESC
 70
     0
 74
     1
280
     0
  0
ATTRIB
  5
9DB
330
9D8
100
AcDbEntity
  8
Points-ELV
100
AcDbText
 10
-0.053925565098879
 20
0.471925565098879
 30
-5.86
 40
0.25
  1
-5.86
 50
45.0
  7
romans
 11
0.005
 21
0.413
 31
-5.86
100
AcDbAttribute
280
     0
  2
ELEV
 70
     0
 74
     1
280
     0
  0
SEQEND
  5
9DC
330
9D8
100
AcDbEntity
  8
0
  6
Continuous
  0
INSERT
  5
9DD
330
1F
100
AcDbEntity
  8
Points
  6
Continuous
100
AcDbBlockReference
 66
     1
  2
POINTS
 10
0.8420000000000001
 20
5.593999999999999
 30
-4.559999999999999
  0
ATTRIB
  5
9DE
330
9DD
100
AcDbEntity
  8
Points-NUM
100
AcDbText
 10
0.222952380952381
 20
5.739833333333333
 30
-4.559999999999999
 40
0.25
  1
11
  7
romans
 72
     2
 11
0.5920000000000001
 21
5.6565
 31
-4.559999999999999
100
AcDbAttribute
280
     0
  2
PTNUM
 70
     0
 74
     1
280
     0
  0
ATTRIB
  5
9DF
330
9DD
100
AcDbEntity
  8
Points-TXT
100
AcDbText
 10
0.5920000000000001
 20
5.364833333333333
 30
-4.559999999999999
 40
0.25
  1

  7
romans
 72
     2
 11
0.5920000000000001
 21
5.2815
 31
-4.559999999999999
100
AcDbAttribute
280
     0
  2
DESC
 70
     0
 74
     1
280
     0
  0
ATTRIB
  5
9E0
330
9DD
100
AcDbEntity
  8
Points-ELV
100
AcDbText
 10
0.7830744349011212
 20
6.027925565098878
 30
-4.559999999999999
 40
0.25
  1
-4.56
 50
45.0
  7
romans
 11
0.8420000000000001
 21
5.968999999999999
 31
-4.559999999999999
100
AcDbAttribute
280
     0
  2
ELEV
 70
     0
 74
     1
280
     0
  0
SEQEND
  5
9E1
330
9DD
100
AcDbEntity
  8
0
  6
Continuous
  0
INSERT
  5
9E2
330
1F
100
AcDbEntity
  8
Points
  6
Continuous
100
AcDbBlockReference
 66
     1
  2
POINTS
 10
-0.133
 20
2.581
 30
-7.82
  0
ATTRIB
  5
9E3
330
9E2
100
AcDbEntity
  8
Points-NUM
100
AcDbText
 10
-0.8234761904761905
 20
2.726833333333333
 30
-7.82
 40
0.25
  1
12
  7
romans
 72
     2
 11
-0.383
 21
2.643499999999999
 31
-7.82
100
AcDbAttribute
280
     0
  2
PTNUM
 70
     0
 74
     1
280
     0
  0
ATTRIB
  5
9E4
330
9E2
100
AcDbEntity
  8
Points-TXT
100
AcDbText
 10
-0.383
 20
2.351833333333333
 30
-7.82
 40
0.25
  1

  7
romans
 72
     2
 11
-0.383
 21
2.268499999999999
 31
-7.82
100
AcDbAttribute
280
     0
  2
DESC
 70
     0
 74
     1
280
     0
  0
ATTRIB
  5
9E5
330
9E2
100
AcDbEntity
  8
Points-ELV
100
AcDbText
 10
-0.1919255650988789
 20
3.014925565098879
 30
-7.82
 40
0.25
  1
-7.82
 50
45.0
  7
romans
 11
-0.133
 21
2.956
 31
-7.82
100
AcDbAttribute
280
     0
  2
ELEV
 70
     0
 74
     1
280
     0
  0
SEQEND
  5
9E6
330
9E2
100
AcDbEntity
  8
0
  6
Continuous
  0
INSERT
  5
9E7
330
1F
100
AcDbEntity
  8
Points
  6
Continuous
100
AcDbBlockReference
 66
     1
  2
POINTS
 10
0.3229999999999999
 20
2.645
 30
-4.959999999999999
  0
ATTRIB
  5
9E8
330
9E7
100
AcDbEntity
  8
Points-NUM
100
AcDbText
 10
-0.3674761904761905
 20
2.790833333333333
 30
-4.959999999999999
 40
0.25
  1
13
  7
romans
 72
     2
 11
0.073
 21
2.7075
 31
-4.959999999999999
100
AcDbAttribute
280
     0
  2
PTNUM
 70
     0
 74
     1
280
     0
  0
ATTRIB
  5
9E9
330
9E7
100
AcDbEntity
  8
Points-TXT
100
AcDbText
 10
0.073
 20
2.415833333333333
 30
-4.959999999999999
 40
0.25
  1

  7
romans
 72
     2
 11
0.073
 21
2.3325
 31
-4.959999999999999
100
AcDbAttribute
280
     0
  2
DESC
 70
     0
 74
     1
280
     0
  0
ATTRIB
  5
9EA
330
9E7
100
AcDbEntity
  8
Points-ELV
100
AcDbText
 10
0.264074434901121
 20
3.078925565098879
 30
-4.959999999999999
 40
0.25
  1
-4.96
 50
45.0
  7
romans
 11
0.3229999999999999
 21
3.02
 31
-4.959999999999999
100
AcDbAttribute
280
     0
  2
ELEV
 70
     0
 74
     1
280
     0
  0
SEQEND
  5
9EB
330
9E7
100
AcDbEntity
  8
0
  6
Continuous
  0
INSERT
  5
9EC
330
1F
100
AcDbEntity
  8
Points
  6
Continuous
100
AcDbBlockReference
 66
     1
  2
POINTS
 10
0.189
 20
1.173
 30
-6.16
  0
ATTRIB
  5
9ED
330
9EC
100
AcDbEntity
  8
Points-NUM
100
AcDbText
 10
-0.5133809523809524
 20
1.318833333333333
 30
-6.16
 40
0.25
  1
14
  7
romans
 72
     2
 11
-0.061
 21
1.2355
 31
-6.16
100
AcDbAttribute
280
     0
  2
PTNUM
 70
     0
 74
     1
280
     0
  0
ATTRIB
  5
9EE
330
9EC
100
AcDbEntity
  8
Points-TXT
100
AcDbText
 10
-0.061
 20
0.9438333333333334
 30
-6.16
 40
0.25
  1

  7
romans
 72
     2
 11
-0.061
 21
0.8605
 31
-6.16
100
AcDbAttribute
280
     0
  2
DESC
 70
     0
 74
     1
280
     0
  0
ATTRIB
  5
9EF
330
9EC
100
AcDbEntity
  8
Points-ELV
100
AcDbText
 10
0.130074434901121
 20
1.606925565098879
 30
-6.16
 40
0.25
  1
-6.16
 50
45.0
  7
romans
 11
0.189
 21
1.548
 31
-6.16
100
AcDbAttribute
280
     0
  2
ELEV
 70
     0
 74
     1
280
     0
  0
SEQEND
  5
9F0
330
9EC
100
AcDbEntity
  8
0
  6
Continuous
  0
INSERT
  5
9F1
330
1F
100
AcDbEntity
  8
Points
  6
Continuous
100
AcDbBlockReference
 66
     1
  2
POINTS
 10
-1.798
 20
22.959
 30
-7.45
  0
ATTRIB
  5
9F2
330
9F1
100
AcDbEntity
  8
Points-NUM
100
AcDbText
 10
-2.48847619047619
 20
23.10483333333333
 30
-7.45
 40
0.25
  1
15
  7
romans
 72
     2
 11
-2.048
 21
23.0215
 31
-7.45
100
AcDbAttribute
280
     0
  2
PTNUM
 70
     0
 74
     1
280
     0
  0
ATTRIB
  5
9F3
330
9F1
100
AcDbEntity
  8
Points-TXT
100
AcDbText
 10
-2.048
 20
22.72983333333333
 30
-7.45
 40
0.25
  1

  7
romans
 72
     2
 11
-2.048
 21
22.6465
 31
-7.45
100
AcDbAttribute
280
     0
  2
DESC
 70
     0
 74
     1
280
     0
  0
ATTRIB
  5
9F4
330
9F1
100
AcDbEntity
  8
Points-ELV
100
AcDbText
 10
-1.856925565098879
 20
23.39292556509888
 30
-7.45
 40
0.25
  1
-7.45
 50
45.0
  7
romans
 11
-1.798
 21
23.334
 31
-7.45
100
AcDbAttribute
280
     0
  2
ELEV
 70
     0
 74
     1
280
     0
  0
SEQEND
  5
9F5
330
9F1
100
AcDbEntity
  8
0
  6
Continuous
  0
INSERT
  5
9F6
330
1F
100
AcDbEntity
  8
Points
  6
Continuous
100
AcDbBlockReference
 66
     1
  2
POINTS
 10
-4.147
 20
24.622
 30
-8.25
  0
ATTRIB
  5
9F7
330
9F6
100
AcDbEntity
  8
Points-NUM
100
AcDbText
 10
-4.83747619047619
 20
24.76783333333334
 30
-8.25
 40
0.25
  1
16
  7
romans
 72
     2
 11
-4.397
 21
24.6845
 31
-8.25
100
AcDbAttribute
280
     0
  2
PTNUM
 70
     0
 74
     1
280
     0
  0
ATTRIB
  5
9F8
330
9F6
100
AcDbEntity
  8
Points-TXT
100
AcDbText
 10
-4.397
 20
24.39283333333333
 30
-8.25
 40
0.25
  1

  7
romans
 72
     2
 11
-4.397
 21
24.3095
 31
-8.25
100
AcDbAttribute
280
     0
  2
DESC
 70
     0
 74
     1
280
     0
  0
ATTRIB
  5
9F9
330
9F6
100
AcDbEntity
  8
Points-ELV
100
AcDbText
 10
-4.205925565098879
 20
25.05592556509888
 30
-8.25
 40
0.25
  1
-8.25
 50
45.0
  7
romans
 11
-4.147
 21
24.997
 31
-8.25
100
AcDbAttribute
280
     0
  2
ELEV
 70
     0
 74
     1
280
     0
  0
SEQEND
  5
9FA
330
9F6
100
AcDbEntity
  8
0
  6
Continuous
  0
INSERT
  5
9FB
330
1F
100
AcDbEntity
  8
Points
  6
Continuous
100
AcDbBlockReference
 66
     1
  2
POINTS
 10
-5.392999999999999
 20
25.382
 30
-8.699999999999999
  0
ATTRIB
  5
9FC
330
9FB
100
AcDbEntity
  8
Points-NUM
100
AcDbText
 10
-6.08347619047619
 20
25.52783333333334
 30
-8.699999999999999
 40
0.25
  1
17
  7
romans
 72
     2
 11
-5.642999999999999
 21
25.4445
 31
-8.699999999999999
100
AcDbAttribute
280
     0
  2
PTNUM
 70
     0
 74
     1
280
     0
  0
ATTRIB
  5
9FD
330
9FB
100
AcDbEntity
  8
Points-TXT
100
AcDbText
 10
-5.642999999999999
 20
25.15283333333333
 30
-8.699999999999999
 40
0.25
  1

  7
romans
 72
     2
 11
-5.642999999999999
 21
25.0695
 31
-8.699999999999999
100
AcDbAttribute
280
     0
  2
DESC
 70
     0
 74
     1
280
     0
  0
ATTRIB
  5
9FE
330
9FB
100
AcDbEntity
  8
Points-ELV
100
AcDbText
 10
-5.451925565098878
 20
25.81592556509888
 30
-8.699999999999999
 40
0.25
  1
-8.7
 50
45.0
  7
romans
 11
-5.392999999999999
 21
25.757
 31
-8.699999999999999
100
AcDbAttribute
280
     0
  2
ELEV
 70
     0
 74
     1
280
     0
  0
SEQEND
  5
9FF
330
9FB
100
AcDbEntity
  8
0
  6
Continuous
  0
INSERT
  5
A00
330
1F
100
AcDbEntity
  8
Points
  6
Continuous
100
AcDbBlockReference
 66
     1
  2
POINTS
 10
0.103
 20
0.439
 30
-3.54
  0
ATTRIB
  5
A01
330
A00
100
AcDbEntity
  8
Points-NUM
100
AcDbText
 10
-0.5874761904761904
 20
0.5848333333333333
 30
-3.54
 40
0.25
  1
18
  7
romans
 72
     2
 11
-0.147
 21
0.5015
 31
-3.54
100
AcDbAttribute
280
     0
  2
PTNUM
 70
     0
 74
     1
280
     0
  0
ATTRIB
  5
A02
330
A00
100
AcDbEntity
  8
Points-TXT
100
AcDbText
 10
-0.147
 20
0.2098333333333333
 30
-3.54
 40
0.25
  1

  7
romans
 72
     2
 11
-0.147
 21
0.1265
 31
-3.54
100
AcDbAttribute
280
     0
  2
DESC
 70
     0
 74
     1
280
     0
  0
ATTRIB
  5
A03
330
A00
100
AcDbEntity
  8
Points-ELV
100
AcDbText
 10
0.0440744349011211
 20
0.872925565098879
 30
-3.54
 40
0.25
  1
-3.54
 50
45.0
  7
romans
 11
0.103
 21
0.814
 31
-3.54
100
AcDbAttribute
280
     0
  2
ELEV
 70
     0
 74
     1
280
     0
  0
SEQEND
  5
A04
330
A00
100
AcDbEntity
  8
0
  6
Continuous
  0
INSERT
  5
A05
330
1F
100
AcDbEntity
  8
Points
  6
Continuous
100
AcDbBlockReference
 66
     1
  2
POINTS
 10
6.862999999999999
 20
27.661
 30
-2.9
  0
ATTRIB
  5
A06
330
A05
100
AcDbEntity
  8
Points-NUM
100
AcDbText
 10
6.18442857142857
 20
27.80683333333334
 30
-2.9
 40
0.25
  1
19
  7
romans
 72
     2
 11
6.612999999999999
 21
27.7235
 31
-2.9
100
AcDbAttribute
280
     0
  2
PTNUM
 70
     0
 74
     1
280
     0
  0
ATTRIB
  5
A07
330
A05
100
AcDbEntity
  8
Points-TXT
100
AcDbText
 10
6.612999999999999
 20
27.43183333333333
 30
-2.9
 40
0.25
  1

  7
romans
 72
     2
 11
6.612999999999999
 21
27.3485
 31
-2.9
100
AcDbAttribute
280
     0
  2
DESC
 70
     0
 74
     1
280
     0
  0
ATTRIB
  5
A08
330
A05
100
AcDbEntity
  8
Points-ELV
100
AcDbText
 10
6.80407443490112
 20
28.09492556509887
 30
-2.9
 40
0.25
  1
-2.9
 50
45.0
  7
romans
 11
6.862999999999999
 21
28.036
 31
-2.9
100
AcDbAttribute
280
     0
  2
ELEV
 70
     0
 74
     1
280
     0
  0
SEQEND
  5
A09
330
A05
100
AcDbEntity
  8
0
  6
Continuous
  0
INSERT
  5
A0A
330
1F
100
AcDbEntity
  8
Points
  6
Continuous
100
AcDbBlockReference
 66
     1
  2
POINTS
 10
7.788999999999999
 20
29.81
 30
-2.24
  0
ATTRIB
  5
A0B
330
A0A
100
AcDbEntity
  8
Points-NUM
100
AcDbText
 10
7.098523809523809
 20
29.95583333333333
 30
-2.24
 40
0.25
  1
20
  7
romans
 72
     2
 11
7.538999999999999
 21
29.8725
 31
-2.24
100
AcDbAttribute
280
     0
  2
PTNUM
 70
     0
 74
     1
280
     0
  0
ATTRIB
  5
A0C
330
A0A
100
AcDbEntity
  8
Points-TXT
100
AcDbText
 10
7.538999999999999
 20
29.58083333333333
 30
-2.24
 40
0.25
  1

  7
romans
 72
     2
 11
7.538999999999999
 21
29.4975
 31
-2.24
100
AcDbAttribute
280
     0
  2
DESC
 70
     0
 74
     1
280
     0
  0
ATTRIB
  5
A0D
330
A0A
100
AcDbEntity
  8
Points-ELV
100
AcDbText
 10
7.73007443490112
 20
30.24392556509888
 30
-2.24
 40
0.25
  1
-2.24
 50
45.0
  7
romans
 11
7.788999999999999
 21
30.185
 31
-2.24
100
AcDbAttribute
280
     0
  2
ELEV
 70
     0
 74
     1
280
     0
  0
SEQEND
  5
A0E
330
A0A
100
AcDbEntity
  8
0
  6
Continuous
  0
INSERT
  5
A0F
330
1F
100
AcDbEntity
  8
Points
  6
Continuous
100
AcDbBlockReference
 66
     1
  2
POINTS
 10
9.951999999999999
 20
35.484
 30
-1.36
  0
ATTRIB
  5
A10
330
A0F
100
AcDbEntity
  8
Points-NUM
100
AcDbText
 10
9.332952380952381
 20
35.62983333333334
 30
-1.36
 40
0.25
  1
21
  7
romans
 72
     2
 11
9.701999999999999
 21
35.5465
 31
-1.36
100
AcDbAttribute
280
     0
  2
PTNUM
 70
     0
 74
     1
280
     0
  0
ATTRIB
  5
A11
330
A0F
100
AcDbEntity
  8
Points-TXT
100
AcDbText
 10
9.701999999999999
 20
35.25483333333334
 30
-1.36
 40
0.25
  1

  7
romans
 72
     2
 11
9.701999999999999
 21
35.1715
 31
-1.36
100
AcDbAttribute
280
     0
  2
DESC
 70
     0
 74
     1
280
     0
  0
ATTRIB
  5
A12
330
A0F
100
AcDbEntity
  8
Points-ELV
100
AcDbText
 10
9.893074434901121
 20
35.91792556509889
 30
-1.36
 40
0.25
  1
-1.36
 50
45.0
  7
romans
 11
9.951999999999999
 21
35.859
 31
-1.36
100
AcDbAttribute
280
     0
  2
ELEV
 70
     0
 74
     1
280
     0
  0
SEQEND
  5
A13
330
A0F
100
AcDbEntity
  8
0
  6
Continuous
  0
INSERT
  5
A14
330
1F
100
AcDbEntity
  8
Points
  6
Continuous
100
AcDbBlockReference
 66
     1
  2
POINTS
 10
0.11
 20
0.191
 30
0.07
  0
ATTRIB
  5
A15
330
A14
100
AcDbEntity
  8
Points-NUM
100
AcDbText
 10
-0.5804761904761905
 20
0.3368333333333333
 30
0.07
 40
0.25
  1
22
  7
romans
 72
     2
 11
-0.14
 21
0.2535
 31
0.07
100
AcDbAttribute
280
     0
  2
PTNUM
 70
     0
 74
     1
280
     0
  0
ATTRIB
  5
A16
330
A14
100
AcDbEntity
  8
Points-TXT
100
AcDbText
 10
-0.14
 20
-0.0381666666666667
 30
0.07
 40
0.25
  1

  7
romans
 72
     2
 11
-0.14
 21
-0.1215
 31
0.07
100
AcDbAttribute
280
     0
  2
DESC
 70
     0
 74
     1
280
     0
  0
ATTRIB
  5
A17
330
A14
100
AcDbEntity
  8
Points-ELV
100
AcDbText
 10
0.0510744349011211
 20
0.624925565098879
 30
0.07
 40
0.25
  1
0.07
 50
45.0
  7
romans
 11
0.11
 21
0.5660000000000001
 31
0.07
100
AcDbAttribute
280
     0
  2
ELEV
 70
     0
 74
     1
280
     0
  0
SEQEND
  5
A18
330
A14
100
AcDbEntity
  8
0
  6
Continuous
  0
INSERT
  5
A19
330
1F
100
AcDbEntity
  8
Points
  6
Continuous
100
AcDbBlockReference
 66
     1
  2
POINTS
 10
0.211
 20
0.365
 30
-0.39
  0
ATTRIB
  5
A1A
330
A19
100
AcDbEntity
  8
Points-NUM
100
AcDbText
 10
-0.4794761904761905
 20
0.5108333333333334
 30
-0.39
 40
0.25
  1
23
  7
romans
 72
     2
 11
-0.039
 21
0.4275000000000001
 31
-0.39
100
AcDbAttribute
280
     0
  2
PTNUM
 70
     0
 74
     1
280
     0
  0
ATTRIB
  5
A1B
330
A19
100
AcDbEntity
  8
Points-TXT
100
AcDbText
 10
-0.039
 20
0.1358333333333333
 30
-0.39
 40
0.25
  1

  7
romans
 72
     2
 11
-0.039
 21
0.0525
 31
-0.39
100
AcDbAttribute
280
     0
  2
DESC
 70
     0
 74
     1
280
     0
  0
ATTRIB
  5
A1C
330
A19
100
AcDbEntity
  8
Points-ELV
100
AcDbText
 10
0.1520744349011211
 20
0.7989255650988789
 30
-0.39
 40
0.25
  1
-0.39
 50
45.0
  7
romans
 11
0.211
 21
0.7400000000000001
 31
-0.39
100
AcDbAttribute
280
     0
  2
ELEV
 70
     0
 74
     1
280
     0
  0
SEQEND
  5
A1D
330
A19
100
AcDbEntity
  8
0
  6
Continuous
  0
INSERT
  5
A1E
330
1F
100
AcDbEntity
  8
Points
  6
Continuous
100
AcDbBlockReference
 66
     1
  2
POINTS
 10
0.271
 20
0.469
 30
-0.8199999999999999
  0
ATTRIB
  5
A1F
330
A1E
100
AcDbEntity
  8
Points-NUM
100
AcDbText
 10
-0.4313809523809524
 20
0.6148333333333334
 30
-0.8199999999999999
 40
0.25
  1
24
  7
romans
 72
     2
 11
0.021
 21
0.5315
 31
-0.8199999999999999
100
AcDbAttribute
280
     0
  2
PTNUM
 70
     0
 74
     1
280
     0
  0
ATTRIB
  5
A20
330
A1E
100
AcDbEntity
  8
Points-TXT
100
AcDbText
 10
0.021
 20
0.2398333333333333
 30
-0.8199999999999999
 40
0.25
  1

  7
romans
 72
     2
 11
0.021
 21
0.1565
 31
-0.8199999999999999
100
AcDbAttribute
280
     0
  2
DESC
 70
     0
 74
     1
280
     0
  0
ATTRIB
  5
A21
330
A1E
100
AcDbEntity
  8
Points-ELV
100
AcDbText
 10
0.2120744349011211
 20
0.902925565098879
 30
-0.8199999999999999
 40
0.25
  1
-0.82
 50
45.0
  7
romans
 11
0.271
 21
0.8440000000000001
 31
-0.8199999999999999
100
AcDbAttribute
280
     0
  2
ELEV
 70
     0
 74
     1
280
     0
  0
SEQEND
  5
A22
330
A1E
100
AcDbEntity
  8
0
  6
Continuous
  0
INSERT
  5
A23
330
1F
100
AcDbEntity
  8
Points
  6
Continuous
100
AcDbBlockReference
 66
     1
  2
POINTS
 10
0.331
 20
0.574
 30
-1.189999999999999
  0
ATTRIB
  5
A24
330
A23
100
AcDbEntity
  8
Points-NUM
100
AcDbText
 10
-0.3594761904761904
 20
0.7198333333333334
 30
-1.189999999999999
 40
0.25
  1
25
  7
romans
 72
     2
 11
0.081
 21
0.6365
 31
-1.189999999999999
100
AcDbAttribute
280
     0
  2
PTNUM
 70
     0
 74
     1
280
     0
  0
ATTRIB
  5
A25
330
A23
100
AcDbEntity
  8
Points-TXT
100
AcDbText
 10
0.081
 20
0.3448333333333333
 30
-1.189999999999999
 40
0.25
  1

  7
romans
 72
     2
 11
0.081
 21
0.2615
 31
-1.189999999999999
100
AcDbAttribute
280
     0
  2
DESC
 70
     0
 74
     1
280
     0
  0
ATTRIB
  5
A26
330
A23
100
AcDbEntity
  8
Points-ELV
100
AcDbText
 10
0.272074434901121
 20
1.007925565098878
 30
-1.189999999999999
 40
0.25
  1
-1.19
 50
45.0
  7
romans
 11
0.331
 21
0.949
 31
-1.189999999999999
100
AcDbAttribute
280
     0
  2
ELEV
 70
     0
 74
     1
280
     0
  0
SEQEND
  5
A27
330
A23
100
AcDbEntity
  8
0
  6
Continuous
  0
INSERT
  5
A28
330
1F
100
AcDbEntity
  8
Points
  6
Continuous
100
AcDbBlockReference
 66
     1
  2
POINTS
 10
0.412
 20
0.713
 30
-1.52
  0
ATTRIB
  5
A29
330
A28
100
AcDbEntity
  8
Points-NUM
100
AcDbText
 10
-0.2784761904761904
 20
0.8588333333333332
 30
-1.52
 40
0.25
  1
26
  7
romans
 72
     2
 11
0.162
 21
0.7755
 31
-1.52
100
AcDbAttribute
280
     0
  2
PTNUM
 70
     0
 74
     1
280
     0
  0
ATTRIB
  5
A2A
330
A28
100
AcDbEntity
  8
Points-TXT
100
AcDbText
 10
0.162
 20
0.4838333333333333
 30
-1.52
 40
0.25
  1

  7
romans
 72
     2
 11
0.162
 21
0.4005
 31
-1.52
100
AcDbAttribute
280
     0
  2
DESC
 70
     0
 74
     1
280
     0
  0
ATTRIB
  5
A2B
330
A28
100
AcDbEntity
  8
Points-ELV
100
AcDbText
 10
0.353074434901121
 20
1.146925565098878
 30
-1.52
 40
0.25
  1
-1.52
 50
45.0
  7
romans
 11
0.412
 21
1.088
 31
-1.52
100
AcDbAttribute
280
     0
  2
ELEV
 70
     0
 74
     1
280
     0
  0
SEQEND
  5
A2C
330
A28
100
AcDbEntity
  8
0
  6
Continuous
  0
INSERT
  5
A2D
330
1F
100
AcDbEntity
  8
Points
  6
Continuous
100
AcDbBlockReference
 66
     1
  2
POINTS
 10
0.5320000000000001
 20
0.922
 30
-2.25
  0
ATTRIB
  5
A2E
330
A2D
100
AcDbEntity
  8
Points-NUM
100
AcDbText
 10
-0.1584761904761905
 20
1.067833333333333
 30
-2.25
 40
0.25
  1
27
  7
romans
 72
     2
 11
0.282
 21
0.9845
 31
-2.25
100
AcDbAttribute
280
     0
  2
PTNUM
 70
     0
 74
     1
280
     0
  0
ATTRIB
  5
A2F
330
A2D
100
AcDbEntity
  8
Points-TXT
100
AcDbText
 10
0.282
 20
0.6928333333333335
 30
-2.25
 40
0.25
  1

  7
romans
 72
     2
 11
0.282
 21
0.6095000000000001
 31
-2.25
100
AcDbAttribute
280
     0
  2
DESC
 70
     0
 74
     1
280
     0
  0
ATTRIB
  5
A30
330
A2D
100
AcDbEntity
  8
Points-ELV
100
AcDbText
 10
0.4730744349011211
 20
1.355925565098878
 30
-2.25
 40
0.25
  1
-2.25
 50
45.0
  7
romans
 11
0.5320000000000001
 21
1.296999999999999
 31
-2.25
100
AcDbAttribute
280
     0
  2
ELEV
 70
     0
 74
     1
280
     0
  0
SEQEND
  5
A31
330
A2D
100
AcDbEntity
  8
0
  6
Continuous
  0
INSERT
  5
A32
330
1F
100
AcDbEntity
  8
Points
  6
Continuous
100
AcDbBlockReference
 66
     1
  2
POINTS
 10
0.5620000000000001
 20
0.974
 30
-2.569999999999999
  0
ATTRIB
  5
A33
330
A32
100
AcDbEntity
  8
Points-NUM
100
AcDbText
 10
-0.1284761904761904
 20
1.119833333333333
 30
-2.569999999999999
 40
0.25
  1
28
  7
romans
 72
     2
 11
0.312
 21
1.036499999999999
 31
-2.569999999999999
100
AcDbAttribute
280
     0
  2
PTNUM
 70
     0
 74
     1
280
     0
  0
ATTRIB
  5
A34
330
A32
100
AcDbEntity
  8
Points-TXT
100
AcDbText
 10
0.312
 20
0.7448333333333334
 30
-2.569999999999999
 40
0.25
  1

  7
romans
 72
     2
 11
0.312
 21
0.6615000000000001
 31
-2.569999999999999
100
AcDbAttribute
280
     0
  2
DESC
 70
     0
 74
     1
280
     0
  0
ATTRIB
  5
A35
330
A32
100
AcDbEntity
  8
Points-ELV
100
AcDbText
 10
0.5030744349011212
 20
1.407925565098878
 30
-2.569999999999999
 40
0.25
  1
-2.57
 50
45.0
  7
romans
 11
0.5620000000000001
 21
1.348999999999999
 31
-2.569999999999999
100
AcDbAttribute
280
     0
  2
ELEV
 70
     0
 74
     1
280
     0
  0
SEQEND
  5
A36
330
A32
100
AcDbEntity
  8
0
  6
Continuous
  0
INSERT
  5
A37
330
1F
100
AcDbEntity
  8
Points
  6
Continuous
100
AcDbBlockReference
 66
     1
  2
POINTS
 10
0.11
 20
0.191
 30
-0.08
  0
ATTRIB
  5
A38
330
A37
100
AcDbEntity
  8
Points-NUM
100
AcDbText
 10
-0.5685714285714285
 20
0.3368333333333333
 30
-0.08
 40
0.25
  1
29
  7
romans
 72
     2
 11
-0.14
 21
0.2535
 31
-0.08
100
AcDbAttribute
280
     0
  2
PTNUM
 70
     0
 74
     1
280
     0
  0
ATTRIB
  5
A39
330
A37
100
AcDbEntity
  8
Points-TXT
100
AcDbText
 10
-0.14
 20
-0.0381666666666667
 30
-0.08
 40
0.25
  1

  7
romans
 72
     2
 11
-0.14
 21
-0.1215
 31
-0.08
100
AcDbAttribute
280
     0
  2
DESC
 70
     0
 74
     1
280
     0
  0
ATTRIB
  5
A3A
330
A37
100
AcDbEntity
  8
Points-ELV
100
AcDbText
 10
0.0510744349011211
 20
0.624925565098879
 30
-0.08
 40
0.25
  1
-0.08
 50
45.0
  7
romans
 11
0.11
 21
0.5660000000000001
 31
-0.08
100
AcDbAttribute
280
     0
  2
ELEV
 70
     0
 74
     1
280
     0
  0
SEQEND
  5
A3B
330
A37
100
AcDbEntity
  8
0
  6
Continuous
  0
INSERT
  5
A3C
330
1F
100
AcDbEntity
  8
Points
  6
Continuous
100
AcDbBlockReference
 66
     1
  2
POINTS
 10
2.078
 20
1.199999999999999
 30
-1.02
  0
ATTRIB
  5
A3D
330
A3C
100
AcDbEntity
  8
Points-NUM
100
AcDbText
 10
1.387523809523809
 20
1.345833333333333
 30
-1.02
 40
0.25
  1
30
  7
romans
 72
     2
 11
1.828
 21
1.262499999999999
 31
-1.02
100
AcDbAttribute
280
     0
  2
PTNUM
 70
     0
 74
     1
280
     0
  0
ATTRIB
  5
A3E
330
A3C
100
AcDbEntity
  8
Points-TXT
100
AcDbText
 10
1.828
 20
0.9708333333333333
 30
-1.02
 40
0.25
  1

  7
romans
 72
     2
 11
1.828
 21
0.8875
 31
-1.02
100
AcDbAttribute
280
     0
  2
DESC
 70
     0
 74
     1
280
     0
  0
ATTRIB
  5
A3F
330
A3C
100
AcDbEntity
  8
Points-ELV
100
AcDbText
 10
2.019074434901121
 20
1.633925565098878
 30
-1.02
 40
0.25
  1
-1.02
 50
45.0
  7
romans
 11
2.078
 21
1.575
 31
-1.02
100
AcDbAttribute
280
     0
  2
ELEV
 70
     0
 74
     1
280
     0
  0
SEQEND
  5
A40
330
A3C
100
AcDbEntity
  8
0
  6
Continuous
  0
INSERT
  5
A41
330
1F
100
AcDbEntity
  8
Points
  6
Continuous
100
AcDbBlockReference
 66
     1
  2
POINTS
 10
2.598
 20
1.5
 30
-1.239999999999999
  0
ATTRIB
  5
A42
330
A41
100
AcDbEntity
  8
Points-NUM
100
AcDbText
 10
1.978952380952381
 20
1.645833333333333
 30
-1.239999999999999
 40
0.25
  1
31
  7
romans
 72
     2
 11
2.348
 21
1.5625
 31
-1.239999999999999
100
AcDbAttribute
280
     0
  2
PTNUM
 70
     0
 74
     1
280
     0
  0
ATTRIB
  5
A43
330
A41
100
AcDbEntity
  8
Points-TXT
100
AcDbText
 10
2.348
 20
1.270833333333333
 30
-1.239999999999999
 40
0.25
  1

  7
romans
 72
     2
 11
2.348
 21
1.1875
 31
-1.239999999999999
100
AcDbAttribute
280
     0
  2
DESC
 70
     0
 74
     1
280
     0
  0
ATTRIB
  5
A44
330
A41
100
AcDbEntity
  8
Points-ELV
100
AcDbText
 10
2.539074434901121
 20
1.933925565098878
 30
-1.239999999999999
 40
0.25
  1
-1.24
 50
45.0
  7
romans
 11
2.598
 21
1.875
 31
-1.239999999999999
100
AcDbAttribute
280
     0
  2
ELEV
 70
     0
 74
     1
280
     0
  0
SEQEND
  5
A45
330
A41
100
AcDbEntity
  8
0
  6
Continuous
  0
INSERT
  5
A46
330
1F
100
AcDbEntity
  8
Points
  6
Continuous
100
AcDbBlockReference
 66
     1
  2
POINTS
 10
3.118
 20
1.8
 30
-1.479999999999999
  0
ATTRIB
  5
A47
330
A46
100
AcDbEntity
  8
Points-NUM
100
AcDbText
 10
2.427523809523809
 20
1.945833333333333
 30
-1.479999999999999
 40
0.25
  1
32
  7
romans
 72
     2
 11
2.868
 21
1.8625
 31
-1.479999999999999
100
AcDbAttribute
280
     0
  2
PTNUM
 70
     0
 74
     1
280
     0
  0
ATTRIB
  5
A48
330
A46
100
AcDbEntity
  8
Points-TXT
100
AcDbText
 10
2.868
 20
1.570833333333333
 30
-1.479999999999999
 40
0.25
  1

  7
romans
 72
     2
 11
2.868
 21
1.4875
 31
-1.479999999999999
100
AcDbAttribute
280
     0
  2
DESC
 70
     0
 74
     1
280
     0
  0
ATTRIB
  5
A49
330
A46
100
AcDbEntity
  8
Points-ELV
100
AcDbText
 10
3.059074434901121
 20
2.233925565098878
 30
-1.479999999999999
 40
0.25
  1
-1.48
 50
45.0
  7
romans
 11
3.118
 21
2.174999999999999
 31
-1.479999999999999
100
AcDbAttribute
280
     0
  2
ELEV
 70
     0
 74
     1
280
     0
  0
SEQEND
  5
A4A
330
A46
100
AcDbEntity
  8
0
  6
Continuous
  0
INSERT
  5
A4B
330
1F
100
AcDbEntity
  8
Points
  6
Continuous
100
AcDbBlockReference
 66
     1
  2
POINTS
 10
3.291
 20
1.9
 30
-1.78
  0
ATTRIB
  5
A4C
330
A4B
100
AcDbEntity
  8
Points-NUM
100
AcDbText
 10
2.600523809523809
 20
2.045833333333333
 30
-1.78
 40
0.25
  1
33
  7
romans
 72
     2
 11
3.041
 21
1.9625
 31
-1.78
100
AcDbAttribute
280
     0
  2
PTNUM
 70
     0
 74
     1
280
     0
  0
ATTRIB
  5
A4D
330
A4B
100
AcDbEntity
  8
Points-TXT
100
AcDbText
 10
3.041
 20
1.670833333333333
 30
-1.78
 40
0.25
  1

  7
romans
 72
     2
 11
3.041
 21
1.587499999999999
 31
-1.78
100
AcDbAttribute
280
     0
  2
DESC
 70
     0
 74
     1
280
     0
  0
ATTRIB
  5
A4E
330
A4B
100
AcDbEntity
  8
Points-ELV
100
AcDbText
 10
3.232074434901121
 20
2.333925565098879
 30
-1.78
 40
0.25
  1
-1.78
 50
45.0
  7
romans
 11
3.291
 21
2.274999999999999
 31
-1.78
100
AcDbAttribute
280
     0
  2
ELEV
 70
     0
 74
     1
280
     0
  0
SEQEND
  5
A4F
330
A4B
100
AcDbEntity
  8
0
  6
Continuous
  0
INSERT
  5
A50
330
1F
100
AcDbEntity
  8
Points
  6
Continuous
100
AcDbBlockReference
 66
     1
  2
POINTS
 10
3.463999999999999
 20
2.0
 30
-1.969999999999999
  0
ATTRIB
  5
A51
330
A50
100
AcDbEntity
  8
Points-NUM
100
AcDbText
 10
2.761619047619047
 20
2.145833333333333
 30
-1.969999999999999
 40
0.25
  1
34
  7
romans
 72
     2
 11
3.213999999999999
 21
2.0625
 31
-1.969999999999999
100
AcDbAttribute
280
     0
  2
PTNUM
 70
     0
 74
     1
280
     0
  0
ATTRIB
  5
A52
330
A50
100
AcDbEntity
  8
Points-TXT
100
AcDbText
 10
3.213999999999999
 20
1.770833333333333
 30
-1.969999999999999
 40
0.25
  1

  7
romans
 72
     2
 11
3.213999999999999
 21
1.6875
 31
-1.969999999999999
100
AcDbAttribute
280
     0
  2
DESC
 70
     0
 74
     1
280
     0
  0
ATTRIB
  5
A53
330
A50
100
AcDbEntity
  8
Points-ELV
100
AcDbText
 10
3.40507443490112
 20
2.433925565098879
 30
-1.969999999999999
 40
0.25
  1
-1.97
 50
45.0
  7
romans
 11
3.463999999999999
 21
2.375
 31
-1.969999999999999
100
AcDbAttribute
280
     0
  2
ELEV
 70
     0
 74
     1
280
     0
  0
SEQEND
  5
A54
330
A50
100
AcDbEntity
  8
0
  6
Continuous
  0
INSERT
  5
A55
330
1F
100
AcDbEntity
  8
Points
  6
Continuous
100
AcDbBlockReference
 66
     1
  2
POINTS
 10
1.125999999999999
 20
0.65
 30
-0.2
  0
ATTRIB
  5
A56
330
A55
100
AcDbEntity
  8
Points-NUM
100
AcDbText
 10
0.4355238095238095
 20
0.7958333333333334
 30
-0.2
 40
0.25
  1
35
  7
romans
 72
     2
 11
0.8759999999999998
 21
0.7125
 31
-0.2
100
AcDbAttribute
280
     0
  2
PTNUM
 70
     0
 74
     1
280
     0
  0
ATTRIB
  5
A57
330
A55
100
AcDbEntity
  8
Points-TXT
100
AcDbText
 10
0.8759999999999998
 20
0.4208333333333333
 30
-0.2
 40
0.25
  1

  7
romans
 72
     2
 11
0.8759999999999998
 21
0.3375
 31
-0.2
100
AcDbAttribute
280
     0
  2
DESC
 70
     0
 74
     1
280
     0
  0
ATTRIB
  5
A58
330
A55
100
AcDbEntity
  8
Points-ELV
100
AcDbText
 10
1.06707443490112
 20
1.083925565098878
 30
-0.2
 40
0.25
  1
-0.2
 50
45.0
  7
romans
 11
1.125999999999999
 21
1.024999999999999
 31
-0.2
100
AcDbAttribute
280
     0
  2
ELEV
 70
     0
 74
     1
280
     0
  0
SEQEND
  5
A59
330
A55
100
AcDbEntity
  8
0
  6
Continuous
  0
INSERT
  5
A5A
330
1F
100
AcDbEntity
  8
Points
  6
Continuous
100
AcDbBlockReference
 66
     1
  2
POINTS
 10
2.1
 20
0.0
 30
-0.6800000000000001
  0
ATTRIB
  5
A5B
330
A5A
100
AcDbEntity
  8
Points-NUM
100
AcDbText
 10
1.409523809523809
 20
0.1458333333333333
 30
-0.6800000000000001
 40
0.25
  1
36
  7
romans
 72
     2
 11
1.85
 21
0.0625
 31
-0.6800000000000001
100
AcDbAttribute
280
     0
  2
PTNUM
 70
     0
 74
     1
280
     0
  0
ATTRIB
  5
A5C
330
A5A
100
AcDbEntity
  8
Points-TXT
100
AcDbText
 10
1.85
 20
-0.2291666666666667
 30
-0.6800000000000001
 40
0.25
  1

  7
romans
 72
     2
 11
1.85
 21
-0.3125
 31
-0.6800000000000001
100
AcDbAttribute
280
     0
  2
DESC
 70
     0
 74
     1
280
     0
  0
ATTRIB
  5
A5D
330
A5A
100
AcDbEntity
  8
Points-ELV
100
AcDbText
 10
2.04107443490112
 20
0.433925565098879
 30
-0.6800000000000001
 40
0.25
  1
-0.68
 50
45.0
  7
romans
 11
2.1
 21
0.375
 31
-0.6800000000000001
100
AcDbAttribute
280
     0
  2
ELEV
 70
     0
 74
     1
280
     0
  0
SEQEND
  5
A5E
330
A5A
100
AcDbEntity
  8
0
  6
Continuous
  0
INSERT
  5
A5F
330
1F
100
AcDbEntity
  8
Points
  6
Continuous
100
AcDbBlockReference
 66
     1
  2
POINTS
 10
3.1
 20
0.0
 30
-1.11
  0
ATTRIB
  5
A60
330
A5F
100
AcDbEntity
  8
Points-NUM
100
AcDbText
 10
2.409523809523809
 20
0.1458333333333333
 30
-1.11
 40
0.25
  1
37
  7
romans
 72
     2
 11
2.85
 21
0.0625
 31
-1.11
100
AcDbAttribute
280
     0
  2
PTNUM
 70
     0
 74
     1
280
     0
  0
ATTRIB
  5
A61
330
A5F
100
AcDbEntity
  8
Points-TXT
100
AcDbText
 10
2.85
 20
-0.2291666666666667
 30
-1.11
 40
0.25
  1

  7
romans
 72
     2
 11
2.85
 21
-0.3125
 31
-1.11
100
AcDbAttribute
280
     0
  2
DESC
 70
     0
 74
     1
280
     0
  0
ATTRIB
  5
A62
330
A5F
100
AcDbEntity
  8
Points-ELV
100
AcDbText
 10
3.04107443490112
 20
0.433925565098879
 30
-1.11
 40
0.25
  1
-1.11
 50
45.0
  7
romans
 11
3.1
 21
0.375
 31
-1.11
100
AcDbAttribute
280
     0
  2
ELEV
 70
     0
 74
     1
280
     0
  0
SEQEND
  5
A63
330
A5F
100
AcDbEntity
  8
0
  6
Continuous
  0
INSERT
  5
A64
330
1F
100
AcDbEntity
  8
Points
  6
Continuous
100
AcDbBlockReference
 66
     1
  2
POINTS
 10
12.5
 20
0.0
 30
-0.6600000000000001
  0
ATTRIB
  5
A65
330
A64
100
AcDbEntity
  8
Points-NUM
100
AcDbText
 10
11.80952380952381
 20
0.1458333333333333
 30
-0.6600000000000001
 40
0.25
  1
38
  7
romans
 72
     2
 11
12.25
 21
0.0625
 31
-0.6600000000000001
100
AcDbAttribute
280
     0
  2
PTNUM
 70
     0
 74
     1
280
     0
  0
ATTRIB
  5
A66
330
A64
100
AcDbEntity
  8
Points-TXT
100
AcDbText
 10
12.25
 20
-0.2291666666666667
 30
-0.6600000000000001
 40
0.25
  1

  7
romans
 72
     2
 11
12.25
 21
-0.3125
 31
-0.6600000000000001
100
AcDbAttribute
280
     0
  2
DESC
 70
     0
 74
     1
280
     0
  0
ATTRIB
  5
A67
330
A64
100
AcDbEntity
  8
Points-ELV
100
AcDbText
 10
12.44107443490112
 20
0.433925565098879
 30
-0.6600000000000001
 40
0.25
  1
-0.66
 50
45.0
  7
romans
 11
12.5
 21
0.375
 31
-0.6600000000000001
100
AcDbAttribute
280
     0
  2
ELEV
 70
     0
 74
     1
280
     0
  0
SEQEND
  5
A68
330
A64
100
AcDbEntity
  8
0
  6
Continuous
  0
INSERT
  5
A69
330
1F
100
AcDbEntity
  8
Points
  6
Continuous
100
AcDbBlockReference
 66
     1
  2
POINTS
 10
16.5
 20
0.0
 30
-0.6600000000000001
  0
ATTRIB
  5
A6A
330
A69
100
AcDbEntity
  8
Points-NUM
100
AcDbText
 10
15.82142857142857
 20
0.1458333333333333
 30
-0.6600000000000001
 40
0.25
  1
39
  7
romans
 72
     2
 11
16.25
 21
0.0625
 31
-0.6600000000000001
100
AcDbAttribute
280
     0
  2
PTNUM
 70
     0
 74
     1
280
     0
  0
ATTRIB
  5
A6B
330
A69
100
AcDbEntity
  8
Points-TXT
100
AcDbText
 10
16.25
 20
-0.2291666666666667
 30
-0.6600000000000001
 40
0.25
  1

  7
romans
 72
     2
 11
16.25
 21
-0.3125
 31
-0.6600000000000001
100
AcDbAttribute
280
     0
  2
DESC
 70
     0
 74
     1
280
     0
  0
ATTRIB
  5
A6C
330
A69
100
AcDbEntity
  8
Points-ELV
100
AcDbText
 10
16.44107443490112
 20
0.433925565098879
 30
-0.6600000000000001
 40
0.25
  1
-0.66
 50
45.0
  7
romans
 11
16.5
 21
0.375
 31
-0.6600000000000001
100
AcDbAttribute
280
     0
  2
ELEV
 70
     0
 74
     1
280
     0
  0
SEQEND
  5
A6D
330
A69
100
AcDbEntity
  8
0
  6
Continuous
  0
INSERT
  5
A6E
330
1F
100
AcDbEntity
  8
Points
  6
Continuous
100
AcDbBlockReference
 66
     1
  2
POINTS
 10
8.528999999999999
 20
7.41
 30
-8.41
  0
ATTRIB
  5
A6F
330
A6E
100
AcDbEntity
  8
Points-NUM
100
AcDbText
 10
7.838523809523809
 20
7.555833333333333
 30
-8.41
 40
0.25
  1
40
  7
romans
 72
     2
 11
8.278999999999999
 21
7.4725
 31
-8.41
100
AcDbAttribute
280
     0
  2
PTNUM
 70
     0
 74
     1
280
     0
  0
ATTRIB
  5
A70
330
A6E
100
AcDbEntity
  8
Points-TXT
100
AcDbText
 10
8.278999999999999
 20
7.180833333333333
 30
-8.41
 40
0.25
  1

  7
romans
 72
     2
 11
8.278999999999999
 21
7.0975
 31
-8.41
100
AcDbAttribute
280
     0
  2
DESC
 70
     0
 74
     1
280
     0
  0
ATTRIB
  5
A71
330
A6E
100
AcDbEntity
  8
Points-ELV
100
AcDbText
 10
8.470074434901121
 20
7.843925565098879
 30
-8.41
 40
0.25
  1
-8.41
 50
45.0
  7
romans
 11
8.528999999999999
 21
7.785
 31
-8.41
100
AcDbAttribute
280
     0
  2
ELEV
 70
     0
 74
     1
280
     0
  0
SEQEND
  5
A72
330
A6E
100
AcDbEntity
  8
0
  6
Continuous
  0
INSERT
  5
A73
330
1F
100
AcDbEntity
  8
Points
  6
Continuous
100
AcDbBlockReference
 66
     1
  2
POINTS
 10
2.110999999999999
 20
1.157
 30
-5.62
  0
ATTRIB
  5
A74
330
A73
100
AcDbEntity
  8
Points-NUM
100
AcDbText
 10
1.49195238095238
 20
1.302833333333333
 30
-5.62
 40
0.25
  1
41
  7
romans
 72
     2
 11
1.860999999999999
 21
1.2195
 31
-5.62
100
AcDbAttribute
280
     0
  2
PTNUM
 70
     0
 74
     1
280
     0
  0
ATTRIB
  5
A75
330
A73
100
AcDbEntity
  8
Points-TXT
100
AcDbText
 10
1.860999999999999
 20
0.9278333333333334
 30
-5.62
 40
0.25
  1

  7
romans
 72
     2
 11
1.860999999999999
 21
0.8445
 31
-5.62
100
AcDbAttribute
280
     0
  2
DESC
 70
     0
 74
     1
280
     0
  0
ATTRIB
  5
A76
330
A73
100
AcDbEntity
  8
Points-ELV
100
AcDbText
 10
2.05207443490112
 20
1.590925565098878
 30
-5.62
 40
0.25
  1
-5.62
 50
45.0
  7
romans
 11
2.110999999999999
 21
1.531999999999999
 31
-5.62
100
AcDbAttribute
280
     0
  2
ELEV
 70
     0
 74
     1
280
     0
  0
SEQEND
  5
A77
330
A73
100
AcDbEntity
  8
0
  6
Continuous
  0
INSERT
  5
A78
330
1F
100
AcDbEntity
  8
Points
  6
Continuous
100
AcDbBlockReference
 66
     1
  2
POINTS
 10
2.197999999999999
 20
2.334999999999999
 30
-5.32
  0
ATTRIB
  5
A79
330
A78
100
AcDbEntity
  8
Points-NUM
100
AcDbText
 10
1.507523809523809
 20
2.480833333333333
 30
-5.32
 40
0.25
  1
42
  7
romans
 72
     2
 11
1.948
 21
2.397499999999999
 31
-5.32
100
AcDbAttribute
280
     0
  2
PTNUM
 70
     0
 74
     1
280
     0
  0
ATTRIB
  5
A7A
330
A78
100
AcDbEntity
  8
Points-TXT
100
AcDbText
 10
1.948
 20
2.105833333333333
 30
-5.32
 40
0.25
  1

  7
romans
 72
     2
 11
1.948
 21
2.022499999999999
 31
-5.32
100
AcDbAttribute
280
     0
  2
DESC
 70
     0
 74
     1
280
     0
  0
ATTRIB
  5
A7B
330
A78
100
AcDbEntity
  8
Points-ELV
100
AcDbText
 10
2.13907443490112
 20
2.768925565098879
 30
-5.32
 40
0.25
  1
-5.32
 50
45.0
  7
romans
 11
2.197999999999999
 21
2.709999999999999
 31
-5.32
100
AcDbAttribute
280
     0
  2
ELEV
 70
     0
 74
     1
280
     0
  0
SEQEND
  5
A7C
330
A78
100
AcDbEntity
  8
0
  6
Continuous
  0
INSERT
  5
A7D
330
1F
100
AcDbEntity
  8
Points
  6
Continuous
100
AcDbBlockReference
 66
     1
  2
POINTS
 10
7.087
 20
6.258999999999999
 30
-4.169999999999999
  0
ATTRIB
  5
A7E
330
A7D
100
AcDbEntity
  8
Points-NUM
100
AcDbText
 10
6.396523809523809
 20
6.404833333333333
 30
-4.169999999999999
 40
0.25
  1
43
  7
romans
 72
     2
 11
6.837
 21
6.3215
 31
-4.169999999999999
100
AcDbAttribute
280
     0
  2
PTNUM
 70
     0
 74
     1
280
     0
  0
ATTRIB
  5
A7F
330
A7D
100
AcDbEntity
  8
Points-TXT
100
AcDbText
 10
6.837
 20
6.029833333333333
 30
-4.169999999999999
 40
0.25
  1

  7
romans
 72
     2
 11
6.837
 21
5.9465
 31
-4.169999999999999
100
AcDbAttribute
280
     0
  2
DESC
 70
     0
 74
     1
280
     0
  0
ATTRIB
  5
A80
330
A7D
100
AcDbEntity
  8
Points-ELV
100
AcDbText
 10
7.028074434901121
 20
6.692925565098878
 30
-4.169999999999999
 40
0.25
  1
-4.17
 50
45.0
  7
romans
 11
7.087
 21
6.633999999999999
 31
-4.169999999999999
100
AcDbAttribute
280
     0
  2
ELEV
 70
     0
 74
     1
280
     0
  0
SEQEND
  5
A81
330
A7D
100
AcDbEntity
  8
0
  6
Continuous
  0
INSERT
  5
A82
330
1F
100
AcDbEntity
  8
Points
  6
Continuous
100
AcDbBlockReference
 66
     1
  2
POINTS
 10
4.633999999999999
 20
-4.097999999999999
 30
-1.84
  0
ATTRIB
  5
A83
330
A82
100
AcDbEntity
  8
Points-NUM
100
AcDbText
 10
3.931619047619046
 20
-3.952166666666666
 30
-1.84
 40
0.25
  1
44
  7
romans
 72
     2
 11
4.383999999999999
 21
-4.035499999999999
 31
-1.84
100
AcDbAttribute
280
     0
  2
PTNUM
 70
     0
 74
     1
280
     0
  0
ATTRIB
  5
A84
330
A82
100
AcDbEntity
  8
Points-TXT
100
AcDbText
 10
4.383999999999999
 20
-4.327166666666666
 30
-1.84
 40
0.25
  1

  7
romans
 72
     2
 11
4.383999999999999
 21
-4.410499999999999
 31
-1.84
100
AcDbAttribute
280
     0
  2
DESC
 70
     0
 74
     1
280
     0
  0
ATTRIB
  5
A85
330
A82
100
AcDbEntity
  8
Points-ELV
100
AcDbText
 10
4.57507443490112
 20
-3.664074434901121
 30
-1.84
 40
0.25
  1
-1.84
 50
45.0
  7
romans
 11
4.633999999999999
 21
-3.723
 31
-1.84
100
AcDbAttribute
280
     0
  2
ELEV
 70
     0
 74
     1
280
     0
  0
SEQEND
  5
A86
330
A82
100
AcDbEntity
  8
0
  6
Continuous
  0
INSERT
  5
A87
330
1F
100
AcDbEntity
  8
Points
  6
Continuous
100
AcDbBlockReference
 66
     1
  2
POINTS
 10
0.094
 20
-0.135
 30
-0.17
  0
ATTRIB
  5
A88
330
A87
100
AcDbEntity
  8
Points-NUM
100
AcDbText
 10
-0.5964761904761904
 20
0.0108333333333333
 30
-0.17
 40
0.25
  1
45
  7
romans
 72
     2
 11
-0.156
 21
-0.0725
 31
-0.17
100
AcDbAttribute
280
     0
  2
PTNUM
 70
     0
 74
     1
280
     0
  0
ATTRIB
  5
A89
330
A87
100
AcDbEntity
  8
Points-TXT
100
AcDbText
 10
-0.156
 20
-0.3641666666666667
 30
-0.17
 40
0.25
  1

  7
romans
 72
     2
 11
-0.156
 21
-0.4475
 31
-0.17
100
AcDbAttribute
280
     0
  2
DESC
 70
     0
 74
     1
280
     0
  0
ATTRIB
  5
A8A
330
A87
100
AcDbEntity
  8
Points-ELV
100
AcDbText
 10
0.0350744349011211
 20
0.2989255650988789
 30
-0.17
 40
0.25
  1
-0.17
 50
45.0
  7
romans
 11
0.094
 21
0.24
 31
-0.17
100
AcDbAttribute
280
     0
  2
ELEV
 70
     0
 74
     1
280
     0
  0
SEQEND
  5
A8B
330
A87
100
AcDbEntity
  8
0
  6
Continuous
  0
INSERT
  5
A8C
330
1F
100
AcDbEntity
  8
Points
  6
Continuous
100
AcDbBlockReference
 66
     1
  2
POINTS
 10
3.493
 20
-2.016999999999999
 30
-0.69
  0
ATTRIB
  5
A8D
330
A8C
100
AcDbEntity
  8
Points-NUM
100
AcDbText
 10
2.80252380952381
 20
-1.871166666666666
 30
-0.69
 40
0.25
  1
46
  7
romans
 72
     2
 11
3.243
 21
-1.954499999999999
 31
-0.69
100
AcDbAttribute
280
     0
  2
PTNUM
 70
     0
 74
     1
280
     0
  0
ATTRIB
  5
A8E
330
A8C
100
AcDbEntity
  8
Points-TXT
100
AcDbText
 10
3.243
 20
-2.246166666666666
 30
-0.69
 40
0.25
  1

  7
romans
 72
     2
 11
3.243
 21
-2.329499999999999
 31
-0.69
100
AcDbAttribute
280
     0
  2
DESC
 70
     0
 74
     1
280
     0
  0
ATTRIB
  5
A8F
330
A8C
100
AcDbEntity
  8
Points-ELV
100
AcDbText
 10
3.434074434901121
 20
-1.583074434901121
 30
-0.69
 40
0.25
  1
-0.69
 50
45.0
  7
romans
 11
3.493
 21
-1.641999999999999
 31
-0.69
100
AcDbAttribute
280
     0
  2
ELEV
 70
     0
 74
     1
280
     0
  0
SEQEND
  5
A90
330
A8C
100
AcDbEntity
  8
0
  6
Continuous
  0
INSERT
  5
A91
330
1F
100
AcDbEntity
  8
Points
  6
Continuous
100
AcDbBlockReference
 66
     1
  2
POINTS
 10
5.537999999999999
 20
-3.197999999999999
 30
-0.89
  0
ATTRIB
  5
A92
330
A91
100
AcDbEntity
  8
Points-NUM
100
AcDbText
 10
4.847523809523808
 20
-3.052166666666666
 30
-0.89
 40
0.25
  1
47
  7
romans
 72
     2
 11
5.287999999999999
 21
-3.135499999999999
 31
-0.89
100
AcDbAttribute
280
     0
  2
PTNUM
 70
     0
 74
     1
280
     0
  0
ATTRIB
  5
A93
330
A91
100
AcDbEntity
  8
Points-TXT
100
AcDbText
 10
5.287999999999999
 20
-3.427166666666666
 30
-0.89
 40
0.25
  1

  7
romans
 72
     2
 11
5.287999999999999
 21
-3.510499999999999
 31
-0.89
100
AcDbAttribute
280
     0
  2
DESC
 70
     0
 74
     1
280
     0
  0
ATTRIB
  5
A94
330
A91
100
AcDbEntity
  8
Points-ELV
100
AcDbText
 10
5.47907443490112
 20
-2.76407443490112
 30
-0.89
 40
0.25
  1
-0.89
 50
45.0
  7
romans
 11
5.537999999999999
 21
-2.823
 31
-0.89
100
AcDbAttribute
280
     0
  2
ELEV
 70
     0
 74
     1
280
     0
  0
SEQEND
  5
A95
330
A91
100
AcDbEntity
  8
0
  6
Continuous
  0
INSERT
  5
A96
330
1F
100
AcDbEntity
  8
Points
  6
Continuous
100
AcDbBlockReference
 66
     1
  2
POINTS
 10
3.453
 20
-1.993
 30
-1.09
  0
ATTRIB
  5
A97
330
A96
100
AcDbEntity
  8
Points-NUM
100
AcDbText
 10
2.76252380952381
 20
-1.847166666666666
 30
-1.09
 40
0.25
  1
48
  7
romans
 72
     2
 11
3.203
 21
-1.9305
 31
-1.09
100
AcDbAttribute
280
     0
  2
PTNUM
 70
     0
 74
     1
280
     0
  0
ATTRIB
  5
A98
330
A96
100
AcDbEntity
  8
Points-TXT
100
AcDbText
 10
3.203
 20
-2.222166666666666
 30
-1.09
 40
0.25
  1

  7
romans
 72
     2
 11
3.203
 21
-2.305499999999999
 31
-1.09
100
AcDbAttribute
280
     0
  2
DESC
 70
     0
 74
     1
280
     0
  0
ATTRIB
  5
A99
330
A96
100
AcDbEntity
  8
Points-ELV
100
AcDbText
 10
3.394074434901121
 20
-1.559074434901121
 30
-1.09
 40
0.25
  1
-1.09
 50
45.0
  7
romans
 11
3.453
 21
-1.618
 31
-1.09
100
AcDbAttribute
280
     0
  2
ELEV
 70
     0
 74
     1
280
     0
  0
SEQEND
  5
A9A
330
A96
100
AcDbEntity
  8
0
  6
Continuous
  0
INSERT
  5
A9B
330
1F
100
AcDbEntity
  8
Points
  6
Continuous
100
AcDbBlockReference
 66
     1
  2
POINTS
 10
2.683
 20
-1.549
 30
-1.0
  0
ATTRIB
  5
A9C
330
A9B
100
AcDbEntity
  8
Points-NUM
100
AcDbText
 10
2.004428571428571
 20
-1.403166666666666
 30
-1.0
 40
0.25
  1
49
  7
romans
 72
     2
 11
2.433
 21
-1.486499999999999
 31
-1.0
100
AcDbAttribute
280
     0
  2
PTNUM
 70
     0
 74
     1
280
     0
  0
ATTRIB
  5
A9D
330
A9B
100
AcDbEntity
  8
Points-TXT
100
AcDbText
 10
2.433
 20
-1.778166666666666
 30
-1.0
 40
0.25
  1

  7
romans
 72
     2
 11
2.433
 21
-1.861499999999999
 31
-1.0
100
AcDbAttribute
280
     0
  2
DESC
 70
     0
 74
     1
280
     0
  0
ATTRIB
  5
A9E
330
A9B
100
AcDbEntity
  8
Points-ELV
100
AcDbText
 10
2.624074434901121
 20
-1.115074434901121
 30
-1.0
 40
0.25
  1
-1
 50
45.0
  7
romans
 11
2.683
 21
-1.174
 31
-1.0
100
AcDbAttribute
280
     0
  2
ELEV
 70
     0
 74
     1
280
     0
  0
SEQEND
  5
A9F
330
A9B
100
AcDbEntity
  8
0
  6
Continuous
  0
INSERT
  5
AA0
330
1F
100
AcDbEntity
  8
Points
  6
Continuous
100
AcDbBlockReference
 66
     1
  2
POINTS
 10
3.166999999999999
 20
-1.828
 30
-0.8
  0
ATTRIB
  5
AA1
330
AA0
100
AcDbEntity
  8
Points-NUM
100
AcDbText
 10
2.476523809523809
 20
-1.682166666666666
 30
-0.8
 40
0.25
  1
50
  7
romans
 72
     2
 11
2.916999999999999
 21
-1.7655
 31
-0.8
100
AcDbAttribute
280
     0
  2
PTNUM
 70
     0
 74
     1
280
     0
  0
ATTRIB
  5
AA2
330
AA0
100
AcDbEntity
  8
Points-TXT
100
AcDbText
 10
2.916999999999999
 20
-2.057166666666666
 30
-0.8
 40
0.25
  1

  7
romans
 72
     2
 11
2.916999999999999
 21
-2.140499999999999
 31
-0.8
100
AcDbAttribute
280
     0
  2
DESC
 70
     0
 74
     1
280
     0
  0
ATTRIB
  5
AA3
330
AA0
100
AcDbEntity
  8
Points-ELV
100
AcDbText
 10
3.10807443490112
 20
-1.394074434901121
 30
-0.8
 40
0.25
  1
-0.8
 50
45.0
  7
romans
 11
3.166999999999999
 21
-1.453
 31
-0.8
100
AcDbAttribute
280
     0
  2
ELEV
 70
     0
 74
     1
280
     0
  0
SEQEND
  5
AA4
330
AA0
100
AcDbEntity
  8
0
  6
Continuous
  0
INSERT
  5
AA5
330
1F
100
AcDbEntity
  8
Points
  6
Continuous
100
AcDbBlockReference
 66
     1
  2
POINTS
 10
11.118
 20
-6.418999999999999
 30
-0.71
  0
ATTRIB
  5
AA6
330
AA5
100
AcDbEntity
  8
Points-NUM
100
AcDbText
 10
10.49895238095238
 20
-6.273166666666666
 30
-0.71
 40
0.25
  1
51
  7
romans
 72
     2
 11
10.868
 21
-6.356499999999999
 31
-0.71
100
AcDbAttribute
280
     0
  2
PTNUM
 70
     0
 74
     1
280
     0
  0
ATTRIB
  5
AA7
330
AA5
100
AcDbEntity
  8
Points-TXT
100
AcDbText
 10
10.868
 20
-6.648166666666666
 30
-0.71
 40
0.25
  1

  7
romans
 72
     2
 11
10.868
 21
-6.731499999999999
 31
-0.71
100
AcDbAttribute
280
     0
  2
DESC
 70
     0
 74
     1
280
     0
  0
ATTRIB
  5
AA8
330
AA5
100
AcDbEntity
  8
Points-ELV
100
AcDbText
 10
11.05907443490112
 20
-5.98507443490112
 30
-0.71
 40
0.25
  1
-0.71
 50
45.0
  7
romans
 11
11.118
 21
-6.043999999999999
 31
-0.71
100
AcDbAttribute
280
     0
  2
ELEV
 70
     0
 74
     1
280
     0
  0
SEQEND
  5
AA9
330
AA5
100
AcDbEntity
  8
0
  6
Continuous
  0
INSERT
  5
AAA
330
1F
100
AcDbEntity
  8
Points
  6
Continuous
100
AcDbBlockReference
 66
     1
  2
POINTS
 10
12.278
 20
-7.088999999999999
 30
-0.09
  0
ATTRIB
  5
AAB
330
AAA
100
AcDbEntity
  8
Points-NUM
100
AcDbText
 10
11.58752380952381
 20
-6.943166666666667
 30
-0.09
 40
0.25
  1
52
  7
romans
 72
     2
 11
12.028
 21
-7.0265
 31
-0.09
100
AcDbAttribute
280
     0
  2
PTNUM
 70
     0
 74
     1
280
     0
  0
ATTRIB
  5
AAC
330
AAA
100
AcDbEntity
  8
Points-TXT
100
AcDbText
 10
12.028
 20
-7.318166666666667
 30
-0.09
 40
0.25
  1

  7
romans
 72
     2
 11
12.028
 21
-7.4015
 31
-0.09
100
AcDbAttribute
280
     0
  2
DESC
 70
     0
 74
     1
280
     0
  0
ATTRIB
  5
AAD
330
AAA
100
AcDbEntity
  8
Points-ELV
100
AcDbText
 10
12.21907443490112
 20
-6.65507443490112
 30
-0.09
 40
0.25
  1
-0.09
 50
45.0
  7
romans
 11
12.278
 21
-6.713999999999999
 31
-0.09
100
AcDbAttribute
280
     0
  2
ELEV
 70
     0
 74
     1
280
     0
  0
SEQEND
  5
AAE
330
AAA
100
AcDbEntity
  8
0
  6
Continuous
  0
INSERT
  5
AAF
330
1F
100
AcDbEntity
  8
Points
  6
Continuous
100
AcDbBlockReference
 66
     1
  2
POINTS
 10
2.084999999999999
 20
-1.203999999999999
 30
0.41
  0
ATTRIB
  5
AB0
330
AAF
100
AcDbEntity
  8
Points-NUM
100
AcDbText
 10
1.394523809523809
 20
-1.058166666666666
 30
0.41
 40
0.25
  1
53
  7
romans
 72
     2
 11
1.834999999999999
 21
-1.141499999999999
 31
0.41
100
AcDbAttribute
280
     0
  2
PTNUM
 70
     0
 74
     1
280
     0
  0
ATTRIB
  5
AB1
330
AAF
100
AcDbEntity
  8
Points-TXT
100
AcDbText
 10
1.834999999999999
 20
-1.433166666666666
 30
0.41
 40
0.25
  1

  7
romans
 72
     2
 11
1.834999999999999
 21
-1.516499999999999
 31
0.41
100
AcDbAttribute
280
     0
  2
DESC
 70
     0
 74
     1
280
     0
  0
ATTRIB
  5
AB2
330
AAF
100
AcDbEntity
  8
Points-ELV
100
AcDbText
 10
2.02607443490112
 20
-0.7700744349011212
 30
0.41
 40
0.25
  1
0.41
 50
45.0
  7
romans
 11
2.084999999999999
 21
-0.829
 31
0.41
100
AcDbAttribute
280
     0
  2
ELEV
 70
     0
 74
     1
280
     0
  0
SEQEND
  5
AB3
330
AAF
100
AcDbEntity
  8
0
  6
Continuous
  0
INSERT
  5
AB4
330
1F
100
AcDbEntity
  8
Points
  6
Continuous
100
AcDbBlockReference
 66
     1
  2
POINTS
 10
0.285
 20
-0.493
 30
-0.9599999999999999
  0
ATTRIB
  5
AB5
330
AB4
100
AcDbEntity
  8
Points-NUM
100
AcDbText
 10
-0.4173809523809524
 20
-0.3471666666666667
 30
-0.9599999999999999
 40
0.25
  1
54
  7
romans
 72
     2
 11
0.035
 21
-0.4305
 31
-0.9599999999999999
100
AcDbAttribute
280
     0
  2
PTNUM
 70
     0
 74
     1
280
     0
  0
ATTRIB
  5
AB6
330
AB4
100
AcDbEntity
  8
Points-TXT
100
AcDbText
 10
0.035
 20
-0.7221666666666666
 30
-0.9599999999999999
 40
0.25
  1

  7
romans
 72
     2
 11
0.035
 21
-0.8054999999999999
 31
-0.9599999999999999
100
AcDbAttribute
280
     0
  2
DESC
 70
     0
 74
     1
280
     0
  0
ATTRIB
  5
AB7
330
AB4
100
AcDbEntity
  8
Points-ELV
100
AcDbText
 10
0.226074434901121
 20
-0.0590744349011211
 30
-0.9599999999999999
 40
0.25
  1
-0.96
 50
45.0
  7
romans
 11
0.285
 21
-0.118
 31
-0.9599999999999999
100
AcDbAttribute
280
     0
  2
ELEV
 70
     0
 74
     1
280
     0
  0
SEQEND
  5
AB8
330
AB4
100
AcDbEntity
  8
0
  6
Continuous
  0
INSERT
  5
AB9
330
1F
100
AcDbEntity
  8
Points
  6
Continuous
100
AcDbBlockReference
 66
     1
  2
POINTS
 10
0.324
 20
-0.5610000000000001
 30
-0.7700000000000001
  0
ATTRIB
  5
ABA
330
AB9
100
AcDbEntity
  8
Points-NUM
100
AcDbText
 10
-0.3664761904761904
 20
-0.4151666666666668
 30
-0.7700000000000001
 40
0.25
  1
55
  7
romans
 72
     2
 11
0.074
 21
-0.4985000000000001
 31
-0.7700000000000001
100
AcDbAttribute
280
     0
  2
PTNUM
 70
     0
 74
     1
280
     0
  0
ATTRIB
  5
ABB
330
AB9
100
AcDbEntity
  8
Points-TXT
100
AcDbText
 10
0.074
 20
-0.7901666666666668
 30
-0.7700000000000001
 40
0.25
  1

  7
romans
 72
     2
 11
0.074
 21
-0.8735000000000001
 31
-0.7700000000000001
100
AcDbAttribute
280
     0
  2
DESC
 70
     0
 74
     1
280
     0
  0
ATTRIB
  5
ABC
330
AB9
100
AcDbEntity
  8
Points-ELV
100
AcDbText
 10
0.2650744349011211
 20
-0.1270744349011211
 30
-0.7700000000000001
 40
0.25
  1
-0.77
 50
45.0
  7
romans
 11
0.324
 21
-0.186
 31
-0.7700000000000001
100
AcDbAttribute
280
     0
  2
ELEV
 70
     0
 74
     1
280
     0
  0
SEQEND
  5
ABD
330
AB9
100
AcDbEntity
  8
0
  6
Continuous
  0
INSERT
  5
ABE
330
1F
100
AcDbEntity
  8
Points
  6
Continuous
100
AcDbBlockReference
 66
     1
  2
POINTS
 10
1.344999999999999
 20
-2.329
 30
-0.33
  0
ATTRIB
  5
ABF
330
ABE
100
AcDbEntity
  8
Points-NUM
100
AcDbText
 10
0.6545238095238095
 20
-2.183166666666666
 30
-0.33
 40
0.25
  1
56
  7
romans
 72
     2
 11
1.094999999999999
 21
-2.2665
 31
-0.33
100
AcDbAttribute
280
     0
  2
PTNUM
 70
     0
 74
     1
280
     0
  0
ATTRIB
  5
AC0
330
ABE
100
AcDbEntity
  8
Points-TXT
100
AcDbText
 10
1.094999999999999
 20
-2.558166666666666
 30
-0.33
 40
0.25
  1

  7
romans
 72
     2
 11
1.094999999999999
 21
-2.6415
 31
-0.33
100
AcDbAttribute
280
     0
  2
DESC
 70
     0
 74
     1
280
     0
  0
ATTRIB
  5
AC1
330
ABE
100
AcDbEntity
  8
Points-ELV
100
AcDbText
 10
1.286074434901121
 20
-1.89507443490112
 30
-0.33
 40
0.25
  1
-0.33
 50
45.0
  7
romans
 11
1.344999999999999
 21
-1.953999999999999
 31
-0.33
100
AcDbAttribute
280
     0
  2
ELEV
 70
     0
 74
     1
280
     0
  0
SEQEND
  5
AC2
330
ABE
100
AcDbEntity
  8
0
  6
Continuous
  0
INSERT
  5
AC3
330
1F
100
AcDbEntity
  8
Points
  6
Continuous
100
AcDbBlockReference
 66
     1
  2
POINTS
 10
2.141999999999999
 20
-3.709999999999999
 30
-0.51
  0
ATTRIB
  5
AC4
330
AC3
100
AcDbEntity
  8
Points-NUM
100
AcDbText
 10
1.451523809523809
 20
-3.564166666666666
 30
-0.51
 40
0.25
  1
57
  7
romans
 72
     2
 11
1.891999999999999
 21
-3.647499999999999
 31
-0.51
100
AcDbAttribute
280
     0
  2
PTNUM
 70
     0
 74
     1
280
     0
  0
ATTRIB
  5
AC5
330
AC3
100
AcDbEntity
  8
Points-TXT
100
AcDbText
 10
1.891999999999999
 20
-3.939166666666666
 30
-0.51
 40
0.25
  1

  7
romans
 72
     2
 11
1.891999999999999
 21
-4.022499999999999
 31
-0.51
100
AcDbAttribute
280
     0
  2
DESC
 70
     0
 74
     1
280
     0
  0
ATTRIB
  5
AC6
330
AC3
100
AcDbEntity
  8
Points-ELV
100
AcDbText
 10
2.08307443490112
 20
-3.27607443490112
 30
-0.51
 40
0.25
  1
-0.51
 50
45.0
  7
romans
 11
2.141999999999999
 21
-3.334999999999999
 31
-0.51
100
AcDbAttribute
280
     0
  2
ELEV
 70
     0
 74
     1
280
     0
  0
SEQEND
  5
AC7
330
AC3
100
AcDbEntity
  8
0
  6
Continuous
  0
INSERT
  5
AC8
330
1F
100
AcDbEntity
  8
Points
  6
Continuous
100
AcDbBlockReference
 66
     1
  2
POINTS
 10
4.235
 20
-7.336
 30
-0.84
  0
ATTRIB
  5
AC9
330
AC8
100
AcDbEntity
  8
Points-NUM
100
AcDbText
 10
3.544523809523809
 20
-7.190166666666667
 30
-0.84
 40
0.25
  1
58
  7
romans
 72
     2
 11
3.984999999999999
 21
-7.2735
 31
-0.84
100
AcDbAttribute
280
     0
  2
PTNUM
 70
     0
 74
     1
280
     0
  0
ATTRIB
  5
ACA
330
AC8
100
AcDbEntity
  8
Points-TXT
100
AcDbText
 10
3.984999999999999
 20
-7.565166666666667
 30
-0.84
 40
0.25
  1

  7
romans
 72
     2
 11
3.984999999999999
 21
-7.6485
 31
-0.84
100
AcDbAttribute
280
     0
  2
DESC
 70
     0
 74
     1
280
     0
  0
ATTRIB
  5
ACB
330
AC8
100
AcDbEntity
  8
Points-ELV
100
AcDbText
 10
4.176074434901121
 20
-6.902074434901121
 30
-0.84
 40
0.25
  1
-0.84
 50
45.0
  7
romans
 11
4.235
 21
-6.961
 31
-0.84
100
AcDbAttribute
280
     0
  2
ELEV
 70
     0
 74
     1
280
     0
  0
SEQEND
  5
ACC
330
AC8
100
AcDbEntity
  8
0
  6
Continuous
  0
INSERT
  5
ACD
330
1F
100
AcDbEntity
  8
Points
  6
Continuous
100
AcDbBlockReference
 66
     1
  2
POINTS
 10
0.754
 20
-1.306999999999999
 30
-0.61
  0
ATTRIB
  5
ACE
330
ACD
100
AcDbEntity
  8
Points-NUM
100
AcDbText
 10
0.0754285714285715
 20
-1.161166666666666
 30
-0.61
 40
0.25
  1
59
  7
romans
 72
     2
 11
0.504
 21
-1.244499999999999
 31
-0.61
100
AcDbAttribute
280
     0
  2
PTNUM
 70
     0
 74
     1
280
     0
  0
ATTRIB
  5
ACF
330
ACD
100
AcDbEntity
  8
Points-TXT
100
AcDbText
 10
0.504
 20
-1.536166666666666
 30
-0.61
 40
0.25
  1

  7
romans
 72
     2
 11
0.504
 21
-1.619499999999999
 31
-0.61
100
AcDbAttribute
280
     0
  2
DESC
 70
     0
 74
     1
280
     0
  0
ATTRIB
  5
AD0
330
ACD
100
AcDbEntity
  8
Points-ELV
100
AcDbText
 10
0.6950744349011212
 20
-0.873074434901121
 30
-0.61
 40
0.25
  1
-0.61
 50
45.0
  7
romans
 11
0.754
 21
-0.932
 31
-0.61
100
AcDbAttribute
280
     0
  2
ELEV
 70
     0
 74
     1
280
     0
  0
SEQEND
  5
AD1
330
ACD
100
AcDbEntity
  8
0
  6
Continuous
  0
INSERT
  5
AD2
330
1F
100
AcDbEntity
  8
Points
  6
Continuous
100
AcDbBlockReference
 66
     1
  2
POINTS
 10
8.125
 20
-14.072
 30
0.01
  0
ATTRIB
  5
AD3
330
AD2
100
AcDbEntity
  8
Points-NUM
100
AcDbText
 10
7.434523809523809
 20
-13.92616666666666
 30
0.01
 40
0.25
  1
60
  7
romans
 72
     2
 11
7.875
 21
-14.0095
 31
0.01
100
AcDbAttribute
280
     0
  2
PTNUM
 70
     0
 74
     1
280
     0
  0
ATTRIB
  5
AD4
330
AD2
100
AcDbEntity
  8
Points-TXT
100
AcDbText
 10
7.875
 20
-14.30116666666666
 30
0.01
 40
0.25
  1

  7
romans
 72
     2
 11
7.875
 21
-14.3845
 31
0.01
100
AcDbAttribute
280
     0
  2
DESC
 70
     0
 74
     1
280
     0
  0
ATTRIB
  5
AD5
330
AD2
100
AcDbEntity
  8
Points-ELV
100
AcDbText
 10
8.066074434901121
 20
-13.63807443490112
 30
0.01
 40
0.25
  1
0.01
 50
45.0
  7
romans
 11
8.125
 21
-13.697
 31
0.01
100
AcDbAttribute
280
     0
  2
ELEV
 70
     0
 74
     1
280
     0
  0
SEQEND
  5
AD6
330
AD2
100
AcDbEntity
  8
0
  6
Continuous
  0
INSERT
  5
AD7
330
1F
100
AcDbEntity
  8
Points
  6
Continuous
100
AcDbBlockReference
 66
     1
  2
POINTS
 10
10.153
 20
-15.631
 30
0.03
  0
ATTRIB
  5
AD8
330
AD7
100
AcDbEntity
  8
Points-NUM
100
AcDbText
 10
9.53395238095238
 20
-15.48516666666666
 30
0.03
 40
0.25
  1
61
  7
romans
 72
     2
 11
9.902999999999998
 21
-15.5685
 31
0.03
100
AcDbAttribute
280
     0
  2
PTNUM
 70
     0
 74
     1
280
     0
  0
ATTRIB
  5
AD9
330
AD7
100
AcDbEntity
  8
Points-TXT
100
AcDbText
 10
9.902999999999998
 20
-15.86016666666666
 30
0.03
 40
0.25
  1

  7
romans
 72
     2
 11
9.902999999999998
 21
-15.9435
 31
0.03
100
AcDbAttribute
280
     0
  2
DESC
 70
     0
 74
     1
280
     0
  0
ATTRIB
  5
ADA
330
AD7
100
AcDbEntity
  8
Points-ELV
100
AcDbText
 10
10.09407443490112
 20
-15.19707443490112
 30
0.03
 40
0.25
  1
0.03
 50
45.0
  7
romans
 11
10.153
 21
-15.256
 31
0.03
100
AcDbAttribute
280
     0
  2
ELEV
 70
     0
 74
     1
280
     0
  0
SEQEND
  5
ADB
330
AD7
100
AcDbEntity
  8
0
  6
Continuous
  0
INSERT
  5
ADC
330
1F
100
AcDbEntity
  8
Points
  6
Continuous
100
AcDbBlockReference
 66
     1
  2
POINTS
 10
5.865
 20
-6.746
 30
1.02
  0
ATTRIB
  5
ADD
330
ADC
100
AcDbEntity
  8
Points-NUM
100
AcDbText
 10
5.174523809523809
 20
-6.600166666666667
 30
1.02
 40
0.25
  1
62
  7
romans
 72
     2
 11
5.615
 21
-6.6835
 31
1.02
100
AcDbAttribute
280
     0
  2
PTNUM
 70
     0
 74
     1
280
     0
  0
ATTRIB
  5
ADE
330
ADC
100
AcDbEntity
  8
Points-TXT
100
AcDbText
 10
5.615
 20
-6.975166666666667
 30
1.02
 40
0.25
  1

  7
romans
 72
     2
 11
5.615
 21
-7.0585
 31
1.02
100
AcDbAttribute
280
     0
  2
DESC
 70
     0
 74
     1
280
     0
  0
ATTRIB
  5
ADF
330
ADC
100
AcDbEntity
  8
Points-ELV
100
AcDbText
 10
5.806074434901121
 20
-6.312074434901121
 30
1.02
 40
0.25
  1
1.02
 50
45.0
  7
romans
 11
5.865
 21
-6.371
 31
1.02
100
AcDbAttribute
280
     0
  2
ELEV
 70
     0
 74
     1
280
     0
  0
SEQEND
  5
AE0
330
ADC
100
AcDbEntity
  8
0
  6
Continuous
  0
INSERT
  5
AE1
330
1F
100
AcDbEntity
  8
Points
  6
Continuous
100
AcDbBlockReference
 66
     1
  2
POINTS
 10
6.084999999999999
 20
-7.297999999999999
 30
0.4200000000000001
  0
ATTRIB
  5
AE2
330
AE1
100
AcDbEntity
  8
Points-NUM
100
AcDbText
 10
5.394523809523809
 20
-7.152166666666667
 30
0.4200000000000001
 40
0.25
  1
63
  7
romans
 72
     2
 11
5.834999999999999
 21
-7.2355
 31
0.4200000000000001
100
AcDbAttribute
280
     0
  2
PTNUM
 70
     0
 74
     1
280
     0
  0
ATTRIB
  5
AE3
330
AE1
100
AcDbEntity
  8
Points-TXT
100
AcDbText
 10
5.834999999999999
 20
-7.527166666666667
 30
0.4200000000000001
 40
0.25
  1

  7
romans
 72
     2
 11
5.834999999999999
 21
-7.6105
 31
0.4200000000000001
100
AcDbAttribute
280
     0
  2
DESC
 70
     0
 74
     1
280
     0
  0
ATTRIB
  5
AE4
330
AE1
100
AcDbEntity
  8
Points-ELV
100
AcDbText
 10
6.02607443490112
 20
-6.86407443490112
 30
0.4200000000000001
 40
0.25
  1
0.42
 50
45.0
  7
romans
 11
6.084999999999999
 21
-6.922999999999999
 31
0.4200000000000001
100
AcDbAttribute
280
     0
  2
ELEV
 70
     0
 74
     1
280
     0
  0
SEQEND
  5
AE5
330
AE1
100
AcDbEntity
  8
0
  6
Continuous
  0
INSERT
  5
AE6
330
1F
100
AcDbEntity
  8
Points
  6
Continuous
100
AcDbBlockReference
 66
     1
  2
POINTS
 10
3.613999999999999
 20
-3.668999999999999
 30
2.2
  0
ATTRIB
  5
AE7
330
AE6
100
AcDbEntity
  8
Points-NUM
100
AcDbText
 10
2.911619047619047
 20
-3.523166666666666
 30
2.2
 40
0.25
  1
64
  7
romans
 72
     2
 11
3.363999999999999
 21
-3.6065
 31
2.2
100
AcDbAttribute
280
     0
  2
PTNUM
 70
     0
 74
     1
280
     0
  0
ATTRIB
  5
AE8
330
AE6
100
AcDbEntity
  8
Points-TXT
100
AcDbText
 10
3.363999999999999
 20
-3.898166666666666
 30
2.2
 40
0.25
  1

  7
romans
 72
     2
 11
3.363999999999999
 21
-3.9815
 31
2.2
100
AcDbAttribute
280
     0
  2
DESC
 70
     0
 74
     1
280
     0
  0
ATTRIB
  5
AE9
330
AE6
100
AcDbEntity
  8
Points-ELV
100
AcDbText
 10
3.55507443490112
 20
-3.23507443490112
 30
2.2
 40
0.25
  1
2.2
 50
45.0
  7
romans
 11
3.613999999999999
 21
-3.293999999999999
 31
2.2
100
AcDbAttribute
280
     0
  2
ELEV
 70
     0
 74
     1
280
     0
  0
SEQEND
  5
AEA
330
AE6
100
AcDbEntity
  8
0
  6
Continuous
  0
INSERT
  5
AEB
330
1F
100
AcDbEntity
  8
Points
  6
Continuous
100
AcDbBlockReference
 66
     1
  2
POINTS
 10
0.0
 20
-9.422
 30
-2.759999999999999
  0
ATTRIB
  5
AEC
330
AEB
100
AcDbEntity
  8
Points-NUM
100
AcDbText
 10
-0.6904761904761905
 20
-9.276166666666666
 30
-2.759999999999999
 40
0.25
  1
65
  7
romans
 72
     2
 11
-0.25
 21
-9.3595
 31
-2.759999999999999
100
AcDbAttribute
280
     0
  2
PTNUM
 70
     0
 74
     1
280
     0
  0
ATTRIB
  5
AED
330
AEB
100
AcDbEntity
  8
Points-TXT
100
AcDbText
 10
-0.25
 20
-9.651166666666666
 30
-2.759999999999999
 40
0.25
  1

  7
romans
 72
     2
 11
-0.25
 21
-9.7345
 31
-2.759999999999999
100
AcDbAttribute
280
     0
  2
DESC
 70
     0
 74
     1
280
     0
  0
ATTRIB
  5
AEE
330
AEB
100
AcDbEntity
  8
Points-ELV
100
AcDbText
 10
-0.058925565098879
 20
-8.988074434901122
 30
-2.759999999999999
 40
0.25
  1
-2.76
 50
45.0
  7
romans
 11
0.0
 21
-9.047
 31
-2.759999999999999
100
AcDbAttribute
280
     0
  2
ELEV
 70
     0
 74
     1
280
     0
  0
SEQEND
  5
AEF
330
AEB
100
AcDbEntity
  8
0
  6
Continuous
  0
INSERT
  5
AF0
330
1F
100
AcDbEntity
  8
Points
  6
Continuous
100
AcDbBlockReference
 66
     1
  2
POINTS
 10
0.0
 20
-37.904
 30
-4.98
  0
ATTRIB
  5
AF1
330
AF0
100
AcDbEntity
  8
Points-NUM
100
AcDbText
 10
-0.6904761904761905
 20
-37.75816666666667
 30
-4.98
 40
0.25
  1
66
  7
romans
 72
     2
 11
-0.25
 21
-37.8415
 31
-4.98
100
AcDbAttribute
280
     0
  2
PTNUM
 70
     0
 74
     1
280
     0
  0
ATTRIB
  5
AF2
330
AF0
100
AcDbEntity
  8
Points-TXT
100
AcDbText
 10
-0.25
 20
-38.13316666666667
 30
-4.98
 40
0.25
  1

  7
romans
 72
     2
 11
-0.25
 21
-38.2165
 31
-4.98
100
AcDbAttribute
280
     0
  2
DESC
 70
     0
 74
     1
280
     0
  0
ATTRIB
  5
AF3
330
AF0
100
AcDbEntity
  8
Points-ELV
100
AcDbText
 10
-0.058925565098879
 20
-37.47007443490112
 30
-4.98
 40
0.25
  1
-4.98
 50
45.0
  7
romans
 11
0.0
 21
-37.529
 31
-4.98
100
AcDbAttribute
280
     0
  2
ELEV
 70
     0
 74
     1
280
     0
  0
SEQEND
  5
AF4
330
AF0
100
AcDbEntity
  8
0
  6
Continuous
  0
INSERT
  5
AF5
330
1F
100
AcDbEntity
  8
Points
  6
Continuous
100
AcDbBlockReference
 66
     1
  2
POINTS
 10
0.0
 20
-3.733999999999999
 30
-0.9399999999999998
  0
ATTRIB
  5
AF6
330
AF5
100
AcDbEntity
  8
Points-NUM
100
AcDbText
 10
-0.6904761904761905
 20
-3.588166666666666
 30
-0.9399999999999998
 40
0.25
  1
67
  7
romans
 72
     2
 11
-0.25
 21
-3.671499999999999
 31
-0.9399999999999998
100
AcDbAttribute
280
     0
  2
PTNUM
 70
     0
 74
     1
280
     0
  0
ATTRIB
  5
AF7
330
AF5
100
AcDbEntity
  8
Points-TXT
100
AcDbText
 10
-0.25
 20
-3.963166666666666
 30
-0.9399999999999998
 40
0.25
  1

  7
romans
 72
     2
 11
-0.25
 21
-4.046499999999999
 31
-0.9399999999999998
100
AcDbAttribute
280
     0
  2
DESC
 70
     0
 74
     1
280
     0
  0
ATTRIB
  5
AF8
330
AF5
100
AcDbEntity
  8
Points-ELV
100
AcDbText
 10
-0.058925565098879
 20
-3.30007443490112
 30
-0.9399999999999998
 40
0.25
  1
-0.94
 50
45.0
  7
romans
 11
0.0
 21
-3.358999999999999
 31
-0.9399999999999998
100
AcDbAttribute
280
     0
  2
ELEV
 70
     0
 74
     1
280
     0
  0
SEQEND
  5
AF9
330
AF5
100
AcDbEntity
  8
0
  6
Continuous
  0
INSERT
  5
AFA
330
1F
100
AcDbEntity
  8
Points
  6
Continuous
100
AcDbBlockReference
 66
     1
  2
POINTS
 10
-0.002
 20
-0.004
 30
-1.8
  0
ATTRIB
  5
AFB
330
AFA
100
AcDbEntity
  8
Points-NUM
100
AcDbText
 10
-0.6924761904761905
 20
0.1418333333333333
 30
-1.8
 40
0.25
  1
68
  7
romans
 72
     2
 11
-0.252
 21
0.0585
 31
-1.8
100
AcDbAttribute
280
     0
  2
PTNUM
 70
     0
 74
     1
280
     0
  0
ATTRIB
  5
AFC
330
AFA
100
AcDbEntity
  8
Points-TXT
100
AcDbText
 10
-0.252
 20
-0.2331666666666667
 30
-1.8
 40
0.25
  1

  7
romans
 72
     2
 11
-0.252
 21
-0.3165
 31
-1.8
100
AcDbAttribute
280
     0
  2
DESC
 70
     0
 74
     1
280
     0
  0
ATTRIB
  5
AFD
330
AFA
100
AcDbEntity
  8
Points-ELV
100
AcDbText
 10
-0.060925565098879
 20
0.429925565098879
 30
-1.8
 40
0.25
  1
-1.8
 50
45.0
  7
romans
 11
-0.002
 21
0.371
 31
-1.8
100
AcDbAttribute
280
     0
  2
ELEV
 70
     0
 74
     1
280
     0
  0
SEQEND
  5
AFE
330
AFA
100
AcDbEntity
  8
0
  6
Continuous
  0
INSERT
  5
AFF
330
1F
100
AcDbEntity
  8
Points
  6
Continuous
100
AcDbBlockReference
 66
     1
  2
POINTS
 10
-0.72
 20
-1.247
 30
0.2
  0
ATTRIB
  5
B00
330
AFF
100
AcDbEntity
  8
Points-NUM
100
AcDbText
 10
-1.398571428571428
 20
-1.101166666666666
 30
0.2
 40
0.25
  1
69
  7
romans
 72
     2
 11
-0.9699999999999999
 21
-1.1845
 31
0.2
100
AcDbAttribute
280
     0
  2
PTNUM
 70
     0
 74
     1
280
     0
  0
ATTRIB
  5
B01
330
AFF
100
AcDbEntity
  8
Points-TXT
100
AcDbText
 10
-0.9699999999999999
 20
-1.476166666666666
 30
0.2
 40
0.25
  1

  7
romans
 72
     2
 11
-0.9699999999999999
 21
-1.5595
 31
0.2
100
AcDbAttribute
280
     0
  2
DESC
 70
     0
 74
     1
280
     0
  0
ATTRIB
  5
B02
330
AFF
100
AcDbEntity
  8
Points-ELV
100
AcDbText
 10
-0.7789255650988789
 20
-0.8130744349011211
 30
0.2
 40
0.25
  1
0.2
 50
45.0
  7
romans
 11
-0.72
 21
-0.872
 31
0.2
100
AcDbAttribute
280
     0
  2
ELEV
 70
     0
 74
     1
280
     0
  0
SEQEND
  5
B03
330
AFF
100
AcDbEntity
  8
0
  6
Continuous
  0
INSERT
  5
B04
330
1F
100
AcDbEntity
  8
Points
  6
Continuous
100
AcDbBlockReference
 66
     1
  2
POINTS
 10
-1.129
 20
-1.955999999999999
 30
0.1
  0
ATTRIB
  5
B05
330
B04
100
AcDbEntity
  8
Points-NUM
100
AcDbText
 10
-1.81947619047619
 20
-1.810166666666666
 30
0.1
 40
0.25
  1
70
  7
romans
 72
     2
 11
-1.379
 21
-1.893499999999999
 31
0.1
100
AcDbAttribute
280
     0
  2
PTNUM
 70
     0
 74
     1
280
     0
  0
ATTRIB
  5
B06
330
B04
100
AcDbEntity
  8
Points-TXT
100
AcDbText
 10
-1.379
 20
-2.185166666666666
 30
0.1
 40
0.25
  1

  7
romans
 72
     2
 11
-1.379
 21
-2.268499999999999
 31
0.1
100
AcDbAttribute
280
     0
  2
DESC
 70
     0
 74
     1
280
     0
  0
ATTRIB
  5
B07
330
B04
100
AcDbEntity
  8
Points-ELV
100
AcDbText
 10
-1.187925565098878
 20
-1.522074434901121
 30
0.1
 40
0.25
  1
0.1
 50
45.0
  7
romans
 11
-1.129
 21
-1.580999999999999
 31
0.1
100
AcDbAttribute
280
     0
  2
ELEV
 70
     0
 74
     1
280
     0
  0
SEQEND
  5
B08
330
B04
100
AcDbEntity
  8
0
  6
Continuous
  0
INSERT
  5
B09
330
1F
100
AcDbEntity
  8
Points
  6
Continuous
100
AcDbBlockReference
 66
     1
  2
POINTS
 10
-1.029
 20
-0.594
 30
-0.7800000000000001
  0
ATTRIB
  5
B0A
330
B09
100
AcDbEntity
  8
Points-NUM
100
AcDbText
 10
-1.648047619047619
 20
-0.4481666666666667
 30
-0.7800000000000001
 40
0.25
  1
71
  7
romans
 72
     2
 11
-1.279
 21
-0.5315
 31
-0.7800000000000001
100
AcDbAttribute
280
     0
  2
PTNUM
 70
     0
 74
     1
280
     0
  0
ATTRIB
  5
B0B
330
B09
100
AcDbEntity
  8
Points-TXT
100
AcDbText
 10
-1.279
 20
-0.8231666666666665
 30
-0.7800000000000001
 40
0.25
  1

  7
romans
 72
     2
 11
-1.279
 21
-0.9064999999999999
 31
-0.7800000000000001
100
AcDbAttribute
280
     0
  2
DESC
 70
     0
 74
     1
280
     0
  0
ATTRIB
  5
B0C
330
B09
100
AcDbEntity
  8
Points-ELV
100
AcDbText
 10
-1.087925565098879
 20
-0.160074434901121
 30
-0.7800000000000001
 40
0.25
  1
-0.78
 50
45.0
  7
romans
 11
-1.029
 21
-0.2189999999999999
 31
-0.7800000000000001
100
AcDbAttribute
280
     0
  2
ELEV
 70
     0
 74
     1
280
     0
  0
SEQEND
  5
B0D
330
B09
100
AcDbEntity
  8
0
  6
Continuous
  0
INSERT
  5
B0E
330
1F
100
AcDbEntity
  8
Points
  6
Continuous
100
AcDbBlockReference
 66
     1
  2
POINTS
 10
-0.418
 20
-0.241
 30
-1.179999999999999
  0
ATTRIB
  5
B0F
330
B0E
100
AcDbEntity
  8
Points-NUM
100
AcDbText
 10
-1.10847619047619
 20
-0.0951666666666667
 30
-1.179999999999999
 40
0.25
  1
72
  7
romans
 72
     2
 11
-0.668
 21
-0.1785
 31
-1.179999999999999
100
AcDbAttribute
280
     0
  2
PTNUM
 70
     0
 74
     1
280
     0
  0
ATTRIB
  5
B10
330
B0E
100
AcDbEntity
  8
Points-TXT
100
AcDbText
 10
-0.668
 20
-0.4701666666666667
 30
-1.179999999999999
 40
0.25
  1

  7
romans
 72
     2
 11
-0.668
 21
-0.5535000000000001
 31
-1.179999999999999
100
AcDbAttribute
280
     0
  2
DESC
 70
     0
 74
     1
280
     0
  0
ATTRIB
  5
B11
330
B0E
100
AcDbEntity
  8
Points-ELV
100
AcDbText
 10
-0.476925565098879
 20
0.192925565098879
 30
-1.179999999999999
 40
0.25
  1
-1.18
 50
45.0
  7
romans
 11
-0.418
 21
0.134
 31
-1.179999999999999
100
AcDbAttribute
280
     0
  2
ELEV
 70
     0
 74
     1
280
     0
  0
SEQEND
  5
B12
330
B0E
100
AcDbEntity
  8
0
  6
Continuous
  0
INSERT
  5
B13
330
1F
100
AcDbEntity
  8
Points
  6
Continuous
100
AcDbBlockReference
 66
     1
  2
POINTS
 10
-0.454
 20
-0.262
 30
0.16
  0
ATTRIB
  5
B14
330
B13
100
AcDbEntity
  8
Points-NUM
100
AcDbText
 10
-1.14447619047619
 20
-0.1161666666666667
 30
0.16
 40
0.25
  1
73
  7
romans
 72
     2
 11
-0.7040000000000001
 21
-0.1995
 31
0.16
100
AcDbAttribute
280
     0
  2
PTNUM
 70
     0
 74
     1
280
     0
  0
ATTRIB
  5
B15
330
B13
100
AcDbEntity
  8
Points-TXT
100
AcDbText
 10
-0.7040000000000001
 20
-0.4911666666666667
 30
0.16
 40
0.25
  1

  7
romans
 72
     2
 11
-0.7040000000000001
 21
-0.5745
 31
0.16
100
AcDbAttribute
280
     0
  2
DESC
 70
     0
 74
     1
280
     0
  0
ATTRIB
  5
B16
330
B13
100
AcDbEntity
  8
Points-ELV
100
AcDbText
 10
-0.5129255650988789
 20
0.1719255650988789
 30
0.16
 40
0.25
  1
0.16
 50
45.0
  7
romans
 11
-0.454
 21
0.113
 31
0.16
100
AcDbAttribute
280
     0
  2
ELEV
 70
     0
 74
     1
280
     0
  0
SEQEND
  5
B17
330
B13
100
AcDbEntity
  8
0
  6
Continuous
  0
INSERT
  5
B18
330
1F
100
AcDbEntity
  8
Points
  6
Continuous
100
AcDbBlockReference
 66
     1
  2
POINTS
 10
-6.202
 20
0.0
 30
-0.73
  0
ATTRIB
  5
B19
330
B18
100
AcDbEntity
  8
Points-NUM
100
AcDbText
 10
-6.904380952380953
 20
0.1458333333333333
 30
-0.73
 40
0.25
  1
74
  7
romans
 72
     2
 11
-6.452
 21
0.0625
 31
-0.73
100
AcDbAttribute
280
     0
  2
PTNUM
 70
     0
 74
     1
280
     0
  0
ATTRIB
  5
B1A
330
B18
100
AcDbEntity
  8
Points-TXT
100
AcDbText
 10
-6.452
 20
-0.2291666666666667
 30
-0.73
 40
0.25
  1

  7
romans
 72
     2
 11
-6.452
 21
-0.3125
 31
-0.73
100
AcDbAttribute
280
     0
  2
DESC
 70
     0
 74
     1
280
     0
  0
ATTRIB
  5
B1B
330
B18
100
AcDbEntity
  8
Points-ELV
100
AcDbText
 10
-6.260925565098879
 20
0.433925565098879
 30
-0.73
 40
0.25
  1
-0.73
 50
45.0
  7
romans
 11
-6.202
 21
0.375
 31
-0.73
100
AcDbAttribute
280
     0
  2
ELEV
 70
     0
 74
     1
280
     0
  0
SEQEND
  5
B1C
330
B18
100
AcDbEntity
  8
0
  6
Continuous
  0
INSERT
  5
B1D
330
1F
100
AcDbEntity
  8
Points
  6
Continuous
100
AcDbBlockReference
 66
     1
  2
POINTS
 10
-9.727999999999999
 20
0.0
 30
-2.149999999999999
  0
ATTRIB
  5
B1E
330
B1D
100
AcDbEntity
  8
Points-NUM
100
AcDbText
 10
-10.41847619047619
 20
0.1458333333333333
 30
-2.149999999999999
 40
0.25
  1
75
  7
romans
 72
     2
 11
-9.977999999999999
 21
0.0625
 31
-2.149999999999999
100
AcDbAttribute
280
     0
  2
PTNUM
 70
     0
 74
     1
280
     0
  0
ATTRIB
  5
B1F
330
B1D
100
AcDbEntity
  8
Points-TXT
100
AcDbText
 10
-9.977999999999999
 20
-0.2291666666666667
 30
-2.149999999999999
 40
0.25
  1

  7
romans
 72
     2
 11
-9.977999999999999
 21
-0.3125
 31
-2.149999999999999
100
AcDbAttribute
280
     0
  2
DESC
 70
     0
 74
     1
280
     0
  0
ATTRIB
  5
B20
330
B1D
100
AcDbEntity
  8
Points-ELV
100
AcDbText
 10
-9.786925565098878
 20
0.433925565098879
 30
-2.149999999999999
 40
0.25
  1
-2.15
 50
45.0
  7
romans
 11
-9.727999999999999
 21
0.375
 31
-2.149999999999999
100
AcDbAttribute
280
     0
  2
ELEV
 70
     0
 74
     1
280
     0
  0
SEQEND
  5
B21
330
B1D
100
AcDbEntity
  8
0
  6
Continuous
  0
INSERT
  5
B22
330
1F
100
AcDbEntity
  8
Points
  6
Continuous
100
AcDbBlockReference
 66
     1
  2
POINTS
 10
-2.592999999999999
 20
0.0
 30
0.0
  0
ATTRIB
  5
B23
330
B22
100
AcDbEntity
  8
Points-NUM
100
AcDbText
 10
-3.28347619047619
 20
0.1458333333333333
 30
0.0
 40
0.25
  1
76
  7
romans
 72
     2
 11
-2.842999999999999
 21
0.0625
 31
0.0
100
AcDbAttribute
280
     0
  2
PTNUM
 70
     0
 74
     1
280
     0
  0
ATTRIB
  5
B24
330
B22
100
AcDbEntity
  8
Points-TXT
100
AcDbText
 10
-2.842999999999999
 20
-0.2291666666666667
 30
0.0
 40
0.25
  1

  7
romans
 72
     2
 11
-2.842999999999999
 21
-0.3125
 31
0.0
100
AcDbAttribute
280
     0
  2
DESC
 70
     0
 74
     1
280
     0
  0
ATTRIB
  5
B25
330
B22
100
AcDbEntity
  8
Points-ELV
100
AcDbText
 10
-2.651925565098879
 20
0.433925565098879
 30
0.0
 40
0.25
  1
0
 50
45.0
  7
romans
 11
-2.592999999999999
 21
0.375
 31
0.0
100
AcDbAttribute
280
     0
  2
ELEV
 70
     0
 74
     1
280
     0
  0
SEQEND
  5
B26
330
B22
100
AcDbEntity
  8
0
  6
Continuous
  0
INSERT
  5
B27
330
1F
100
AcDbEntity
  8
Points
  6
Continuous
100
AcDbBlockReference
 66
     1
  2
POINTS
 10
-4.455
 20
0.0
 30
-0.43
  0
ATTRIB
  5
B28
330
B27
100
AcDbEntity
  8
Points-NUM
100
AcDbText
 10
-5.14547619047619
 20
0.1458333333333333
 30
-0.43
 40
0.25
  1
77
  7
romans
 72
     2
 11
-4.705
 21
0.0625
 31
-0.43
100
AcDbAttribute
280
     0
  2
PTNUM
 70
     0
 74
     1
280
     0
  0
ATTRIB
  5
B29
330
B27
100
AcDbEntity
  8
Points-TXT
100
AcDbText
 10
-4.705
 20
-0.2291666666666667
 30
-0.43
 40
0.25
  1

  7
romans
 72
     2
 11
-4.705
 21
-0.3125
 31
-0.43
100
AcDbAttribute
280
     0
  2
DESC
 70
     0
 74
     1
280
     0
  0
ATTRIB
  5
B2A
330
B27
100
AcDbEntity
  8
Points-ELV
100
AcDbText
 10
-4.513925565098879
 20
0.433925565098879
 30
-0.43
 40
0.25
  1
-0.43
 50
45.0
  7
romans
 11
-4.455
 21
0.375
 31
-0.43
100
AcDbAttribute
280
     0
  2
ELEV
 70
     0
 74
     1
280
     0
  0
SEQEND
  5
B2B
330
B27
100
AcDbEntity
  8
0
  6
Continuous
  0
INSERT
  5
B2C
330
1F
100
AcDbEntity
  8
Points
  6
Continuous
100
AcDbBlockReference
 66
     1
  2
POINTS
 10
-5.129999999999999
 20
2.961999999999999
 30
-0.72
  0
ATTRIB
  5
B2D
330
B2C
100
AcDbEntity
  8
Points-NUM
100
AcDbText
 10
-5.82047619047619
 20
3.107833333333333
 30
-0.72
 40
0.25
  1
78
  7
romans
 72
     2
 11
-5.379999999999999
 21
3.0245
 31
-0.72
100
AcDbAttribute
280
     0
  2
PTNUM
 70
     0
 74
     1
280
     0
  0
ATTRIB
  5
B2E
330
B2C
100
AcDbEntity
  8
Points-TXT
100
AcDbText
 10
-5.379999999999999
 20
2.732833333333333
 30
-0.72
 40
0.25
  1

  7
romans
 72
     2
 11
-5.379999999999999
 21
2.6495
 31
-0.72
100
AcDbAttribute
280
     0
  2
DESC
 70
     0
 74
     1
280
     0
  0
ATTRIB
  5
B2F
330
B2C
100
AcDbEntity
  8
Points-ELV
100
AcDbText
 10
-5.188925565098879
 20
3.395925565098878
 30
-0.72
 40
0.25
  1
-0.72
 50
45.0
  7
romans
 11
-5.129999999999999
 21
3.336999999999999
 31
-0.72
100
AcDbAttribute
280
     0
  2
ELEV
 70
     0
 74
     1
280
     0
  0
SEQEND
  5
B30
330
B2C
100
AcDbEntity
  8
0
  6
Continuous
  0
INSERT
  5
B31
330
1F
100
AcDbEntity
  8
Points
  6
Continuous
100
AcDbBlockReference
 66
     1
  2
POINTS
 10
-7.457999999999999
 20
4.306
 30
-1.52
  0
ATTRIB
  5
B32
330
B31
100
AcDbEntity
  8
Points-NUM
100
AcDbText
 10
-8.136571428571427
 20
4.451833333333333
 30
-1.52
 40
0.25
  1
79
  7
romans
 72
     2
 11
-7.707999999999999
 21
4.3685
 31
-1.52
100
AcDbAttribute
280
     0
  2
PTNUM
 70
     0
 74
     1
280
     0
  0
ATTRIB
  5
B33
330
B31
100
AcDbEntity
  8
Points-TXT
100
AcDbText
 10
-7.707999999999999
 20
4.076833333333333
 30
-1.52
 40
0.25
  1

  7
romans
 72
     2
 11
-7.707999999999999
 21
3.9935
 31
-1.52
100
AcDbAttribute
280
     0
  2
DESC
 70
     0
 74
     1
280
     0
  0
ATTRIB
  5
B34
330
B31
100
AcDbEntity
  8
Points-ELV
100
AcDbText
 10
-7.516925565098878
 20
4.739925565098879
 30
-1.52
 40
0.25
  1
-1.52
 50
45.0
  7
romans
 11
-7.457999999999999
 21
4.681
 31
-1.52
100
AcDbAttribute
280
     0
  2
ELEV
 70
     0
 74
     1
280
     0
  0
SEQEND
  5
B35
330
B31
100
AcDbEntity
  8
0
  6
Continuous
  0
INSERT
  5
B36
330
1F
100
AcDbEntity
  8
Points
  6
Continuous
100
AcDbBlockReference
 66
     1
  2
POINTS
 10
-0.501
 20
0.289
 30
0.08
  0
ATTRIB
  5
B37
330
B36
100
AcDbEntity
  8
Points-NUM
100
AcDbText
 10
-1.19147619047619
 20
0.4348333333333333
 30
0.08
 40
0.25
  1
80
  7
romans
 72
     2
 11
-0.7509999999999999
 21
0.3515
 31
0.08
100
AcDbAttribute
280
     0
  2
PTNUM
 70
     0
 74
     1
280
     0
  0
ATTRIB
  5
B38
330
B36
100
AcDbEntity
  8
Points-TXT
100
AcDbText
 10
-0.7509999999999999
 20
0.0598333333333333
 30
0.08
 40
0.25
  1

  7
romans
 72
     2
 11
-0.7509999999999999
 21
-0.0235
 31
0.08
100
AcDbAttribute
280
     0
  2
DESC
 70
     0
 74
     1
280
     0
  0
ATTRIB
  5
B39
330
B36
100
AcDbEntity
  8
Points-ELV
100
AcDbText
 10
-0.559925565098879
 20
0.722925565098879
 30
0.08
 40
0.25
  1
0.08
 50
45.0
  7
romans
 11
-0.501
 21
0.6640000000000001
 31
0.08
100
AcDbAttribute
280
     0
  2
ELEV
 70
     0
 74
     1
280
     0
  0
SEQEND
  5
B3A
330
B36
100
AcDbEntity
  8
0
  6
Continuous
  0
INSERT
  5
B3B
330
1F
100
AcDbEntity
  8
Points
  6
Continuous
100
AcDbBlockReference
 66
     1
  2
POINTS
 10
-0.363
 20
0.629
 30
0.08
  0
ATTRIB
  5
B3C
330
B3B
100
AcDbEntity
  8
Points-NUM
100
AcDbText
 10
-0.9820476190476188
 20
0.7748333333333334
 30
0.08
 40
0.25
  1
81
  7
romans
 72
     2
 11
-0.613
 21
0.6915
 31
0.08
100
AcDbAttribute
280
     0
  2
PTNUM
 70
     0
 74
     1
280
     0
  0
ATTRIB
  5
B3D
330
B3B
100
AcDbEntity
  8
Points-TXT
100
AcDbText
 10
-0.613
 20
0.3998333333333333
 30
0.08
 40
0.25
  1

  7
romans
 72
     2
 11
-0.613
 21
0.3165
 31
0.08
100
AcDbAttribute
280
     0
  2
DESC
 70
     0
 74
     1
280
     0
  0
ATTRIB
  5
B3E
330
B3B
100
AcDbEntity
  8
Points-ELV
100
AcDbText
 10
-0.421925565098879
 20
1.062925565098878
 30
0.08
 40
0.25
  1
0.08
 50
45.0
  7
romans
 11
-0.363
 21
1.004
 31
0.08
100
AcDbAttribute
280
     0
  2
ELEV
 70
     0
 74
     1
280
     0
  0
SEQEND
  5
B3F
330
B3B
100
AcDbEntity
  8
0
  6
Continuous
  0
INSERT
  5
B40
330
1F
100
AcDbEntity
  8
Points
  6
Continuous
100
AcDbBlockReference
 66
     1
  2
POINTS
 10
-5.902999999999999
 20
10.225
 30
-0.2
  0
ATTRIB
  5
B41
330
B40
100
AcDbEntity
  8
Points-NUM
100
AcDbText
 10
-6.59347619047619
 20
10.37083333333333
 30
-0.2
 40
0.25
  1
82
  7
romans
 72
     2
 11
-6.152999999999999
 21
10.2875
 31
-0.2
100
AcDbAttribute
280
     0
  2
PTNUM
 70
     0
 74
     1
280
     0
  0
ATTRIB
  5
B42
330
B40
100
AcDbEntity
  8
Points-TXT
100
AcDbText
 10
-6.152999999999999
 20
9.995833333333333
 30
-0.2
 40
0.25
  1

  7
romans
 72
     2
 11
-6.152999999999999
 21
9.912499999999999
 31
-0.2
100
AcDbAttribute
280
     0
  2
DESC
 70
     0
 74
     1
280
     0
  0
ATTRIB
  5
B43
330
B40
100
AcDbEntity
  8
Points-ELV
100
AcDbText
 10
-5.961925565098878
 20
10.65892556509888
 30
-0.2
 40
0.25
  1
-0.2
 50
45.0
  7
romans
 11
-5.902999999999999
 21
10.6
 31
-0.2
100
AcDbAttribute
280
     0
  2
ELEV
 70
     0
 74
     1
280
     0
  0
SEQEND
  5
B44
330
B40
100
AcDbEntity
  8
0
  6
Continuous
  0
INSERT
  5
B45
330
1F
100
AcDbEntity
  8
Points
  6
Continuous
100
AcDbBlockReference
 66
     1
  2
POINTS
 10
-2.325
 20
4.027
 30
-7.419999999999999
  0
ATTRIB
  5
B46
330
B45
100
AcDbEntity
  8
Points-NUM
100
AcDbText
 10
-3.01547619047619
 20
4.172833333333333
 30
-7.419999999999999
 40
0.25
  1
83
  7
romans
 72
     2
 11
-2.575
 21
4.0895
 31
-7.419999999999999
100
AcDbAttribute
280
     0
  2
PTNUM
 70
     0
 74
     1
280
     0
  0
ATTRIB
  5
B47
330
B45
100
AcDbEntity
  8
Points-TXT
100
AcDbText
 10
-2.575
 20
3.797833333333333
 30
-7.419999999999999
 40
0.25
  1

  7
romans
 72
     2
 11
-2.575
 21
3.7145
 31
-7.419999999999999
100
AcDbAttribute
280
     0
  2
DESC
 70
     0
 74
     1
280
     0
  0
ATTRIB
  5
B48
330
B45
100
AcDbEntity
  8
Points-ELV
100
AcDbText
 10
-2.383925565098879
 20
4.460925565098879
 30
-7.419999999999999
 40
0.25
  1
-7.42
 50
45.0
  7
romans
 11
-2.325
 21
4.402
 31
-7.419999999999999
100
AcDbAttribute
280
     0
  2
ELEV
 70
     0
 74
     1
280
     0
  0
SEQEND
  5
B49
330
B45
100
AcDbEntity
  8
0
  6
Continuous
  0
LWPOLYLINE
  5
B4A
330
1F
100
AcDbEntity
  8
Contour
100
AcDbPolyline
 90
        5
 70
     0
 43
0.0
 38
-7.0
 10
-1.574570093457939
 20
25.33204672897201
 10
-1.66447088186356
 20
25.7010349417637
 10
-1.801593358276909
 20
26.1480498368169
 42
-0.0975542978502662
 10
-1.893884264050149
 20
26.9637453531256
 10
-1.83898092643052
 20
27.7217002724796
  0
LWPOLYLINE
  5
B4B
330
1F
100
AcDbEntity
  8
Contour
100
AcDbPolyline
 90
       12
 70
     0
 43
0.0
 38
-7.0
 10
9.974164910471019
 20
6.29965198741304
 10
9.924523965737199
 20
8.640462912338259
 10
9.923865771850518
 20
10.9343673939434
 42
0.708734703491226
 10
9.8687348535465
 20
10.9470820911492
 10
8.392504863474629
 20
7.919052510523929
 42
0.0332986230620549
 10
8.16276818675054
 20
7.360914503300179
 10
8.151463829171639
 20
7.32762274667494
 42
0.322099825904844
 10
8.296801219128759
 20
6.82859278708244
 10
8.987257941518279
 20
6.274055465267709
 42
0.178431871768617
 10
9.59033677419355
 20
6.061858064516129
 10
9.74136035406696
 20
6.061858064516129
 42
0.41980486563605
 10
9.974164910471019
 20
6.29965198741304
  0
LWPOLYLINE
  5
B4C
330
1F
100
AcDbEntity
  8
Contour
100
AcDbPolyline
 90
        5
 70
     0
 43
0.0
 38
-7.0
 10
-6.51811450381679
 20
18.7943053435115
 10
-5.92954485049834
 20
20.8926312292359
 10
-5.583572624582149
 20
22.0534244140109
 42
-0.329044051918975
 10
-5.185077857665049
 20
22.3609297833402
 10
-4.41967080745342
 20
22.3864409937888
  0
LWPOLYLINE
  5
B4D
330
1F
100
AcDbEntity
  8
Contour
100
AcDbPolyline
 90
       23
 70
     0
 43
0.0
 38
-6.0
 10
-2.09043610360525
 20
3.03818647388471
 10
-0.935016143637797
 20
2.15576786859127
 42
0.351496130887849
 10
-0.4809193913991511
 20
2.16224078461925
 10
-0.199517464327654
 20
2.3901405327296
 42
-0.0391707568069379
 10
0.0060224398034802
 20
2.53271574451988
 10
0.0675621024032665
 20
2.56895391559561
 42
0.675030793217914
 10
0.0533058898937404
 20
2.626876272772419
 10
0.003367203455863
 20
2.629351671095789
 42
-0.139331944985501
 10
-0.187622779939583
 20
2.691314948236799
 10
-1.765908735432319
 20
3.720645697463799
 42
-0.3050719696433189
 10
-1.839002901466139
 20
3.88680096352847
 10
-1.81313953488372
 20
4.043071317829459
 10
-1.765423728813559
 20
4.261179661016949
 10
-1.74585527628907
 20
4.354985467759349
 42
0.315566539047118
 10
-1.774834613721419
 20
4.4249485858868
 10
-2.846059536582039
 20
5.126398128175579
 42
0.453053623868005
 10
-3.120205468728649
 20
5.047775822193429
 10
-3.45949306124333
 20
4.312751477458319
 42
0.415225276045348
 10
-3.341412139442379
 20
3.994081656939169
 10
-3.217207787845209
 20
3.93732591543048
 42
-0.0944632952224445
 10
-2.688374727202519
 20
3.569493925914869
 10
-2.63023329616822
 20
3.511183481114109
 42
0.03550003874767
 10
-2.09043610360525
 20
3.03818647388471
  0
LWPOLYLINE
  5
B4E
330
1F
100
AcDbEntity
  8
Contour
100
AcDbPolyline
 90
       12
 70
     0
 43
0.0
 38
-6.0
 10
9.307361258782389
 20
5.47235831651557
 10
7.95670687950612
 20
6.557130522931499
 42
-0.322099825904844
 10
7.81136948954899
 20
7.056160482524
 10
7.897328525471639
 20
7.309313064057469
 42
-0.0332986230620549
 10
8.30346962434036
 20
8.296020048795901
 10
10.8579757737153
 20
13.5357999179339
 42
-0.708734703491226
 10
10.9131066920193
 20
13.5230852207282
 10
10.91425727477069
 20
9.51313164449305
 10
11.0026810395033
 20
5.343522955154969
 42
-0.41980486563605
 10
10.7698764830992
 20
5.105729032258059
 10
10.349345562037
 20
5.105729032258059
 42
-0.178431871768617
 10
9.307361258782389
 20
5.47235831651557
  0
LWPOLYLINE
  5
B4F
330
1F
100
AcDbEntity
  8
Contour
100
AcDbPolyline
 90
       19
 70
     0
 43
0.0
 38
-6.0
 10
-7.179946564885499
 20
14.9191908396947
 10
-6.245159468438539
 20
18.2518260699629
 10
-5.64357262458215
 20
20.2702479434227
 42
-0.329044051918974
 10
-5.24507785766505
 20
20.577753312752
 10
-5.071417601470839
 20
20.5835414529855
 42
-0.0329860269034353
 10
-4.20578224563331
 20
20.5582338800263
 10
-3.186807458732819
 20
20.4644561470137
 42
-0.183120808334436
 10
-2.216130469536109
 20
20.0086753334464
 10
-0.9353726231747028
 20
18.7258347515495
 10
5.308950542892379
 20
11.9666846153532
 42
0.724817770916321
 10
5.349524295764849
 20
11.9915255320756
 10
2.1207637483502
 20
20.757313535709
 10
0.9620989010989019
 20
24.4574395604396
 10
0.5831514218557272
 20
25.5994029781634
 42
-0.0214700357766573
 10
0.408381041029032
 20
26.2078840360504
 10
0.321552412645591
 20
26.5642628951747
 10
0.211696926748559
 20
26.9223882717267
 42
-0.0975542978502665
 10
0.139955671357899
 20
27.5564596340807
 10
0.251618528610353
 20
29.0979945504087
  0
LWPOLYLINE
  5
B50
330
1F
100
AcDbEntity
  8
Index_Contour
100
AcDbPolyline
 90
       24
 70
     0
 43
0.0
 38
-5.0
 10
0.182468058129323
 20
2.650754757190469
 10
0.0920136576727871
 20
2.65523846886179
 42
-0.139331944985501
 10
-0.229140890352686
 20
2.75943130615417
 10
-1.35743588643236
 20
3.49528574978139
 42
-0.3050719696433189
 10
-1.49387672630533
 20
3.80543860166141
 10
-1.452674418604649
 20
4.054389147286819
 10
-1.371355932203389
 20
4.42609491525424
 10
-1.34160212664709
 20
4.568726517337889
 42
0.320045901050673
 10
-1.403002043044199
 20
4.71347115645443
 10
-2.55592376818216
 20
5.440740004569339
 10
-3.346674099658129
 20
5.982719111289179
 42
0.458620071348086
 10
-3.614512471498759
 20
5.90895608117316
 10
-4.32949306124333
 20
4.36003961305154
 42
0.415225276045348
 10
-4.21141213944238
 20
4.04136979253239
 10
-3.861536146054159
 20
3.881492371286789
 42
-0.0944632952224444
 10
-2.93184144054965
 20
3.234839431789669
 10
-2.85761730350471
 20
3.160399529485069
 42
0.0355000387476699
 10
-1.91125844190636
 20
2.331153072726549
 10
-1.249533819275459
 20
1.82578001459907
 42
0.351496130887849
 10
-0.7954370670368171
 20
1.832252930627039
 10
-0.246740140443686
 20
2.276627610860589
 42
-0.0391707568069381
 10
0.0942449249830707
 20
2.513155978070129
 10
0.200879758696367
 20
2.57594883691085
 42
0.675030793217914
 10
0.182468058129323
 20
2.650754757190469
  0
LWPOLYLINE
  5
B51
330
1F
100
AcDbEntity
  8
Index_Contour
100
AcDbPolyline
 90
        7
 70
     0
 43
0.0
 38
-5.0
 10
2.34221798365123
 20
30.4742888283379
 10
2.17379560676595
 20
28.1491739150357
 42
0.0975542978502666
 10
2.224987211774029
 20
27.6967267066365
 10
2.30757570715474
 20
27.4274908485857
 10
2.430364650900429
 20
26.9235167043447
 42
0.0214700357766563
 10
2.68894039418841
 20
26.0232586567536
 10
2.865615384615379
 20
25.4908461538462
  0
LWPOLYLINE
  5
B52
330
1F
100
AcDbEntity
  8
Index_Contour
100
AcDbPolyline
 90
        6
 70
     0
 43
0.0
 38
-5.0
 10
7.369278301886789
 20
6.484313679245279
 10
9.81974835555658
 20
4.5162292842575
 42
0.178431871768617
 10
10.8617326588112
 20
4.1496
 10
11.7966974010066
 20
4.1496
 42
0.417135074498645
 10
12.0335861453807
 20
4.389127897724169
 10
11.9023115377757
 20
16.237527789336
  0
LWPOLYLINE
  5
B53
330
1F
100
AcDbEntity
  8
Index_Contour
100
AcDbPolyline
 90
       11
 70
     0
 43
0.0
 38
-5.0
 10
0.111728367773842
 20
0.9839688732164249
 10
0.130368797438652
 20
0.919315928250598
 42
0.6575845015356329
 10
0.177558798694469
 20
0.917274383917049
 10
0.210389175864713
 20
1.002633528822449
 42
-0.129474600104004
 10
0.246917056508063
 20
1.0546006124025
 10
0.284749477515018
 20
1.08729171089663
 42
0.378959841937906
 10
0.291609465437156
 20
1.13610575197907
 10
0.217345816084529
 20
1.24972019827757
 42
0.612859099441056
 10
0.125808559054747
 20
1.233989150720059
 10
0.108001702346516
 20
1.160764600947419
 42
0.13692540668179
 10
0.111728367773842
 20
0.9839688732164249
  0
LWPOLYLINE
  5
B54
330
1F
100
AcDbEntity
  8
Index_Contour
100
AcDbPolyline
 90
        7
 70
     0
 43
0.0
 38
-5.0
 10
-7.8417786259542
 20
11.0440763358779
 10
-6.56077408637874
 20
15.6110209106899
 10
-5.703572624582149
 20
18.48707147283439
 42
-0.329044051918975
 10
-5.305077857665049
 20
18.7945768421638
 10
-5.21048592445221
 20
18.79772961520689
 42
-0.0329860269034339
 10
-4.502698202500809
 20
18.777036849723
 10
-3.18520689655172
 20
18.6557862068966
  0
LWPOLYLINE
  5
B55
330
1F
100
AcDbEntity
  8
Contour
100
AcDbPolyline
 90
       21
 70
     0
 43
0.0
 38
-4.0
 10
-0.0680431502908649
 20
2.3460808668414
 10
-1.10995474267448
 20
1.50226507663484
 42
-0.351496130887849
 10
-1.564051494913129
 20
1.49579216060686
 10
-1.911347463701769
 20
1.761029420668689
 42
-0.0355000387476697
 10
-2.925732464880269
 20
2.649883746601189
 10
-3.17530815389678
 20
2.900184937664469
 42
0.0944632952224444
 10
-4.50586450426312
 20
3.825658827143099
 10
-5.087000998349889
 20
4.09121178253895
 42
-0.4249729088638271
 10
-5.19426282764265
 20
4.39796916859913
 10
-4.847823857611079
 20
5.08095502405754
 42
0.0214712921502101
 10
-4.291933153847449
 20
6.29717791216419
 10
-4.098988090632509
 20
6.769250681514929
 42
-0.470343730679817
 10
-3.84728841315796
 20
6.8446266916883
 10
-2.651346812885539
 20
6.02493008910212
 10
-1.03074859278071
 20
5.00264854552928
 42
-0.320045901050673
 10
-0.9373489770051078
 20
4.782467566916429
 10
-0.9772881355932209
 20
4.591010169491529
 10
-1.092209302325579
 20
4.06570697674419
 10
-1.148750551144519
 20
3.72407623979434
 42
0.3050719696433189
 10
-0.9489630374324008
 20
3.26992580209899
 10
-0.0648040268456376
 20
2.69329261744966
  0
LWPOLYLINE
  5
B56
330
1F
100
AcDbEntity
  8
Contour
100
AcDbPolyline
 90
        7
 70
     0
 43
0.0
 38
-4.0
 10
-0.0824414136020601
 20
0.105240858249884
 10
0.0109707274477031
 20
0.0903019983732043
 42
-0.382080632349799
 10
0.036931623418343
 20
0.0587021605618645
 10
0.0350957551666127
 20
0.0087358760515841
 42
-0.5691936414676371
 10
0.0119400452965038
 20
-0.0025873503842969
 10
-0.0951086580666281
 20
0.0745566358256371
 42
-0.7055799756749442
 10
-0.0824414136020601
 20
0.105240858249884
  0
LWPOLYLINE
  5
B57
330
1F
100
AcDbEntity
  8
Contour
100
AcDbPolyline
 90
        6
 70
     0
 43
0.0
 38
-4.0
 10
1.41272
 20
1.68172
 10
2.16116279069767
 20
1.98658139534884
 10
2.32741176470588
 20
2.064852941176469
 10
2.450772708594049
 20
2.12179389633697
 42
-0.0409978921314698
 10
2.581498674560729
 20
2.170210855396379
 10
2.696841791044779
 20
2.203
  0
LWPOLYLINE
  5
B58
330
1F
100
AcDbEntity
  8
Contour
100
AcDbPolyline
 90
       11
 70
     0
 43
0.0
 38
-4.0
 10
0.316888344242589
 20
0.9800748269376057
 10
0.354405376544077
 20
1.013127395480599
 42
0.356688693580139
 10
0.362984367264319
 20
1.06243840759936
 10
0.193381491144388
 20
1.36991257004922
 42
0.632600231529603
 10
0.0881851876866068
 20
1.355864072057239
 10
0.0432681471746242
 20
1.171158252130629
 42
0.13692540668179
 10
0.0510853848026152
 20
0.8003027937488191
 10
0.0784762373066447
 20
0.7052996574824241
 42
0.643595282905836
 10
0.176449347945301
 20
0.6984538971977131
 10
0.279718994385037
 20
0.929564497390357
 42
-0.112955365204988
 10
0.316888344242589
 20
0.9800748269376057
  0
LWPOLYLINE
  5
B59
330
1F
100
AcDbEntity
  8
Contour
100
AcDbPolyline
 90
       10
 70
     0
 43
0.0
 38
-4.0
 10
1.92609989344447
 20
0.919645997596165
 10
1.985123838643299
 20
0.8733928816230909
 42
0.148781146628351
 10
2.26194769919249
 20
0.761998715404577
 10
2.311695567681839
 20
0.7569837796356851
 42
0.523052749808604
 10
2.418526625580709
 20
0.889229168418891
 10
2.31753204219347
 20
1.202061480731239
 42
0.470983545378472
 10
2.216851702810649
 20
1.240588947636759
 10
2.09937826086957
 20
1.17214347826087
 10
1.936447183814159
 20
1.076107832641209
 42
0.5127062617119301
 10
1.92609989344447
 20
0.919645997596165
  0
LWPOLYLINE
  5
B5A
330
1F
100
AcDbEntity
  8
Contour
100
AcDbPolyline
 90
       20
 70
     0
 43
0.0
 38
-4.0
 10
4.432817438692099
 20
31.850583106267
 10
4.207635542174009
 20
28.7418881959908
 42
0.0975542978502669
 10
4.238277496799509
 20
28.4710651415464
 10
4.293599001663889
 20
28.2907188019967
 10
4.54134242432537
 20
27.2738823050093
 42
0.0214700357766558
 10
4.67632300929462
 20
26.8039335142142
 10
4.76913186813187
 20
26.5242527472527
 10
5.646574879227049
 20
23.722191626409
 10
6.54418689592436
 20
21.3377355113025
 42
0.0260860658164868
 10
8.32937135533605
 20
17.22472888888959
 10
8.951592995205759
 20
15.9655632044427
 42
0.0351508730169145
 10
9.84279838434938
 20
14.429095107387
 10
10.2709760463177
 20
13.7927159289622
 42
0.5526333790419792
 10
10.4434355765866
 20
13.8046904496263
 10
12.836457614053
 20
18.7132355715035
 42
-0.708734703491226
 10
12.891588532357
 20
18.7005208742977
 10
12.8937238928376
 20
11.2584691088026
 10
13.0597132975678
 20
3.431264890638839
 42
-0.41980486563605
 10
12.8269087411637
 20
3.193470967741939
 10
10.7886270967742
 20
3.193470967741939
  0
LWPOLYLINE
  5
B5B
330
1F
100
AcDbEntity
  8
Contour
100
AcDbPolyline
 90
        9
 70
     0
 43
0.0
 38
-4.0
 10
4.08135606060606
 20
8.55386363636364
 10
-0.317487776960182
 20
13.4598622353037
 10
-3.34854426263956
 20
16.4958477472396
 42
0.183120808334436
 10
-4.319221251836269
 20
16.9516285608068
 10
-4.79961415936832
 20
16.9958398194197
 42
0.0329860269034355
 10
-5.349554247433579
 20
17.0119177774283
 10
-5.399526497908039
 20
17.010252189689
 42
0.331559386451398
 10
-5.75120440662762
 20
16.736187896142
 10
-8.5036106870229
 20
7.16896183206107
  0
LWPOLYLINE
  5
B5C
330
1F
100
AcDbEntity
  8
Contour
100
AcDbPolyline
 90
       96
 70
     0
 43
0.0
 38
-3.0
 10
-9.165442748091599
 20
3.293847328244279
 10
-8.114601535240749
 20
7.040230286113049
 10
-6.81757286432161
 20
11.5856857818504
 10
-5.791130620627139
 20
15.029566740475
 42
-0.329044051918975
 10
-5.538594820889409
 20
15.2244403519104
 10
-5.48862257041494
 20
15.2261059396497
 42
-0.0329860269034337
 10
-5.09653011623583
 20
15.2146427891164
 10
-4.780024245014909
 20
15.1855142930341
 42
-0.183120808334436
 10
-3.98953711067516
 20
14.8143415206147
 10
-1.78735941460224
 20
12.6085826996975
 10
1.30377645348005
 20
9.161061305908789
 42
-0.441364096550556
 10
1.27192665696341
 20
8.861521720250868
 10
0.8460400935782599
 20
8.552313104873629
 42
-0.047425699866573
 10
-0.353284466809113
 20
7.83655886599449
 10
-1.403373403843129
 20
7.331718937013169
 42
0.5194308543311021
 10
-1.43167735534554
 20
7.127557128855809
 10
0.287323766645329
 20
5.608738307667829
 42
-0.176126269396024
 10
0.382681832063187
 20
5.439529804468669
 10
0.409921052631579
 20
5.28918421052632
 10
0.4477379770952101
 20
5.0924398440607
 42
0.0338381172440693
 10
0.52315661765521
 20
4.80199906418005
 10
0.9679663280420641
 20
3.451695895101859
 42
-0.5235795884881361
 10
0.8419605189852058
 20
3.294126806207169
 10
0.3843629993801571
 20
3.338432864647379
 42
0.4480963621506071
 10
0.171399219434825
 20
3.13879117763138
 10
0.182160398660829
 20
2.802296099666549
 42
-0.435704175520452
 10
0.0940305413298012
 20
2.71570027805754
 10
0.0440918548919239
 20
2.71817567638091
 42
-0.139331944985501
 10
-0.12330402877102
 20
2.77248427072324
 10
-0.585858431813932
 20
3.074154236539899
 42
-0.3050719696433189
 10
-0.81246844251663
 20
3.58927669657049
 10
-0.7317441860465122
 20
4.077024806201549
 10
-0.5832203389830511
 20
4.755925423728809
 10
-0.533095827363125
 20
4.99620861649496
 42
0.320045901050673
 10
-0.6584951425172151
 20
5.29182593460412
 10
-2.647018113003509
 20
6.546196269261959
 10
-2.79046629147614
 20
6.639069644741469
 10
-4.34285628019397
 20
7.7030754451509
 42
0.470343730679817
 10
-4.594555957668519
 20
7.62769943497753
 10
-4.86429417954819
 20
6.96773919924649
 42
-0.02147129215021
 10
-5.588798471577518
 20
5.38260979065636
 10
-6.06426282764265
 20
4.445257304192349
 42
0.4249729088638271
 10
-5.957000998349889
 20
4.138499918132169
 10
-5.15019286247207
 20
3.76982528299941
 42
-0.0944632952224446
 10
-3.41877486724391
 20
2.56553044353927
 10
-2.838169186327259
 20
1.983236975596859
 42
0.0355000387476699
 10
-2.08666195064814
 20
1.324729153983849
 10
-1.87856917055079
 20
1.165804306614659
 42
0.351496130887849
 10
-1.424472418312149
 20
1.172277222642639
 10
-0.142735379598369
 20
2.21032110281963
 42
-0.0391707568069381
 10
0.0506388928327187
 20
2.34445747873749
 10
0.0937238592794682
 20
2.369828439820639
 42
-0.4825196787624461
 10
0.227233441352007
 20
2.316080308338939
 10
0.483734142256993
 20
1.400519157847599
 42
0.266798722530674
 10
0.644420093955973
 20
1.2377755366241
 10
0.6923908151349371
 20
1.22367553983083
 42
0.177384780216279
 10
0.9388783302509878
 20
1.23612500952034
 10
2.13325581395349
 20
1.72262790697674
 10
2.42545098039216
 20
1.86019607843137
 10
2.70164739988281
 20
1.987682845652979
 42
-0.0524985891094317
 10
2.80975245720414
 20
2.02506197271687
 10
2.858397260309979
 20
2.036624114853749
 42
0.0227265440825902
 10
2.968883887503499
 20
2.067970457966899
 10
3.01826881653716
 20
2.084310860231629
 42
0.4506735693186429
 10
3.04845663491981
 20
2.15636855022146
 10
2.51601715739478
 20
3.23698731521377
 42
-0.4604071030164471
 10
2.627130171860029
 20
3.489054990948679
 10
3.081280527709
 20
3.620940839995809
 42
-0.0396223549293791
 10
4.324968953425559
 20
3.882773383994259
 10
5.16022272727273
 20
3.993986363636359
 10
6.735549459285299
 20
4.144280493175779
 42
-0.0320351527491937
 10
8.138438961488759
 20
4.192523404441
 10
8.281862146532899
 20
4.188740780101279
 42
-0.171478785428689
 10
9.366685577370489
 20
3.790889573651019
 10
10.8908305744364
 20
2.56677913005191
 42
0.198128651166036
 10
11.8256455823305
 20
2.27660225205489
 10
12.419178165387
 20
2.321018727325479
 42
-0.0196967793974187
 10
12.5992931937173
 20
2.32774869109948
 10
12.7394764397906
 20
2.32774869109948
 10
13.8666050898743
 20
2.252478814327819
 42
0.4373884660242061
 10
14.0884557651859
 20
2.46446289804097
 10
13.8834572018711
 20
12.1311378409574
 10
13.8808294525258
 20
21.2892387010825
 42
0.708734703491226
 10
13.8256985342218
 20
21.3019533982882
 10
12.0634301036322
 20
17.6872043600523
 42
-0.5526333790419792
 10
11.8909705733632
 20
17.6752298393881
 10
11.1176323898886
 20
18.824603946346
 42
-0.0351508730169145
 10
9.607348130519509
 20
21.4283848595604
 10
7.050405277994599
 20
26.6027704654118
 42
-0.0317524918770796
 10
6.79758058255478
 20
27.2028417362951
 10
6.78097474583776
 20
27.2500036508759
 42
-0.0256144088981727
 10
6.59467005496161
 20
27.8743705914542
 10
6.279622296173049
 20
29.1539467554077
 10
6.251567781824981
 20
29.2454035764562
 42
-0.0975542978502704
 10
6.24147547758206
 20
29.3346024769459
 10
6.523416893732969
 20
33.2268773841962
  0
LWPOLYLINE
  5
B5D
330
1F
100
AcDbEntity
  8
Contour
100
AcDbPolyline
 90
        7
 70
     0
 43
0.0
 38
-3.0
 10
0.0160177102865229
 20
0.0380823244474118
 10
0.0396920646742261
 20
0.0821223624165762
 42
0.502463368353401
 10
0.0223798710499089
 20
0.117110121994096
 10
-0.117626268960149
 20
0.139500488856267
 42
0.721951953230374
 10
-0.134960108253517
 20
0.0935148877293673
 10
-0.0284273137985318
 20
0.0263733665109896
 42
0.432438927908606
 10
0.0160177102865229
 20
0.0380823244474118
  0
LWPOLYLINE
  5
B5E
330
1F
100
AcDbEntity
  8
Contour
100
AcDbPolyline
 90
        6
 70
     0
 43
0.0
 38
-3.0
 10
-0.0905384615384616
 20
0.8975128205128209
 10
0.0560834341437178
 20
1.50044474016912
 42
-0.612859099441056
 10
0.175392422505597
 20
1.520948471992209
 10
0.4449390566003621
 20
1.10857456024317
 42
-0.378959841937906
 10
0.417220627534914
 20
0.9113368171889749
 10
0.279285714285714
 20
0.7921468812877261
  0
LWPOLYLINE
  5
B5F
330
1F
100
AcDbEntity
  8
Contour
100
AcDbPolyline
 90
       10
 70
     0
 43
0.0
 38
-3.0
 10
2.628749527870729
 20
0.6607750686935079
 10
2.44976209553762
 20
1.215191458698539
 42
0.470983545378472
 10
2.268858353594839
 20
1.28441811182179
 10
2.09220434782609
 20
1.18149130434783
 10
1.797905673746739
 20
1.00802431645939
 42
0.5127062617119301
 10
1.783829528600899
 20
0.7951783035234551
 10
1.89527569112985
 20
0.7078454039207429
 42
0.148781146628351
 10
2.370479571684569
 20
0.516622942268855
 10
2.5016205311832
 20
0.503403009264143
 42
0.523052749808604
 10
2.628749527870729
 20
0.6607750686935079
  0
LWPOLYLINE
  5
B60
330
1F
100
AcDbEntity
  8
Contour
100
AcDbPolyline
 90
       10
 70
     0
 43
0.0
 38
-3.0
 10
-6.80616254416961
 20
-11.384593639576
 10
-5.134001453139499
 20
-12.3997102647726
 42
0.133638767807189
 10
-3.678462564097529
 20
-12.837560620457
 10
-2.66894074457152
 20
-12.8767607222666
 42
0.0699194223093269
 10
-0.9147971381763879
 20
-12.7118003079111
 10
-0.23086722679526
 20
-12.55430067555
 42
-0.421295420659023
 10
0.0469469228695418
 20
-12.73334675743
 10
3.127398689049159
 20
-27.9700578835983
 42
0.179062246279079
 10
3.5990103374219
 20
-28.7585990463475
 10
4.012562874251499
 20
-29.101497005988
  0
LWPOLYLINE
  5
B61
330
1F
100
AcDbEntity
  8
Contour
100
AcDbPolyline
 90
       11
 70
     0
 43
0.0
 38
-2.0
 10
2.08503043478261
 20
1.19083913043478
 10
1.61617135640357
 20
0.9144818810350358
 42
0.5127062617119301
 10
1.602095211257729
 20
0.7016358680991011
 10
1.805427543616399
 20
0.542297926218395
 42
0.148781146628351
 10
2.479011444176649
 20
0.271247169133133
 10
2.720910996815129
 20
0.2468619893084889
 42
0.523052749808604
 10
2.84803999350266
 20
0.4042340487378541
 10
2.577667425021239
 20
1.24171733692136
 42
0.470983545378472
 10
2.33302779285646
 20
1.33533388002983
 10
2.08503043478261
 20
1.19083913043478
 42
0.0013305459650231
 10
2.08503043478261
 20
1.19083913043478
  0
LWPOLYLINE
  5
B62
330
1F
100
AcDbEntity
  8
Contour
100
AcDbPolyline
 90
       14
 70
     0
 43
0.0
 38
-2.0
 10
0.061394709080581
 20
1.798873569747629
 10
-0.149186926765896
 20
0.9329293030025258
 42
0.13692540668179
 10
-0.14404731894086
 20
0.6891025567063989
 10
-0.109939718969424
 20
0.5708028810271079
 42
-0.175693024105879
 10
-0.115194569354963
 20
0.4706729202456401
 10
-0.133998800810783
 20
0.424343654339995
 42
0.4736607478017661
 10
-0.101578473398243
 20
0.3667291692430151
 10
0.0548966487915815
 20
0.341456555006171
 42
0.286686477048716
 10
0.137047076290054
 20
0.3745987575657621
 10
0.167056720353257
 20
0.4145915227014691
 42
0.0456184437570911
 10
0.221589650757911
 20
0.50210785391449
 10
0.29190047952679
 20
0.6402688497047371
 42
-0.0707475972014418
 10
0.331554659628111
 20
0.6976270519150899
 10
0.388931034482759
 20
0.760586206896552
  0
LWPOLYLINE
  5
B63
330
1F
100
AcDbEntity
  8
Contour
100
AcDbPolyline
 90
       50
 70
     0
 43
0.0
 38
-2.0
 10
0.130300211629548
 20
2.319856394235609
 10
0.0265904583645883
 20
2.25878599471981
 42
0.0391707568069377
 10
-0.0887079980218599
 20
2.17880784202055
 10
-1.738990093949809
 20
0.8422893686504409
 42
-0.351496130887849
 10
-2.193086846188459
 20
0.8358164526224619
 10
-2.261976437594509
 20
0.8884288872990028
 42
-0.0441333600131993
 10
-2.74293591684
 20
1.323991577835429
 10
-3.172002167399759
 20
1.783449161726269
 10
-3.92595703468921
 20
2.534431766156009
 10
-4.429087993115929
 20
3.00960248340714
 42
0.0776545901740367
 10
-4.79728443115897
 20
3.26671356557362
 10
-5.0452
 20
3.390266666666669
 10
-6.711899999999999
 20
4.143699999999999
 10
-6.89915854538504
 20
4.223278722444799
 42
-0.4320345594517461
 10
-6.97097600621721
 20
4.42016737656404
 10
-6.70811913104415
 20
4.93837561317449
 10
-5.461136148525659
 20
7.57840371314161
 10
-5.09012382470453
 20
8.486148188440139
 42
-0.470343730679817
 10
-4.83842414722998
 20
8.561524198613509
 10
-3.902085473091799
 20
7.919759057333799
 10
-0.422633144092998
 20
5.667039740470399
 10
-0.229543622482369
 20
5.545237894861129
 42
-0.320045901050673
 10
-0.115153235043038
 20
5.27557310832917
 10
-0.189152542372881
 20
4.920840677966099
 10
-0.371279069767442
 20
4.08834263565891
 10
-0.4920763692200971
 20
3.358467167826269
 42
0.3050719696433189
 10
-0.304266441186476
 20
2.93154378590307
 10
-0.0684583216290867
 20
2.77775381677037
 42
0.1393319449855
 10
0.0178328442033829
 20
2.749758194548509
 10
0.0677715306412603
 20
2.74728279622513
 42
0.435704175520452
 10
0.113201728608709
 20
2.79192221171941
 10
0.0895996634612274
 20
3.52994344388525
 42
-0.4480963621506071
 10
0.2770298313157249
 20
3.705648791140869
 10
0.336673162663367
 20
3.69987393264396
 42
0.5235795884881361
 10
0.462678971720225
 20
3.857443021538649
 10
0.323783873973725
 20
4.27908509966102
 42
-0.0338381172440693
 10
0.191980940003874
 20
4.786664481210679
 10
0.132947368421053
 20
5.09378947368421
 10
0.0911040808670148
 20
5.32474152695671
 42
0.176126269396024
 10
-0.0802474348980994
 20
5.62879691415936
 10
-2.97222785488949
 20
8.183998441487609
 42
-0.499790276640838
 10
-2.949388023329259
 20
8.410458588896089
 10
-1.35536671339608
 20
9.328685123536029
 42
0.469149218726864
 10
-1.31362834634637
 20
9.58961717565047
 10
-3.257231052244299
 20
11.75730316409119
 10
-4.67922503610961
 20
13.1816095580737
 42
0.183120808334435
 10
-5.172196016272139
 20
13.4130837939979
 10
-5.39344607310333
 20
13.4334457588132
 42
0.0329860269034339
 10
-5.627690893396309
 20
13.4402941018711
 10
-5.794999999999999
 20
13.4347176470588
  0
LWPOLYLINE
  5
B64
330
1F
100
AcDbEntity
  8
Contour
100
AcDbPolyline
 90
       27
 70
     0
 43
0.0
 38
-2.0
 10
2.105348837209299
 20
1.458674418604649
 10
2.52349019607843
 20
1.65553921568627
 10
2.908952906253679
 20
1.83346112682236
 42
-0.0524985891094317
 10
3.083922654944249
 20
1.89395983641743
 10
3.1325674580501
 20
1.90552197855432
 42
0.0227265440825897
 10
3.311391815325599
 20
1.95625653170823
 10
3.43747526808539
 20
1.997974812514439
 42
0.10995850300323
 10
3.464513488720839
 20
2.013745635286949
 10
3.50155374330087
 20
2.04733163744033
 42
-0.16913787616974
 10
3.52932942767373
 20
2.05959658695112
 10
4.10658883248731
 20
2.114670050761419
 10
7.13749967745324
 20
2.360378597247399
 42
-0.0282836754608042
 10
9.300455168865241
 20
2.419358522215529
 10
9.824027388698139
 20
2.40554989691039
 42
-0.171478785428689
 10
10.9088508195357
 20
2.007698690460139
 10
11.5624447097554
 20
1.48276759241455
 42
0.198128651166036
 10
12.1343787581015
 20
1.30523296238852
 10
12.1842393398463
 20
1.308964234030999
 42
-0.0196967793974189
 10
12.8270917803459
 20
1.332984293193719
 10
14.3465377903074
 20
1.332984293193719
 10
14.8951212189066
 20
1.29634978206975
 42
0.4373884660242061
 10
15.1169718942181
 20
1.508333865782899
 10
14.9957814111062
 20
7.22305199587569
 10
14.8718833418818
 20
17.5594868068616
 10
14.8700703726946
 20
23.8779565278672
 42
0.708734703491226
 10
14.8149394543906
 20
23.890671225073
 10
13.6075809541184
 20
21.4141484082824
  0
LWPOLYLINE
  5
B65
330
1F
100
AcDbEntity
  8
Contour
100
AcDbPolyline
 90
        9
 70
     0
 43
0.0
 38
-2.0
 10
-0.0091535524336291
 20
0.150785800359259
 10
-0.202811454145335
 20
0.18175638111216
 42
0.721951953230374
 10
-0.220145293438702
 20
0.13577077998526
 10
-0.0238259598194209
 20
0.0120419435155994
 42
-0.0777619279613234
 10
0.0154975283992235
 20
-0.0217444840346989
 10
0.0482233976052611
 20
-0.0595468316431388
 42
0.6305835918735311
 10
0.0663383371492274
 20
-0.0531713135760071
 10
0.0702796764210073
 20
0.0540989544400627
 42
0.382080632349799
 10
-0.0091535524336291
 20
0.150785800359259
  0
LWPOLYLINE
  5
B66
330
1F
100
AcDbEntity
  8
Contour
100
AcDbPolyline
 90
       19
 70
     0
 43
0.0
 38
-1.0
 10
11.9756638176638
 20
0.6062849002849
 10
12.2766589374752
 20
0.3645419753382939
 42
0.198128651166036
 10
12.3886257364792
 20
0.329786247306611
 10
12.438486318224
 20
0.333517518949089
 42
-0.0196967793974191
 10
12.5643367203863
 20
0.338219895287958
 10
15.9535991408243
 20
0.338219895287958
 10
16.0768962692973
 20
0.329986088378894
 42
0.4373884660242061
 10
16.1487446506182
 20
0.398639083278252
 10
16.1183325968478
 20
1.832714685520699
 10
15.8602004331225
 20
23.3678871032085
 10
15.8593112928634
 20
26.466674354652
 42
0.708734703491226
 10
15.8041803745594
 20
26.4793890518577
 10
15.3034191577232
 20
25.4522321809042
 42
-0.5526333790419792
 10
15.1309596274542
 20
25.4402576602401
 10
14.8560744205967
 20
25.848805881315
 42
-0.0376181341864684
 10
14.2449886076454
 20
26.9137867826249
 10
13.6103476826934
 20
28.2289249453471
 42
0.050565092655667
 10
13.1171462688511
 20
29.0415758803986
 10
12.8015540932411
 20
29.4642493865715
  0
LWPOLYLINE
  5
B67
330
1F
100
AcDbEntity
  8
Contour
100
AcDbPolyline
 90
        6
 70
     0
 43
0.0
 38
-1.0
 10
-0.010813953488372
 20
4.099660465116279
 10
-0.192693363682915
 20
3.000717689024689
 42
0.305071969643318
 10
-0.130446649668555
 20
2.859220495884509
 10
-0.088566287644025
 20
2.83190684953888
 42
0.562983915298625
 10
-0.0099790968985674
 20
2.87378157067271
 10
0.0070362116991645
 20
4.112484679665739
  0
LWPOLYLINE
  5
B68
330
1F
100
AcDbEntity
  8
Contour
100
AcDbPolyline
 90
       21
 70
     0
 43
0.0
 38
-1.0
 10
0.259882352941177
 20
0.467014705882353
 10
0.190085714285714
 20
0.379330158730159
 10
0.134457638121189
 20
0.301587264368263
 42
-0.2926627193087849
 10
0.0629133304216096
 20
0.271776884777266
 10
-0.218395555290786
 20
0.317211653260024
 42
-0.4736607478017661
 10
-0.281788856059402
 20
0.429868516218448
 10
-0.244089723099118
 20
0.5227504380046551
 42
0.175693024105879
 10
-0.238791185096539
 20
0.6237128562416111
 10
-0.252642729055607
 20
0.6717559070393071
 42
-0.13692540668179
 10
-0.254821757000605
 20
0.775130583085391
 10
-0.0052652634136951
 20
1.801345494855479
 42
-0.612859099441056
 10
0.114043724948184
 20
1.82184922667857
 10
0.155087441488706
 20
1.759057279751179
 42
0.7477939803543102
 10
0.187424960740971
 20
1.77373339663712
 10
0.115361924380205
 20
2.0309573194006
 42
0.520450634333495
 10
-0.0798516115583757
 20
2.093663100343199
 10
-2.16067399010833
 20
0.4246004628042199
 42
-0.3502563296519599
 10
-2.397554158105549
 20
0.421780813555579
 10
-2.43729092454087
 20
0.4521286206141611
 42
-0.0355000387476702
 10
-2.66304262922124
 20
0.6499434335881861
 10
-5.01277611940298
 20
3.006507462686569
  0
LWPOLYLINE
  5
B69
330
1F
100
AcDbEntity
  8
Contour
100
AcDbPolyline
 90
       24
 70
     0
 43
0.0
 38
-1.0
 10
-6.872436619718309
 20
0.0
 10
-5.704819147623259
 20
-0.978528420178682
 42
0.0457428405696095
 10
-5.00690275578798
 20
-1.4671311717553
 10
-4.96361279623428
 20
-1.49215075212426
 42
0.0188592981617238
 10
-4.2088687258199
 20
-1.89306750889933
 10
-0.256280991735537
 20
-3.814743801652889
 10
-0.105063219076316
 20
-3.877744678241219
 42
-0.0415271777750051
 10
0.0968983448023921
 20
-3.981223783859829
 10
1.31847476629196
 20
-4.733940772359169
 42
-0.126540504484351
 10
1.89066936365728
 20
-5.313939227369719
 10
1.91631993458834
 20
-5.35685831648995
 42
0.0545517065066335
 10
2.415973939347749
 20
-6.0249758544912
 10
3.275307735161309
 20
-6.9556538402734
 42
0.0326622924759089
 10
3.64700859755271
 20
-7.311281153939349
 10
3.685206518726359
 20
-7.343544427456009
 42
-0.184915859123654
 10
3.925220511460649
 20
-7.76390352877325
 10
4.1634046692607
 20
-9.166765239948118
 10
4.322382606936109
 20
-9.91244799179574
 42
0.042962023343123
 10
4.730539786362929
 20
-11.272688832363
 10
4.82580460818054
 20
-11.516152376491
 42
-0.0457489930041228
 10
5.345534242143569
 20
-13.282070541392
 10
6.36485388999037
 20
-18.3238891441001
 42
0.179062246279079
 10
6.929556850225718
 20
-19.2680802606858
 10
8.06565668662675
 20
-20.2100798403194
  0
LWPOLYLINE
  5
B6A
330
1F
100
AcDbEntity
  8
Contour
100
AcDbPolyline
 90
       11
 70
     0
 43
0.0
 38
-1.0
 10
-7.472230769230769
 20
6.0301282051282
 10
-6.16430653266332
 20
10.613767366243
 10
-5.86593676106611
 20
11.6148465612441
 42
-0.329044051918977
 10
-5.816731466852139
 20
11.6528166763532
 10
-5.766759216377669
 20
11.6544822640925
 42
-0.0329860269034343
 10
-5.69036202997084
 20
11.6522487285099
 10
-5.564367787529369
 20
11.6406532949617
 42
-0.191261124414292
 10
-5.37145950762595
 20
11.5464124832036
 10
-3.942531043736009
 20
10.0239453023167
 42
-0.4751530808144501
 10
-3.98019597078837
 20
9.769974496418448
 10
-4.665385321100919
 20
9.3752752293578
  0
LWPOLYLINE
  5
B6B
330
1F
100
AcDbEntity
  8
Contour
100
AcDbPolyline
 90
        4
 70
     0
 43
0.0
 38
-1.0
 10
0.0810175746924429
 20
-0.109764499121265
 10
0.0869537029223395
 20
0.0517973513791618
 42
0.382080632349799
 10
-0.0192156923742952
 20
0.181027701352287
 10
-0.409
 20
0.243363636363636
  0
LWPOLYLINE
  5
B6C
330
1F
100
AcDbEntity
  8
Index_Contour
100
AcDbPolyline
 90
        4
 70
     0
 43
0.0
 10
16.8424002937936
 20
29.19193977231
 10
16.8565500499479
 20
29.1570053428477
 42
0.6073289809125361
 10
16.8370876240685
 20
29.1576748577576
 10
16.8485161386198
 20
29.1811169232598
  0
LWPOLYLINE
  5
B6D
330
1F
100
AcDbEntity
  8
Index_Contour
100
AcDbPolyline
 90
        8
 70
     0
 43
0.0
 10
-2.59294583305262
 20
0.000813919019067
 10
-0.108328293309641
 20
2.012408219922389
 42
-0.6565596427456861
 10
-0.0329398380031863
 20
1.96468682199654
 10
-0.318362146744908
 20
0.7904953063069159
 42
-0.033643204093241
 10
-0.4128395351465261
 20
0.4874884558599601
 10
-0.430735475478209
 20
0.440800820241471
 42
0.4685110252444251
 10
-0.330665747548025
 20
0.266959759913255
 10
0.109864265927978
 20
0.195808864265928
  0
LWPOLYLINE
  5
B6E
330
1F
100
AcDbEntity
  8
Index_Contour
100
AcDbPolyline
 90
        4
 70
     0
 43
0.0
 10
-0.449701492537313
 20
-0.259492537313433
 10
-0.4769246438228241
 20
0.0450049820607622
 42
-0.466470924919433
 10
-0.285800395284205
 20
0.232374557234084
 10
0.108760539629005
 20
0.189193929173693
  0
LWPOLYLINE
  5
B6F
330
1F
100
AcDbEntity
  8
Index_Contour
100
AcDbPolyline
 90
        4
 70
     0
 43
0.0
 10
8.0956678700361
 20
-14.0552129963899
 10
8.107146745087169
 20
-14.1119904811494
 42
0.179062246279081
 10
8.114819056672441
 20
-14.1248186916469
 10
10.0922035928144
 20
-15.764371257485
  0
LWPOLYLINE
  5
B70
330
1F
100
AcDbEntity
  8
Contour
100
AcDbPolyline
 90
       11
 70
     0
 43
0.0
 38
1.0
 10
3.790769511233459
 20
-3.12625375533679
 10
4.20347456047119
 20
-3.38659958248781
 42
-0.519221690142124
 10
4.208325301626099
 20
-3.592878350882729
 10
4.11858333719294
 20
-3.65557417727139
 42
0.241864628692
 10
3.906204782590549
 20
-4.04213102357365
 10
3.86508059877993
 20
-4.980723340380699
 42
-0.669103073597044
 10
3.786892728116959
 20
-5.001381623686549
 10
3.124290693522739
 20
-3.94547237973204
 42
-0.334217502321321
 10
3.160289554491049
 20
-3.45529033342833
 10
3.38940779693668
 20
-3.18711746711916
 42
-0.376176612123892
 10
3.790769511233459
 20
-3.12625375533679
  0
LWPOLYLINE
  5
B71
330
1F
100
AcDbEntity
  8
Contour
100
AcDbPolyline
 90
        5
 70
     0
 43
0.0
 38
1.0
 10
5.87147343137724
 20
-6.71399676285511
 10
5.915830808552549
 20
-6.737071057863349
 42
0.82842712474619
 10
5.915830808552549
 20
-6.737071057863349
 10
5.87147343137724
 20
-6.71399676285511
 42
0.82842712474619
 10
5.87147343137724
 20
-6.71399676285511
  0
LWPOLYLINE
  5
B72
330
1F
100
AcDbEntity
  8
Contour
100
AcDbPolyline
 90
        9
 70
     0
 43
0.0
 38
2.0
 10
3.593398583148759
 20
-3.812313873733589
 10
3.530385120038029
 20
-3.71189688930197
 42
-0.3470403615781789
 10
3.53764496267596
 20
-3.63776628677383
 10
3.571933116934629
 20
-3.60137504500423
 42
-0.343788085936484
 10
3.645776560626249
 20
-3.58920946072879
 10
3.693446744286019
 20
-3.61454937739566
 42
-0.364146696219948
 10
3.723504779764799
 20
-3.68731125946439
 10
3.688881996704009
 20
-3.799748462680389
 42
-0.6018791057577701
 10
3.593398583148759
 20
-3.812313873733589
  0
VIEWPORT
  5
99C
102
{ACAD_XDICTIONARY
360
99D
102
}
330
5D
100
AcDbEntity
 67
     1
  8
0
100
AcDbViewport
 10
5.249999639556165
 20
3.999999883606678
 30
0.0
 40
23.78592304462909
 41
8.992999745766949
 68
     1
 69
     1
 12
5.249999639556165
 22
3.999999883606678
 13
0.0
 23
0.0
 14
0.5
 24
0.5
 15
0.5
 25
0.5
 16
0.0
 26
0.0
 36
1.0
 17
0.0
 27
0.0
 37
0.0
 42
50.0
 43
0.0
 44
0.0
 45
8.992999745766949
 50
0.0
 51
0.0
 72
  1000
 90
   819232
  1

281
     0
 71
     1
 74
     0
110
0.0
120
0.0
130
0.0
111
1.0
121
0.0
131
0.0
112
0.0
122
1.0
132
0.0
 79
     0
146
0.0
170
     0
 61
     5
348
9F
292
     1
282
     1
141
0.0
142
0.0
 63
   250
421
  3355443
  0
VIEWPORT
  5
9A1
102
{ACAD_XDICTIONARY
360
9A2
102
}
330
5D
100
AcDbEntity
 67
     1
  8
0
100
AcDbViewport
 10
5.249999761581421
 20
3.999999761581421
 30
0.0
 40
8.399999618530275
 41
6.399999618530274
 68
     2
 69
     2
 12
-1.062471177321143
 22
-0.2525382041569024
 13
0.0
 23
0.0
 14
0.5
 24
0.5
 15
0.5
 25
0.5
 16
0.0
 26
0.0
 36
268.0406273849637
 17
5.106717109680175
 27
1.213987350463867
 37
48.20000076293945
 42
50.0
 43
0.0
 44
0.0
 45
58.50711927261829
 50
0.0
 51
270.0
 72
  1000
 90
   819808
  1

281
     0
 71
     1
 74
     0
110
0.0
120
0.0
130
0.0
111
1.0
121
0.0
131
0.0
112
0.0
122
1.0
132
0.0
 79
     0
146
0.0
170
     0
 61
     5
348
9F
292
     1
282
     1
141
0.0
142
0.0
 63
   250
421
  3355443
  0
ENDSEC
  0
SECTION
  2
OBJECTS
  0
DICTIONARY
  5
C
330
0
100
AcDbDictionary
281
     1
  3
ACAD_BACKGROUND
350
438
  3
ACAD_CIP_PREVIOUS_PRODUCT_INFO
350
1A5
  3
ACAD_COLOR
350
73
  3
ACAD_DETAILVIEWSTYLE
350
1AB
  3
ACAD_GROUP
350
D
  3
ACAD_LAYOUT
350
1A
  3
ACAD_MATERIAL
350
72
  3
ACAD_MLEADERSTYLE
350
D7
  3
ACAD_MLINESTYLE
350
17
  3
ACAD_PLOTSETTINGS
350
19
  3
ACAD_PLOTSTYLENAME
350
E
  3
ACAD_SCALELIST
350
B6
  3
ACAD_SECTIONVIEWSTYLE
350
1A8
  3
ACAD_TABLESTYLE
350
86
  3
ACAD_VISUALSTYLE
350
99
  3
ACDB_RECOMPOSE_DATA
350
B88
  3
AcDbVariableDictionary
350
66
  0
DICTIONARY
  5
18E
330
2
100
AcDbDictionary
280
     1
281
     1
  3
ACAD_LAYERSTATES
360
18F
  0
DICTIONARY
  5
E6
330
10
100
AcDbDictionary
280
     1
281
     1
  0
DICTIONARY
  5
15D
330
1F
100
AcDbDictionary
280
     1
281
     1
  0
DICTIONARY
  5
99D
330
99C
100
AcDbDictionary
280
     1
281
     1
  3
ASDK_XREC_ANNOTATION_SCALE_INFO
360
99E
  0
DICTIONARY
  5
9A2
330
9A1
100
AcDbDictionary
280
     1
281
     1
  3
ASDK_XREC_ANNOTATION_SCALE_INFO
360
9A3
  0
DICTIONARY
  5
438
102
{ACAD_REACTORS
330
C
102
}
330
C
100
AcDbDictionary
281
     1
  0
XRECORD
  5
1A5
102
{ACAD_REACTORS
330
C
102
}
330
C
100
AcDbXrecord
280
     1
300
ACD
300
2017
300
ACD_F_S
  0
DICTIONARY
  5
73
102
{ACAD_REACTORS
330
C
102
}
330
C
100
AcDbDictionary
281
     1
  0
DICTIONARY
  5
1AB
102
{ACAD_REACTORS
330
C
102
}
330
C
100
AcDbDictionary
281
     1
  3
Imperial24
350
1AC
  0
DICTIONARY
  5
D
102
{ACAD_REACTORS
330
C
102
}
330
C
100
AcDbDictionary
281
     1
  0
DICTIONARY
  5
1A
102
{ACAD_REACTORS
330
C
102
}
330
C
100
AcDbDictionary
281
     1
  3
Layout1
350
59
  3
Layout2
350
5E
  3
Model
350
22
  0
DICTIONARY
  5
72
102
{ACAD_REACTORS
330
C
102
}
330
C
100
AcDbDictionary
281
     1
  3
ByBlock
350
97
  3
ByLayer
350
96
  3
Global
350
98
  0
DICTIONARY
  5
D7
102
{ACAD_REACTORS
330
C
102
}
330
C
100
AcDbDictionary
281
     1
  3
Annotative
350
E5
  3
Standard
350
D8
  0
DICTIONARY
  5
17
102
{ACAD_REACTORS
330
C
102
}
330
C
100
AcDbDictionary
281
     1
  3
Standard
350
18
  0
DICTIONARY
  5
19
102
{ACAD_REACTORS
330
C
102
}
330
C
100
AcDbDictionary
281
     1
  0
ACDBDICTIONARYWDFLT
  5
E
102
{ACAD_REACTORS
330
C
102
}
330
C
100
AcDbDictionary
281
     1
  3
Normal
350
F
100
AcDbDictionaryWithDefault
340
F
  0
DICTIONARY
  5
B6
102
{ACAD_REACTORS
330
C
102
}
330
C
100
AcDbDictionary
281
     1
  3
A0
350
B7
  3
A1
350
124
  3
A2
350
125
  3
A3
350
126
  3
A4
350
127
  3
A5
350
128
  3
A6
350
129
  3
A7
350
12A
  3
A8
350
12B
  3
A9
350
12C
  3
B0
350
12D
  3
B1
350
12E
  3
B2
350
12F
  3
B3
350
130
  3
B4
350
131
  3
B5
350
132
  3
B6
350
133
  3
B7
350
134
  3
B8
350
135
  3
B9
350
136
  3
C0
350
137
  3
C1
350
138
  3
C2
350
139
  3
C3
350
13A
  3
C4
350
13B
  3
C5
350
13C
  3
C6
350
13D
  3
C7
350
13E
  3
C8
350
13F
  3
C9
350
140
  3
D0
350
141
  3
D1
350
142
  3
D2
350
143
  0
DICTIONARY
  5
1A8
102
{ACAD_REACTORS
330
C
102
}
330
C
100
AcDbDictionary
281
     1
  3
Imperial24
350
1AA
  0
DICTIONARY
  5
86
102
{ACAD_REACTORS
330
C
102
}
330
C
100
AcDbDictionary
281
     1
  3
Standard
350
87
  0
DICTIONARY
  5
99
102
{ACAD_REACTORS
330
C
102
}
330
C
100
AcDbDictionary
281
     1
  3
2dWireframe
350
9F
  3
Basic
350
9E
  3
Brighten
350
A5
  3
ColorChange
350
A9
  3
Conceptual
350
A2
  3
Dim
350
A4
  3
EdgeColorOff
350
175
  3
Facepattern
350
A8
  3
Flat
350
9A
  3
FlatWithEdges
350
9B
  3
Gouraud
350
9C
  3
GouraudWithEdges
350
9D
  3
Hidden
350
A1
  3
JitterOff
350
173
  3
Linepattern
350
A7
  3
OverhangOff
350
174
  3
Realistic
350
A3
  3
Shaded
350
182
  3
Shaded with edges
350
181
  3
Shades of Gray
350
17E
  3
Sketchy
350
17F
  3
Thicken
350
A6
  3
Wireframe
350
A0
  3
X-Ray
350
180
  0
XRECORD
  5
B88
102
{ACAD_REACTORS
330
C
102
}
330
C
100
AcDbXrecord
280
     1
 90
        1
330
87
330
1AA
330
1AC
  0
DICTIONARY
  5
66
102
{ACAD_REACTORS
330
C
102
}
330
C
100
AcDbDictionary
281
     1
  3
CANNOSCALE
350
F0
  3
CMLEADERSTYLE
350
EF
  3
CTABLESTYLE
350
89
  3
CVIEWDETAILSTYLE
350
1B7
  3
CVIEWSECTIONSTYLE
350
1B8
  3
DIMASSOC
350
67
  3
HIDETEXT
350
6B
  3
LAYEREVAL
350
14D
  3
LAYERNOTIFY
350
14E
  0
DICTIONARY
  5
18F
102
{ACAD_REACTORS
330
18E
102
}
330
18E
100
AcDbDictionary
281
     1
  0
XRECORD
  5
99E
102
{ACAD_REACTORS
330
99D
102
}
330
99D
100
AcDbXrecord
280
     1
 90
        1
340
B7
  0
XRECORD
  5
9A3
102
{ACAD_REACTORS
330
9A2
102
}
330
9A2
100
AcDbXrecord
280
     1
 90
        1
340
B7
  0
ACDBDETAILVIEWSTYLE
  5
1AC
102
{ACAD_XDICTIONARY
360
1C6
102
}
102
{ACAD_REACTORS
330
1AB
102
}
330
1AB
100
AcDbModelDocViewStyle
 70
     0
  3
Imperial24
290
     0
100
AcDbDetailViewStyle
 70
     0
 71
     0
 90
        3
 71
     1
340
11
 62
   256
 40
0.24
340
0
 62
   256
 40
0.24
300

 40
0.36
280
     3
 71
     2
340
16
 90
       25
 62
   256
 71
     3
340
11
 62
   256
 40
0.24
 90
        1
 40
0.75
 90
        1
300
%<\AcVar ViewType \f "%tc1">% %<\AcVar ViewDetailId>%\PSCALE %<\AcVar ViewScale \f "%sn">%
 71
     4
340
16
 90
       25
 62
   256
340
16
 90
       25
 62
   256
280
     0
  0
LAYOUT
  5
59
102
{ACAD_REACTORS
330
1A
102
}
330
1A
100
AcDbPlotSettings
  1

  2
None
  4

  6

 40
0.0
 41
0.0
 42
0.0
 43
0.0
 44
0.0
 45
0.0
 46
0.0
 47
0.0
 48
0.0
 49
0.0
140
0.0
141
0.0
142
1.0
143
1.0
 70
   688
 72
     0
 73
     0
 74
     5
  7

 75
    16
147
1.0
 76
     0
 77
     2
 78
   300
148
0.0
149
0.0
100
AcDbLayout
  1
Layout1
 70
     1
 71
     1
 10
0.0
 20
0.0
 11
12.0
 21
9.0
 12
0.0
 22
0.0
 32
0.0
 14
0.0
 24
0.0
 34
0.0
 15
0.0
 25
0.0
 35
0.0
146
0.0
 13
0.0
 23
0.0
 33
0.0
 16
1.0
 26
0.0
 36
0.0
 17
0.0
 27
1.0
 37
0.0
 76
     0
330
58
  0
LAYOUT
  5
5E
102
{ACAD_REACTORS
330
1A
102
}
330
1A
100
AcDbPlotSettings
  1

  2
None
  4
Letter_(8.50_x_11.00_Inches)
  6

 40
6.349999904632568
 41
6.349999904632568
 42
6.350006103515625
 43
6.350006103515625
 44
215.8999938964844
 45
279.3999938964844
 46
0.0
 47
0.0
 48
0.0
 49
0.0
140
0.0
141
0.0
142
1.0
143
1.0
 70
   688
 72
     0
 73
     1
 74
     5
  7

 75
    16
147
1.0
 76
     0
 77
     2
 78
   300
148
0.0
149
0.0
100
AcDbLayout
  1
Layout2
 70
     1
 71
     2
 10
-0.2500002402958907
 20
-0.2499999962453767
 11
10.74999951940822
 21
8.249999763458733
 12
0.0
 22
0.0
 32
0.0
 14
1.049999952316284
 24
0.7999999523162842
 34
0.0
 15
9.449999570846559
 25
7.199999570846558
 35
0.0
146
0.0
 13
0.0
 23
0.0
 33
0.0
 16
1.0
 26
0.0
 36
0.0
 17
0.0
 27
1.0
 37
0.0
 76
     0
330
5D
331
99C
1001
ACAD_PSEXT
1000
None
1000
None
1000
Not applicable
1000
The layout will not be plotted unless a new plotter configuration name is selected.
1070
     0
  0
LAYOUT
  5
22
102
{ACAD_XDICTIONARY
360
194
102
}
102
{ACAD_REACTORS
330
1A
102
}
330
1A
100
AcDbPlotSettings
  1

  2
none_device
  4
ANSI_A_(8.50_x_11.00_Inches)
  6

 40
6.349999904632568
 41
19.04999923706055
 42
6.350006103515625
 43
19.04998779296875
 44
215.8999938964844
 45
279.3999938964844
 46
0.0
 47
0.0
 48
0.0
 49
0.0
140
0.0
141
0.0
142
1.0
143
2.584895464708373
 70
 11952
 72
     0
 73
     1
 74
     0
  7

 75
     0
147
0.3868628397755418
 76
     0
 77
     2
 78
   300
148
0.0
149
0.0
100
AcDbLayout
  1
Model
 70
     1
 71
     0
 10
0.0
 20
0.0
 11
12.0
 21
9.0
 12
0.0
 22
0.0
 32
0.0
 14
0.0
 24
0.0
 34
0.0
 15
0.0
 25
0.0
 35
0.0
146
0.0
 13
0.0
 23
0.0
 33
0.0
 16
1.0
 26
0.0
 36
0.0
 17
0.0
 27
1.0
 37
0.0
 76
     0
330
1F
331
94
  0
MATERIAL
  5
97
102
{ACAD_XDICTIONARY
360
188
102
}
102
{ACAD_REACTORS
330
72
102
}
330
72
100
AcDbMaterial
  1
ByBlock
 94
       63
  0
MATERIAL
  5
96
102
{ACAD_XDICTIONARY
360
186
102
}
102
{ACAD_REACTORS
330
72
102
}
330
72
100
AcDbMaterial
  1
ByLayer
 94
       63
  0
MATERIAL
  5
98
102
{ACAD_XDICTIONARY
360
110
102
}
102
{ACAD_REACTORS
330
72
102
}
330
72
100
AcDbMaterial
  1
Global
 43
0.0208000000566244
 43
0.0
 43
0.0
 43
0.0
 43
0.0
 43
0.0208000000566244
 43
0.0
 43
0.0
 43
0.0
 43
0.0
 43
1.0
 43
0.0
 43
0.0
 43
0.0
 43
0.0
 43
1.0
 49
0.0208000000566244
 49
0.0
 49
0.0
 49
0.0
 49
0.0
 49
0.0208000000566244
 49
0.0
 49
0.0
 49
0.0
 49
0.0
 49
1.0
 49
0.0
 49
0.0
 49
0.0
 49
0.0
 49
1.0
142
0.0208000000566244
142
0.0
142
0.0
142
0.0
142
0.0
142
0.0208000000566244
142
0.0
142
0.0
142
0.0
142
0.0
142
1.0
142
0.0
142
0.0
142
0.0
142
0.0
142
1.0
144
0.0208000000566244
144
0.0
144
0.0
144
0.0
144
0.0
144
0.0208000000566244
144
0.0
144
0.0
144
0.0
144
0.0
144
1.0
144
0.0
144
0.0
144
0.0
144
0.0
144
1.0
 94
       63
1001
ACAD
1070
    -1
1070
     3
1070
     0
1000

1071
        0
1070
     0
  0
MLEADERSTYLE
  5
E5
102
{ACAD_REACTORS
330
D7
102
}
330
D7
100
AcDbMLeaderStyle
179
     2
170
     2
171
     1
172
     0
 90
        2
 40
0.0
 41
0.0
173
     1
 91
-1056964608
340
14
 92
       -2
290
     1
 42
0.09
291
     1
 43
0.36
  3
Standard
 44
0.18
300

342
11
174
     1
178
     1
175
     1
176
     0
 93
-1056964608
 45
0.18
292
     0
297
     0
 46
0.18
 94
-1056964608
 47
1.0
 49
1.0
140
1.0
293
     1
141
0.0
294
     1
177
     0
142
1.0
295
     0
296
     1
143
0.125
271
     0
272
     9
273
     9
298
     0
  0
MLEADERSTYLE
  5
D8
102
{ACAD_REACTORS
330
D7
102
}
330
D7
100
AcDbMLeaderStyle
179
     2
170
     2
171
     1
172
     0
 90
        2
 40
0.0
 41
0.0
173
     1
 91
-1056964608
340
14
 92
       -2
290
     1
 42
0.09
291
     1
 43
0.36
  3
Standard
 44
0.18
300

342
11
174
     1
178
     1
175
     1
176
     0
 93
-1056964608
 45
0.18
292
     0
297
     0
 46
0.18
 94
-1056964608
 47
1.0
 49
1.0
140
1.0
293
     1
141
0.0
294
     1
177
     0
142
1.0
295
     0
296
     0
143
0.125
271
     0
272
     9
273
     9
298
     0
  0
MLINESTYLE
  5
18
102
{ACAD_REACTORS
330
17
102
}
330
17
100
AcDbMlineStyle
  2
STANDARD
 70
     0
  3

 62
   256
 51
90.0
 52
90.0
 71
     2
 49
0.5
 62
   256
  6
BYLAYER
 49
-0.5
 62
   256
  6
BYLAYER
  0
ACDBPLACEHOLDER
  5
F
102
{ACAD_REACTORS
330
E
102
}
330
E
  0
SCALE
  5
B7
102
{ACAD_REACTORS
330
B6
102
}
330
B6
100
AcDbScale
 70
     0
300
1:1
140
1.0
141
1.0
290
     1
  0
SCALE
  5
124
102
{ACAD_REACTORS
330
B6
102
}
330
B6
100
AcDbScale
 70
     0
300
1:2
140
1.0
141
2.0
290
     0
  0
SCALE
  5
125
102
{ACAD_REACTORS
330
B6
102
}
330
B6
100
AcDbScale
 70
     0
300
1:4
140
1.0
141
4.0
290
     0
  0
SCALE
  5
126
102
{ACAD_REACTORS
330
B6
102
}
330
B6
100
AcDbScale
 70
     0
300
1:5
140
1.0
141
5.0
290
     0
  0
SCALE
  5
127
102
{ACAD_REACTORS
330
B6
102
}
330
B6
100
AcDbScale
 70
     0
300
1:8
140
1.0
141
8.0
290
     0
  0
SCALE
  5
128
102
{ACAD_REACTORS
330
B6
102
}
330
B6
100
AcDbScale
 70
     0
300
1:10
140
1.0
141
10.0
290
     0
  0
SCALE
  5
129
102
{ACAD_REACTORS
330
B6
102
}
330
B6
100
AcDbScale
 70
     0
300
1:16
140
1.0
141
16.0
290
     0
  0
SCALE
  5
12A
102
{ACAD_REACTORS
330
B6
102
}
330
B6
100
AcDbScale
 70
     0
300
1:20
140
1.0
141
20.0
290
     0
  0
SCALE
  5
12B
102
{ACAD_REACTORS
330
B6
102
}
330
B6
100
AcDbScale
 70
     0
300
1:30
140
1.0
141
30.0
290
     0
  0
SCALE
  5
12C
102
{ACAD_REACTORS
330
B6
102
}
330
B6
100
AcDbScale
 70
     0
300
1:40
140
1.0
141
40.0
290
     0
  0
SCALE
  5
12D
102
{ACAD_REACTORS
330
B6
102
}
330
B6
100
AcDbScale
 70
     0
300
1:50
140
1.0
141
50.0
290
     0
  0
SCALE
  5
12E
102
{ACAD_REACTORS
330
B6
102
}
330
B6
100
AcDbScale
 70
     0
300
1:100
140
1.0
141
100.0
290
     0
  0
SCALE
  5
12F
102
{ACAD_REACTORS
330
B6
102
}
330
B6
100
AcDbScale
 70
     0
300
2:1
140
2.0
141
1.0
290
     0
  0
SCALE
  5
130
102
{ACAD_REACTORS
330
B6
102
}
330
B6
100
AcDbScale
 70
     0
300
4:1
140
4.0
141
1.0
290
     0
  0
SCALE
  5
131
102
{ACAD_REACTORS
330
B6
102
}
330
B6
100
AcDbScale
 70
     0
300
8:1
140
8.0
141
1.0
290
     0
  0
SCALE
  5
132
102
{ACAD_REACTORS
330
B6
102
}
330
B6
100
AcDbScale
 70
     0
300
10:1
140
10.0
141
1.0
290
     0
  0
SCALE
  5
133
102
{ACAD_REACTORS
330
B6
102
}
330
B6
100
AcDbScale
 70
     0
300
100:1
140
100.0
141
1.0
290
     0
  0
SCALE
  5
134
102
{ACAD_REACTORS
330
B6
102
}
330
B6
100
AcDbScale
 70
     0
300
1/128" = 1'-0"
140
0.0078125
141
12.0
290
     0
  0
SCALE
  5
135
102
{ACAD_REACTORS
330
B6
102
}
330
B6
100
AcDbScale
 70
     0
300
1/64" = 1'-0"
140
0.015625
141
12.0
290
     0
  0
SCALE
  5
136
102
{ACAD_REACTORS
330
B6
102
}
330
B6
100
AcDbScale
 70
     0
300
1/32" = 1'-0"
140
0.03125
141
12.0
290
     0
  0
SCALE
  5
137
102
{ACAD_REACTORS
330
B6
102
}
330
B6
100
AcDbScale
 70
     0
300
1/16" = 1'-0"
140
0.0625
141
12.0
290
     0
  0
SCALE
  5
138
102
{ACAD_REACTORS
330
B6
102
}
330
B6
100
AcDbScale
 70
     0
300
3/32" = 1'-0"
140
0.09375
141
12.0
290
     0
  0
SCALE
  5
139
102
{ACAD_REACTORS
330
B6
102
}
330
B6
100
AcDbScale
 70
     0
300
1/8" = 1'-0"
140
0.125
141
12.0
290
     0
  0
SCALE
  5
13A
102
{ACAD_REACTORS
330
B6
102
}
330
B6
100
AcDbScale
 70
     0
300
3/16" = 1'-0"
140
0.1875
141
12.0
290
     0
  0
SCALE
  5
13B
102
{ACAD_REACTORS
330
B6
102
}
330
B6
100
AcDbScale
 70
     0
300
1/4" = 1'-0"
140
0.25
141
12.0
290
     0
  0
SCALE
  5
13C
102
{ACAD_REACTORS
330
B6
102
}
330
B6
100
AcDbScale
 70
     0
300
3/8" = 1'-0"
140
0.375
141
12.0
290
     0
  0
SCALE
  5
13D
102
{ACAD_REACTORS
330
B6
102
}
330
B6
100
AcDbScale
 70
     0
300
1/2" = 1'-0"
140
0.5
141
12.0
290
     0
  0
SCALE
  5
13E
102
{ACAD_REACTORS
330
B6
102
}
330
B6
100
AcDbScale
 70
     0
300
3/4" = 1'-0"
140
0.75
141
12.0
290
     0
  0
SCALE
  5
13F
102
{ACAD_REACTORS
330
B6
102
}
330
B6
100
AcDbScale
 70
     0
300
1" = 1'-0"
140
1.0
141
12.0
290
     0
  0
SCALE
  5
140
102
{ACAD_REACTORS
330
B6
102
}
330
B6
100
AcDbScale
 70
     0
300
1-1/2" = 1'-0"
140
1.5
141
12.0
290
     0
  0
SCALE
  5
141
102
{ACAD_REACTORS
330
B6
102
}
330
B6
100
AcDbScale
 70
     0
300
3" = 1'-0"
140
3.0
141
12.0
290
     0
  0
SCALE
  5
142
102
{ACAD_REACTORS
330
B6
102
}
330
B6
100
AcDbScale
 70
     0
300
6" = 1'-0"
140
6.0
141
12.0
290
     0
  0
SCALE
  5
143
102
{ACAD_REACTORS
330
B6
102
}
330
B6
100
AcDbScale
 70
     0
300
1'-0" = 1'-0"
140
12.0
141
12.0
290
     0
  0
ACDBSECTIONVIEWSTYLE
  5
1AA
102
{ACAD_XDICTIONARY
360
1C4
102
}
102
{ACAD_REACTORS
330
1A8
102
}
330
1A8
100
AcDbModelDocViewStyle
 70
     0
  3
Imperial24
290
     0
100
AcDbSectionViewStyle
 70
     0
 71
     0
 90
       78
 71
     1
340
11
 62
   256
 40
0.24
340
0
340
0
 62
   256
 40
0.24
300
I, O, Q, S, X, Z
 40
0.48
 90
        3
 40
0.18
 90
        1
 71
     2
340
16
 90
       25
 62
   256
340
16
 90
       50
 62
   256
 40
0.24
 40
0.0
 40
0.24
 71
     3
340
11
 62
   256
 40
0.24
 90
        1
 40
0.75
 90
        1
300
%<\AcVar ViewType \f "%tc1">% %<\AcVar ViewSectionStartId>%-%<\AcVar ViewSectionEndId>%\PSCALE %<\AcVar ViewScale \f "%sn">%
 71
     4
 62
   256
 62
   257
300
ANSI31
 40
1.0
 90
        0
290
     0
290
     0
 90
        6
 40
0.0
 40
1.570796326794896
 40
0.2617993877991494
 40
1.308996938995747
 40
-0.2617993877991494
 40
1.832595714594046
  0
TABLESTYLE
  5
87
102
{ACAD_XDICTIONARY
360
104
102
}
102
{ACAD_REACTORS
330
86
102
}
330
86
100
AcDbTableStyle
280
     0
  3
Standard
 70
     0
 71
     0
 40
0.06
 41
0.06
280
     0
281
     0
  7
Standard
140
0.18
170
     2
 62
     0
 63
     7
283
     0
 90
      512
 91
        0
  1

274
    -2
284
     1
 64
     0
275
    -2
285
     1
 65
     0
276
    -2
286
     1
 66
     0
277
    -2
287
     1
 67
     0
278
    -2
288
     1
 68
     0
279
    -2
289
     1
 69
     0
  7
Standard
140
0.25
170
     5
 62
     0
 63
     7
283
     0
 90
      512
 91
        0
  1

274
    -2
284
     1
 64
     0
275
    -2
285
     1
 65
     0
276
    -2
286
     1
 66
     0
277
    -2
287
     1
 67
     0
278
    -2
288
     1
 68
     0
279
    -2
289
     1
 69
     0
  7
Standard
140
0.18
170
     5
 62
     0
 63
     7
283
     0
 90
      512
 91
        0
  1

274
    -2
284
     1
 64
     0
275
    -2
285
     1
 65
     0
276
    -2
286
     1
 66
     0
277
    -2
287
     1
 67
     0
278
    -2
288
     1
 68
     0
279
    -2
289
     1
 69
     0
  0
VISUALSTYLE
  5
9F
102
{ACAD_REACTORS
330
99
102
}
330
99
100
AcDbVisualStyle
  2
2dWireframe
 70
     4
177
     3
291
     0
 70
    58
 90
        0
176
     1
 90
        2
176
     1
 90
        1
176
     1
 90
        0
176
     1
 40
0.6
176
     1
 40
30.0
176
     1
 62
     7
420
 16777215
176
     1
 90
        1
176
     1
 90
        4
176
     1
 62
     7
176
     1
 62
   257
176
     1
 90
        1
176
     1
 90
        1
176
     1
 40
1.0
176
     1
 90
        0
176
     1
 62
   257
176
     1
 40
1.0
176
     1
 90
        1
176
     1
 90
        6
176
     1
 90
        2
176
     1
 62
     7
176
     1
 90
        5
176
     1
 90
        0
176
     1
 90
        0
176
     1
290
     0
176
     1
 90
        1
176
     1
 40
0.0
176
     1
 90
        0
176
     1
290
     1
176
     1
290
     1
176
     1
290
     0
176
     1
290
     0
176
     1
290
     0
176
     1
290
     0
176
     1
290
     0
176
     1
290
     0
176
     1
290
     0
176
     1
 90
       50
176
     1
 40
0.0
176
     1
 40
1.0
176
     1
 90
        0
176
     1
 62
    18
420
        0
176
     1
 90
       50
176
     1
 90
        3
176
     1
 62
     5
420
      255
176
     1
290
     0
176
     1
 90
       50
176
     1
 90
       50
176
     1
 90
       50
176
     1
290
     0
176
     1
 90
       50
176
     1
 62
   256
176
     0
 40
1.0
176
     0
 90
        2
176
     1
  1
strokes_ogs.tif
176
     1
290
     0
176
     1
 40
1.0
176
     1
 40
1.0
176
     1
  0
VISUALSTYLE
  5
9E
102
{ACAD_REACTORS
330
99
102
}
330
99
100
AcDbVisualStyle
  2
Basic
 70
     7
177
     3
291
     1
 70
    58
 90
        1
176
     1
 90
        0
176
     1
 90
        1
176
     1
 90
        0
176
     1
 40
0.6
176
     1
 40
30.0
176
     1
 62
     7
420
 16777215
176
     1
 90
        0
176
     1
 90
        4
176
     1
 62
     7
176
     1
 62
   257
176
     1
 90
        1
176
     1
 90
        1
176
     1
 40
1.0
176
     1
 90
        8
176
     1
 62
     7
176
     1
 40
1.0
176
     1
 90
        1
176
     1
 90
        6
176
     1
 90
        2
176
     1
 62
     7
176
     1
 90
        5
176
     1
 90
        0
176
     1
 90
        0
176
     1
290
     0
176
     1
 90
        1
176
     1
 40
0.0
176
     1
 90
        0
176
     1
290
     0
176
     1
290
     1
176
     1
290
     1
176
     1
290
     0
176
     1
290
     0
176
     1
290
     0
176
     1
290
     0
176
     1
290
     0
176
     1
290
     0
176
     1
 90
       50
176
     1
 40
0.0
176
     1
 40
1.0
176
     1
 90
        0
176
     1
 62
    18
420
        0
176
     1
 90
       50
176
     1
 90
        3
176
     1
 62
     5
420
      255
176
     1
290
     0
176
     1
 90
       50
176
     1
 90
       50
176
     1
 90
       50
176
     1
290
     0
176
     1
 90
       50
176
     1
 62
   256
176
     0
 40
1.0
176
     0
 90
        2
176
     1
  1
strokes_ogs.tif
176
     1
290
     0
176
     1
 40
1.0
176
     1
 40
1.0
176
     1
  0
VISUALSTYLE
  5
A5
102
{ACAD_REACTORS
330
99
102
}
330
99
100
AcDbVisualStyle
  2
Brighten
 70
    12
177
     3
291
     1
 70
    58
 90
        2
176
     1
 90
        2
176
     1
 90
        1
176
     1
 90
        0
176
     1
 40
0.6
176
     1
 40
30.0
176
     1
 62
     7
420
 16777215
176
     1
 90
        1
176
     1
 90
        4
176
     1
 62
     7
176
     1
 62
   257
176
     1
 90
        1
176
     1
 90
        1
176
     1
 40
1.0
176
     1
 90
        8
176
     1
 62
     7
176
     1
 40
1.0
176
     1
 90
        1
176
     1
 90
        6
176
     1
 90
        2
176
     1
 62
     7
176
     1
 90
        5
176
     1
 90
        0
176
     1
 90
        0
176
     1
290
     0
176
     1
 90
        1
176
     1
 40
50.0
176
     1
 90
        0
176
     1
290
     0
176
     1
290
     1
176
     1
290
     1
176
     1
290
     0
176
     1
290
     0
176
     1
290
     0
176
     1
290
     0
176
     1
290
     0
176
     1
290
     0
176
     1
 90
       50
176
     1
 40
0.0
176
     1
 40
1.0
176
     1
 90
        0
176
     1
 62
    18
420
        0
176
     1
 90
       50
176
     1
 90
        3
176
     1
 62
     5
420
      255
176
     1
290
     0
176
     1
 90
       50
176
     1
 90
       50
176
     1
 90
       50
176
     1
290
     0
176
     1
 90
       50
176
     1
 62
   256
176
     0
 40
1.0
176
     0
 90
        2
176
     1
  1
strokes_ogs.tif
176
     1
290
     0
176
     1
 40
1.0
176
     1
 40
1.0
176
     1
  0
VISUALSTYLE
  5
A9
102
{ACAD_REACTORS
330
99
102
}
330
99
100
AcDbVisualStyle
  2
ColorChange
 70
    16
177
     3
291
     1
 70
    58
 90
        2
176
     1
 90
        2
176
     1
 90
        3
176
     1
 90
        0
176
     1
 40
0.6
176
     1
 40
30.0
176
     1
 62
     8
420
  8421504
176
     1
 90
        1
176
     1
 90
        4
176
     1
 62
     7
176
     1
 62
   257
176
     1
 90
        1
176
     1
 90
        1
176
     1
 40
1.0
176
     1
 90
        8
176
     1
 62
     8
420
  8421504
176
     1
 40
1.0
176
     1
 90
        1
176
     1
 90
        6
176
     1
 90
        2
176
     1
 62
     7
176
     1
 90
        5
176
     1
 90
        0
176
     1
 90
        0
176
     1
290
     0
176
     1
 90
        1
176
     1
 40
0.0
176
     1
 90
        0
176
     1
290
     0
176
     1
290
     1
176
     1
290
     1
176
     1
290
     0
176
     1
290
     0
176
     1
290
     0
176
     1
290
     0
176
     1
290
     0
176
     1
290
     0
176
     1
 90
       50
176
     1
 40
0.0
176
     1
 40
1.0
176
     1
 90
        0
176
     1
 62
    18
420
        0
176
     1
 90
       50
176
     1
 90
        3
176
     1
 62
     5
420
      255
176
     1
290
     0
176
     1
 90
       50
176
     1
 90
       50
176
     1
 90
       50
176
     1
290
     0
176
     1
 90
       50
176
     1
 62
   256
176
     0
 40
1.0
176
     0
 90
        2
176
     1
  1
strokes_ogs.tif
176
     1
290
     0
176
     1
 40
1.0
176
     1
 40
1.0
176
     1
  0
VISUALSTYLE
  5
A2
102
{ACAD_REACTORS
330
99
102
}
330
99
100
AcDbVisualStyle
  2
Conceptual
 70
     9
177
     3
291
     0
 70
    58
 90
        3
176
     1
 90
        2
176
     1
 90
        1
176
     1
 90
        0
176
     1
 40
0.6
176
     1
 40
30.0
176
     1
 62
     7
420
 16777215
176
     1
 90
        2
176
     1
 90
        2
176
     1
 62
     7
176
     1
 62
   257
176
     1
 90
        1
176
     1
 90
        1
176
     1
 40
40.0
176
     1
 90
        8
176
     1
 62
     7
176
     1
 40
1.0
176
     1
 90
        1
176
     1
 90
        6
176
     1
 90
        2
176
     1
 62
     7
176
     1
 90
        3
176
     1
 90
        0
176
     1
 90
        0
176
     1
290
     0
176
     1
 90
        1
176
     1
 40
0.0
176
     1
 90
        0
176
     1
290
     0
176
     1
290
     1
176
     1
290
     1
176
     1
290
     0
176
     1
290
     0
176
     1
290
     0
176
     1
290
     0
176
     1
290
     0
176
     1
290
     0
176
     1
 90
       50
176
     1
 40
0.0
176
     1
 40
1.0
176
     1
 90
        0
176
     1
 62
    18
420
        0
176
     1
 90
       50
176
     1
 90
        3
176
     1
 62
     5
420
      255
176
     1
290
     0
176
     1
 90
       50
176
     1
 90
       50
176
     1
 90
       50
176
     1
290
     0
176
     1
 90
       50
176
     1
 62
   256
176
     0
 40
1.0
176
     0
 90
        2
176
     1
  1
strokes_ogs.tif
176
     1
290
     0
176
     1
 40
1.0
176
     1
 40
1.0
176
     1
  0
VISUALSTYLE
  5
A4
102
{ACAD_REACTORS
330
99
102
}
330
99
100
AcDbVisualStyle
  2
Dim
 70
    11
177
     3
291
     1
 70
    58
 90
        2
176
     1
 90
        2
176
     1
 90
        1
176
     1
 90
        0
176
     1
 40
0.6
176
     1
 40
30.0
176
     1
 62
     7
420
 16777215
176
     1
 90
        1
176
     1
 90
        4
176
     1
 62
     7
176
     1
 62
   257
176
     1
 90
        1
176
     1
 90
        1
176
     1
 40
1.0
176
     1
 90
        8
176
     1
 62
     7
176
     1
 40
1.0
176
     1
 90
        1
176
     1
 90
        6
176
     1
 90
        2
176
     1
 62
     7
176
     1
 90
        5
176
     1
 90
        0
176
     1
 90
        0
176
     1
290
     0
176
     1
 90
        1
176
     1
 40
-50.0
176
     1
 90
        0
176
     1
290
     0
176
     1
290
     1
176
     1
290
     1
176
     1
290
     0
176
     1
290
     0
176
     1
290
     0
176
     1
290
     0
176
     1
290
     0
176
     1
290
     0
176
     1
 90
       50
176
     1
 40
0.0
176
     1
 40
1.0
176
     1
 90
        0
176
     1
 62
    18
420
        0
176
     1
 90
       50
176
     1
 90
        3
176
     1
 62
     5
420
      255
176
     1
290
     0
176
     1
 90
       50
176
     1
 90
       50
176
     1
 90
       50
176
     1
290
     0
176
     1
 90
       50
176
     1
 62
   256
176
     0
 40
1.0
176
     0
 90
        2
176
     1
  1
strokes_ogs.tif
176
     1
290
     0
176
     1
 40
1.0
176
     1
 40
1.0
176
     1
  0
VISUALSTYLE
  5
175
102
{ACAD_REACTORS
330
99
102
}
330
99
100
AcDbVisualStyle
  2
EdgeColorOff
 70
    22
177
     3
291
     1
 70
    58
 90
        2
176
     0
 90
        2
176
     0
 90
        0
176
     0
 90
        0
176
     0
 40
0.6
176
     0
 40
30.0
176
     0
 62
     7
420
 16777215
176
     0
 90
        1
176
     0
 90
        4
176
     0
 62
     7
176
     0
 62
   257
176
     0
 90
        1
176
     0
 90
        1
176
     0
 40
1.0
176
     0
 90
        8
176
     2
 62
     7
176
     0
 40
1.0
176
     0
 90
        1
176
     0
 90
        6
176
     0
 90
        2
176
     0
 62
     7
176
     0
 90
        5
176
     0
 90
        0
176
     0
 90
        0
176
     0
290
     0
176
     0
 90
        1
176
     0
 40
0.0
176
     0
 90
        0
176
     0
290
     0
176
     1
290
     1
176
     1
290
     1
176
     1
290
     0
176
     1
290
     0
176
     1
290
     0
176
     1
290
     0
176
     1
290
     0
176
     1
290
     0
176
     1
 90
       50
176
     1
 40
0.0
176
     1
 40
1.0
176
     1
 90
        0
176
     1
 62
    18
420
        0
176
     1
 90
       50
176
     1
 90
        3
176
     1
 62
     5
420
      255
176
     1
290
     0
176
     1
 90
       50
176
     1
 90
       50
176
     1
 90
       50
176
     1
290
     0
176
     1
 90
       50
176
     1
 62
   256
176
     0
 40
1.0
176
     0
 90
        2
176
     1
  1
strokes_ogs.tif
176
     1
290
     0
176
     1
 40
1.0
176
     1
 40
1.0
176
     1
  0
VISUALSTYLE
  5
A8
102
{ACAD_REACTORS
330
99
102
}
330
99
100
AcDbVisualStyle
  2
Facepattern
 70
    15
177
     3
291
     1
 70
    58
 90
        2
176
     1
 90
        2
176
     1
 90
        1
176
     1
 90
        0
176
     1
 40
0.6
176
     1
 40
30.0
176
     1
 62
     7
420
 16777215
176
     1
 90
        1
176
     1
 90
        4
176
     1
 62
     7
176
     1
 62
   257
176
     1
 90
        1
176
     1
 90
        1
176
     1
 40
1.0
176
     1
 90
        8
176
     1
 62
     7
176
     1
 40
1.0
176
     1
 90
        1
176
     1
 90
        6
176
     1
 90
        2
176
     1
 62
     7
176
     1
 90
        5
176
     1
 90
        0
176
     1
 90
        0
176
     1
290
     0
176
     1
 90
        1
176
     1
 40
0.0
176
     1
 90
        0
176
     1
290
     0
176
     1
290
     1
176
     1
290
     1
176
     1
290
     0
176
     1
290
     0
176
     1
290
     0
176
     1
290
     0
176
     1
290
     0
176
     1
290
     0
176
     1
 90
       50
176
     1
 40
0.0
176
     1
 40
1.0
176
     1
 90
        0
176
     1
 62
    18
420
        0
176
     1
 90
       50
176
     1
 90
        3
176
     1
 62
     5
420
      255
176
     1
290
     0
176
     1
 90
       50
176
     1
 90
       50
176
     1
 90
       50
176
     1
290
     0
176
     1
 90
       50
176
     1
 62
   256
176
     0
 40
1.0
176
     0
 90
        2
176
     1
  1
strokes_ogs.tif
176
     1
290
     0
176
     1
 40
1.0
176
     1
 40
1.0
176
     1
  0
VISUALSTYLE
  5
9A
102
{ACAD_REACTORS
330
99
102
}
330
99
100
AcDbVisualStyle
  2
Flat
 70
     0
177
     3
291
     1
 70
    58
 90
        2
176
     1
 90
        1
176
     1
 90
        1
176
     1
 90
        2
176
     1
 40
0.6
176
     1
 40
30.0
176
     1
 62
     7
420
 16777215
176
     1
 90
        0
176
     1
 90
        0
176
     1
 62
     7
176
     1
 62
   257
176
     1
 90
        1
176
     1
 90
        1
176
     1
 40
1.0
176
     1
 90
        8
176
     1
 62
     7
176
     1
 40
1.0
176
     1
 90
        1
176
     1
 90
        6
176
     1
 90
        2
176
     1
 62
     7
176
     1
 90
        5
176
     1
 90
        0
176
     1
 90
        0
176
     1
290
     0
176
     1
 90
       13
176
     1
 40
0.0
176
     1
 90
        0
176
     1
290
     0
176
     1
290
     1
176
     1
290
     1
176
     1
290
     0
176
     1
290
     0
176
     1
290
     0
176
     1
290
     0
176
     1
290
     0
176
     1
290
     0
176
     1
 90
       50
176
     1
 40
0.0
176
     1
 40
1.0
176
     1
 90
        0
176
     1
 62
    18
420
        0
176
     1
 90
       50
176
     1
 90
        3
176
     1
 62
     5
420
      255
176
     1
290
     0
176
     1
 90
       50
176
     1
 90
       50
176
     1
 90
       50
176
     1
290
     0
176
     1
 90
       50
176
     1
 62
   256
176
     0
 40
1.0
176
     0
 90
        2
176
     1
  1
strokes_ogs.tif
176
     1
290
     0
176
     1
 40
1.0
176
     1
 40
1.0
176
     1
  0
VISUALSTYLE
  5
9B
102
{ACAD_REACTORS
330
99
102
}
330
99
100
AcDbVisualStyle
  2
FlatWithEdges
 70
     1
177
     3
291
     1
 70
    58
 90
        2
176
     1
 90
        1
176
     1
 90
        1
176
     1
 90
        2
176
     1
 40
0.6
176
     1
 40
30.0
176
     1
 62
     7
420
 16777215
176
     1
 90
        1
176
     1
 90
        0
176
     1
 62
     7
176
     1
 62
   257
176
     1
 90
        1
176
     1
 90
        1
176
     1
 40
1.0
176
     1
 90
        0
176
     1
 62
   257
176
     1
 40
1.0
176
     1
 90
        1
176
     1
 90
        6
176
     1
 90
        2
176
     1
 62
     7
176
     1
 90
        5
176
     1
 90
        0
176
     1
 90
        0
176
     1
290
     0
176
     1
 90
       13
176
     1
 40
0.0
176
     1
 90
        0
176
     1
290
     0
176
     1
290
     1
176
     1
290
     1
176
     1
290
     0
176
     1
290
     0
176
     1
290
     0
176
     1
290
     0
176
     1
290
     0
176
     1
290
     0
176
     1
 90
       50
176
     1
 40
0.0
176
     1
 40
1.0
176
     1
 90
        0
176
     1
 62
    18
420
        0
176
     1
 90
       50
176
     1
 90
        3
176
     1
 62
     5
420
      255
176
     1
290
     0
176
     1
 90
       50
176
     1
 90
       50
176
     1
 90
       50
176
     1
290
     0
176
     1
 90
       50
176
     1
 62
   256
176
     0
 40
1.0
176
     0
 90
        2
176
     1
  1
strokes_ogs.tif
176
     1
290
     0
176
     1
 40
1.0
176
     1
 40
1.0
176
     1
  0
VISUALSTYLE
  5
9C
102
{ACAD_REACTORS
330
99
102
}
330
99
100
AcDbVisualStyle
  2
Gouraud
 70
     2
177
     3
291
     1
 70
    58
 90
        2
176
     1
 90
        2
176
     1
 90
        1
176
     1
 90
        2
176
     1
 40
0.6
176
     1
 40
30.0
176
     1
 62
     7
420
 16777215
176
     1
 90
        0
176
     1
 90
        0
176
     1
 62
     7
176
     1
 62
   257
176
     1
 90
        1
176
     1
 90
        1
176
     1
 40
1.0
176
     1
 90
        0
176
     1
 62
     7
176
     1
 40
1.0
176
     1
 90
        1
176
     1
 90
        6
176
     1
 90
        2
176
     1
 62
     7
176
     1
 90
        5
176
     1
 90
        0
176
     1
 90
        0
176
     1
290
     0
176
     1
 90
       13
176
     1
 40
0.0
176
     1
 90
        0
176
     1
290
     0
176
     1
290
     1
176
     1
290
     1
176
     1
290
     0
176
     1
290
     0
176
     1
290
     0
176
     1
290
     0
176
     1
290
     0
176
     1
290
     0
176
     1
 90
       50
176
     1
 40
0.0
176
     1
 40
1.0
176
     1
 90
        0
176
     1
 62
    18
420
        0
176
     1
 90
       50
176
     1
 90
        3
176
     1
 62
     5
420
      255
176
     1
290
     0
176
     1
 90
       50
176
     1
 90
       50
176
     1
 90
       50
176
     1
290
     0
176
     1
 90
       50
176
     1
 62
   256
176
     0
 40
1.0
176
     0
 90
        2
176
     1
  1
strokes_ogs.tif
176
     1
290
     0
176
     1
 40
1.0
176
     1
 40
1.0
176
     1
  0
VISUALSTYLE
  5
9D
102
{ACAD_REACTORS
330
99
102
}
330
99
100
AcDbVisualStyle
  2
GouraudWithEdges
 70
     3
177
     3
291
     1
 70
    58
 90
        2
176
     1
 90
        2
176
     1
 90
        1
176
     1
 90
        2
176
     1
 40
0.6
176
     1
 40
30.0
176
     1
 62
     7
420
 16777215
176
     1
 90
        1
176
     1
 90
        0
176
     1
 62
     7
176
     1
 62
   257
176
     1
 90
        1
176
     1
 90
        1
176
     1
 40
1.0
176
     1
 90
        0
176
     1
 62
   257
176
     1
 40
1.0
176
     1
 90
        1
176
     1
 90
        6
176
     1
 90
        2
176
     1
 62
     7
176
     1
 90
        5
176
     1
 90
        0
176
     1
 90
        0
176
     1
290
     0
176
     1
 90
       13
176
     1
 40
0.0
176
     1
 90
        0
176
     1
290
     0
176
     1
290
     1
176
     1
290
     1
176
     1
290
     0
176
     1
290
     0
176
     1
290
     0
176
     1
290
     0
176
     1
290
     0
176
     1
290
     0
176
     1
 90
       50
176
     1
 40
0.0
176
     1
 40
1.0
176
     1
 90
        0
176
     1
 62
    18
420
        0
176
     1
 90
       50
176
     1
 90
        3
176
     1
 62
     5
420
      255
176
     1
290
     0
176
     1
 90
       50
176
     1
 90
       50
176
     1
 90
       50
176
     1
290
     0
176
     1
 90
       50
176
     1
 62
   256
176
     0
 40
1.0
176
     0
 90
        2
176
     1
  1
strokes_ogs.tif
176
     1
290
     0
176
     1
 40
1.0
176
     1
 40
1.0
176
     1
  0
VISUALSTYLE
  5
A1
102
{ACAD_REACTORS
330
99
102
}
330
99
100
AcDbVisualStyle
  2
Hidden
 70
     6
177
     3
291
     0
 70
    58
 90
        1
176
     1
 90
        2
176
     1
 90
        2
176
     1
 90
        0
176
     1
 40
0.6
176
     1
 40
30.0
176
     1
 62
     7
420
 16777215
176
     1
 90
        2
176
     1
 90
        2
176
     1
 62
     7
176
     1
 62
   257
176
     1
 90
        2
176
     1
 90
        1
176
     1
 40
40.0
176
     1
 90
        0
176
     1
 62
   257
176
     1
 40
1.0
176
     1
 90
        1
176
     1
 90
        6
176
     1
 90
        2
176
     1
 62
     7
176
     1
 90
        3
176
     1
 90
        0
176
     1
 90
        0
176
     1
290
     0
176
     1
 90
        1
176
     1
 40
0.0
176
     1
 90
        0
176
     1
290
     0
176
     1
290
     1
176
     1
290
     1
176
     1
290
     0
176
     1
290
     0
176
     1
290
     0
176
     1
290
     0
176
     1
290
     0
176
     1
290
     0
176
     1
 90
       50
176
     1
 40
0.0
176
     1
 40
1.0
176
     1
 90
        0
176
     1
 62
    18
420
        0
176
     1
 90
       50
176
     1
 90
        3
176
     1
 62
     5
420
      255
176
     1
290
     0
176
     1
 90
       50
176
     1
 90
       50
176
     1
 90
       50
176
     1
290
     0
176
     1
 90
       50
176
     1
 62
   256
176
     0
 40
1.0
176
     0
 90
        2
176
     1
  1
strokes_ogs.tif
176
     1
290
     0
176
     1
 40
1.0
176
     1
 40
1.0
176
     1
  0
VISUALSTYLE
  5
173
102
{ACAD_REACTORS
330
99
102
}
330
99
100
AcDbVisualStyle
  2
JitterOff
 70
    20
177
     3
291
     1
 70
    58
 90
        2
176
     0
 90
        2
176
     0
 90
        0
176
     0
 90
        0
176
     0
 40
0.6
176
     0
 40
30.0
176
     0
 62
     7
420
 16777215
176
     0
 90
        1
176
     0
 90
        4
176
     0
 62
     7
176
     0
 62
   257
176
     0
 90
        1
176
     0
 90
        1
176
     0
 40
1.0
176
     0
 90
       10
176
     2
 62
     7
176
     0
 40
1.0
176
     0
 90
        1
176
     0
 90
        6
176
     0
 90
        2
176
     0
 62
     7
176
     0
 90
        5
176
     0
 90
        0
176
     0
 90
        0
176
     0
290
     0
176
     0
 90
        1
176
     0
 40
0.0
176
     0
 90
        0
176
     0
290
     0
176
     1
290
     1
176
     1
290
     1
176
     1
290
     0
176
     1
290
     0
176
     1
290
     0
176
     1
290
     0
176
     1
290
     0
176
     1
290
     0
176
     1
 90
       50
176
     1
 40
0.0
176
     1
 40
1.0
176
     1
 90
        0
176
     1
 62
    18
420
        0
176
     1
 90
       50
176
     1
 90
        3
176
     1
 62
     5
420
      255
176
     1
290
     0
176
     1
 90
       50
176
     1
 90
       50
176
     1
 90
       50
176
     1
290
     0
176
     1
 90
       50
176
     1
 62
   256
176
     0
 40
1.0
176
     0
 90
        2
176
     1
  1
strokes_ogs.tif
176
     1
290
     0
176
     1
 40
1.0
176
     1
 40
1.0
176
     1
  0
VISUALSTYLE
  5
A7
102
{ACAD_REACTORS
330
99
102
}
330
99
100
AcDbVisualStyle
  2
Linepattern
 70
    14
177
     3
291
     1
 70
    58
 90
        2
176
     1
 90
        2
176
     1
 90
        1
176
     1
 90
        0
176
     1
 40
0.6
176
     1
 40
30.0
176
     1
 62
     7
420
 16777215
176
     1
 90
        1
176
     1
 90
        4
176
     1
 62
     7
176
     1
 62
   257
176
     1
 90
        7
176
     1
 90
        7
176
     1
 40
1.0
176
     1
 90
        8
176
     1
 62
     7
176
     1
 40
1.0
176
     1
 90
        1
176
     1
 90
        6
176
     1
 90
        2
176
     1
 62
     7
176
     1
 90
        5
176
     1
 90
        0
176
     1
 90
        0
176
     1
290
     0
176
     1
 90
        1
176
     1
 40
0.0
176
     1
 90
        0
176
     1
290
     0
176
     1
290
     1
176
     1
290
     1
176
     1
290
     0
176
     1
290
     0
176
     1
290
     0
176
     1
290
     0
176
     1
290
     0
176
     1
290
     0
176
     1
 90
       50
176
     1
 40
0.0
176
     1
 40
1.0
176
     1
 90
        0
176
     1
 62
    18
420
        0
176
     1
 90
       50
176
     1
 90
        3
176
     1
 62
     5
420
      255
176
     1
290
     0
176
     1
 90
       50
176
     1
 90
       50
176
     1
 90
       50
176
     1
290
     0
176
     1
 90
       50
176
     1
 62
   256
176
     0
 40
1.0
176
     0
 90
        2
176
     1
  1
strokes_ogs.tif
176
     1
290
     0
176
     1
 40
1.0
176
     1
 40
1.0
176
     1
  0
VISUALSTYLE
  5
174
102
{ACAD_REACTORS
330
99
102
}
330
99
100
AcDbVisualStyle
  2
OverhangOff
 70
    21
177
     3
291
     1
 70
    58
 90
        2
176
     0
 90
        2
176
     0
 90
        0
176
     0
 90
        0
176
     0
 40
0.6
176
     0
 40
30.0
176
     0
 62
     7
420
 16777215
176
     0
 90
        1
176
     0
 90
        4
176
     0
 62
     7
176
     0
 62
   257
176
     0
 90
        1
176
     0
 90
        1
176
     0
 40
1.0
176
     0
 90
        9
176
     2
 62
     7
176
     0
 40
1.0
176
     0
 90
        1
176
     0
 90
        6
176
     0
 90
        2
176
     0
 62
     7
176
     0
 90
        5
176
     0
 90
        0
176
     0
 90
        0
176
     0
290
     0
176
     0
 90
        1
176
     0
 40
0.0
176
     0
 90
        0
176
     0
290
     0
176
     1
290
     1
176
     1
290
     1
176
     1
290
     0
176
     1
290
     0
176
     1
290
     0
176
     1
290
     0
176
     1
290
     0
176
     1
290
     0
176
     1
 90
       50
176
     1
 40
0.0
176
     1
 40
1.0
176
     1
 90
        0
176
     1
 62
    18
420
        0
176
     1
 90
       50
176
     1
 90
        3
176
     1
 62
     5
420
      255
176
     1
290
     0
176
     1
 90
       50
176
     1
 90
       50
176
     1
 90
       50
176
     1
290
     0
176
     1
 90
       50
176
     1
 62
   256
176
     0
 40
1.0
176
     0
 90
        2
176
     1
  1
strokes_ogs.tif
176
     1
290
     0
176
     1
 40
1.0
176
     1
 40
1.0
176
     1
  0
VISUALSTYLE
  5
A3
102
{ACAD_REACTORS
330
99
102
}
330
99
100
AcDbVisualStyle
  2
Realistic
 70
     8
177
     3
291
     0
 70
    58
 90
        2
176
     1
 90
        3
176
     1
 90
        0
176
     1
 90
        2
176
     1
 40
0.6
176
     1
 40
30.0
176
     1
 62
     7
420
 16777215
176
     1
 90
        0
176
     1
 90
        0
176
     1
 62
     7
176
     1
 62
   257
176
     1
 90
        1
176
     1
 90
        1
176
     1
 40
1.0
176
     1
 90
        8
176
     1
 62
   257
176
     1
 40
1.0
176
     1
 90
        1
176
     1
 90
        6
176
     1
 90
        2
176
     1
 62
     7
176
     1
 90
        3
176
     1
 90
        0
176
     1
 90
        0
176
     1
290
     0
176
     1
 90
       13
176
     1
 40
0.0
176
     1
 90
        0
176
     1
290
     0
176
     1
290
     1
176
     1
290
     1
176
     1
290
     0
176
     1
290
     0
176
     1
290
     0
176
     1
290
     0
176
     1
290
     0
176
     1
290
     0
176
     1
 90
       50
176
     1
 40
0.0
176
     1
 40
1.0
176
     1
 90
        0
176
     1
 62
    18
420
        0
176
     1
 90
       50
176
     1
 90
        3
176
     1
 62
     5
420
      255
176
     1
290
     0
176
     1
 90
       50
176
     1
 90
       50
176
     1
 90
       50
176
     1
290
     0
176
     1
 90
       50
176
     1
 62
   256
176
     0
 40
1.0
176
     0
 90
        2
176
     1
  1
strokes_ogs.tif
176
     1
290
     0
176
     1
 40
1.0
176
     1
 40
1.0
176
     1
  0
VISUALSTYLE
  5
182
102
{ACAD_REACTORS
330
99
102
}
330
99
100
AcDbVisualStyle
  2
Shaded
 70
    27
177
     3
291
     0
 70
    58
 90
        2
176
     1
 90
        2
176
     1
 90
        1
176
     1
 90
        2
176
     1
 40
0.6
176
     1
 40
30.0
176
     1
 62
     7
420
 16777215
176
     1
 90
        0
176
     1
 90
        4
176
     1
 62
     7
176
     1
 62
   257
176
     1
 90
        1
176
     1
 90
        1
176
     1
 40
1.0
176
     1
 90
        8
176
     1
 62
   257
176
     1
 40
1.0
176
     1
 90
        1
176
     1
 90
        6
176
     1
 90
        2
176
     1
 62
     8
420
  7895160
176
     1
 90
        3
176
     1
 90
        0
176
     1
 90
        0
176
     1
290
     0
176
     1
 90
        5
176
     1
 40
0.0
176
     1
 90
        0
176
     1
290
     0
176
     1
290
     1
176
     1
290
     1
176
     1
290
     0
176
     1
290
     0
176
     1
290
     0
176
     1
290
     0
176
     1
290
     0
176
     1
290
     0
176
     1
 90
       50
176
     1
 40
0.0
176
     1
 40
1.0
176
     1
 90
        0
176
     1
 62
    18
420
        0
176
     1
 90
       50
176
     1
 90
        3
176
     1
 62
     5
420
      255
176
     1
290
     0
176
     1
 90
       50
176
     1
 90
       50
176
     1
 90
       50
176
     1
290
     0
176
     1
 90
       50
176
     1
 62
   256
176
     0
 40
1.0
176
     0
 90
        2
176
     1
  1
strokes_ogs.tif
176
     1
290
     0
176
     1
 40
1.0
176
     1
 40
1.0
176
     1
  0
VISUALSTYLE
  5
181
102
{ACAD_REACTORS
330
99
102
}
330
99
100
AcDbVisualStyle
  2
Shaded with edges
 70
    26
177
     3
291
     0
 70
    58
 90
        2
176
     1
 90
        2
176
     1
 90
        1
176
     1
 90
        2
176
     1
 40
0.6
176
     1
 40
30.0
176
     1
 62
     7
420
 16777215
176
     1
 90
        1
176
     1
 90
        2
176
     1
 62
     7
176
     1
 62
   257
176
     1
 90
        2
176
     1
 90
        1
176
     1
 40
1.0
176
     1
 90
        8
176
     1
 62
   257
176
     1
 40
1.0
176
     1
 90
        1
176
     1
 90
        6
176
     1
 90
        2
176
     1
 62
     7
176
     1
 90
        3
176
     1
 90
        0
176
     1
 90
        0
176
     1
290
     0
176
     1
 90
        5
176
     1
 40
0.0
176
     1
 90
        0
176
     1
290
     0
176
     1
290
     1
176
     1
290
     1
176
     1
290
     0
176
     1
290
     0
176
     1
290
     0
176
     1
290
     0
176
     1
290
     0
176
     1
290
     0
176
     1
 90
       50
176
     1
 40
0.0
176
     1
 40
1.0
176
     1
 90
        0
176
     1
 62
    18
420
        0
176
     1
 90
       50
176
     1
 90
        3
176
     1
 62
     5
420
      255
176
     1
290
     0
176
     1
 90
       50
176
     1
 90
       50
176
     1
 90
       50
176
     1
290
     0
176
     1
 90
       50
176
     1
 62
   256
176
     0
 40
1.0
176
     0
 90
        2
176
     1
  1
strokes_ogs.tif
176
     1
290
     0
176
     1
 40
1.0
176
     1
 40
1.0
176
     1
  0
VISUALSTYLE
  5
17E
102
{ACAD_REACTORS
330
99
102
}
330
99
100
AcDbVisualStyle
  2
Shades of Gray
 70
    23
177
     3
291
     0
 70
    58
 90
        2
176
     1
 90
        2
176
     1
 90
        3
176
     1
 90
        0
176
     1
 40
0.6
176
     1
 40
30.0
176
     1
 62
     7
420
 16777215
176
     1
 90
        2
176
     1
 90
        2
176
     1
 62
     7
176
     1
 62
     7
176
     1
 90
        1
176
     1
 90
        1
176
     1
 40
40.0
176
     1
 90
        8
176
     1
 62
     7
176
     1
 40
1.0
176
     1
 90
        1
176
     1
 90
        6
176
     1
 90
        2
176
     1
 62
     7
176
     1
 90
        3
176
     1
 90
        0
176
     1
 90
        0
176
     1
290
     0
176
     1
 90
        1
176
     1
 40
0.0
176
     1
 90
        0
176
     1
290
     0
176
     1
290
     1
176
     1
290
     1
176
     1
290
     0
176
     1
290
     0
176
     1
290
     0
176
     1
290
     0
176
     1
290
     0
176
     1
290
     0
176
     1
 90
       50
176
     1
 40
0.0
176
     1
 40
1.0
176
     1
 90
        0
176
     1
 62
    18
420
        0
176
     1
 90
       50
176
     1
 90
        3
176
     1
 62
     5
420
      255
176
     1
290
     0
176
     1
 90
       50
176
     1
 90
       50
176
     1
 90
       50
176
     1
290
     0
176
     1
 90
       50
176
     1
 62
   256
176
     0
 40
1.0
176
     0
 90
        2
176
     1
  1
strokes_ogs.tif
176
     1
290
     0
176
     1
 40
1.0
176
     1
 40
1.0
176
     1
  0
VISUALSTYLE
  5
17F
102
{ACAD_REACTORS
330
99
102
}
330
99
100
AcDbVisualStyle
  2
Sketchy
 70
    24
177
     3
291
     0
 70
    58
 90
        1
176
     1
 90
        2
176
     1
 90
        2
176
     1
 90
        0
176
     1
 40
0.6
176
     1
 40
30.0
176
     1
 62
     7
420
 16777215
176
     1
 90
        2
176
     1
 90
        2
176
     1
 62
     7
176
     1
 62
     7
176
     1
 90
        1
176
     1
 90
        1
176
     1
 40
40.0
176
     1
 90
       11
176
     1
 62
     7
176
     1
 40
1.0
176
     1
 90
        1
176
     1
 90
        6
176
     1
 90
        2
176
     1
 62
     7
176
     1
 90
        6
176
     1
 90
        0
176
     1
 90
        0
176
     1
290
     0
176
     1
 90
        1
176
     1
 40
0.0
176
     1
 90
        0
176
     1
290
     0
176
     1
290
     1
176
     1
290
     1
176
     1
290
     0
176
     1
290
     0
176
     1
290
     0
176
     1
290
     0
176
     1
290
     0
176
     1
290
     0
176
     1
 90
       50
176
     1
 40
0.0
176
     1
 40
1.0
176
     1
 90
        0
176
     1
 62
    18
420
        0
176
     1
 90
       50
176
     1
 90
        3
176
     1
 62
     5
420
      255
176
     1
290
     0
176
     1
 90
       50
176
     1
 90
       50
176
     1
 90
       50
176
     1
290
     0
176
     1
 90
       50
176
     1
 62
   256
176
     0
 40
1.0
176
     0
 90
        2
176
     1
  1
strokes_ogs.tif
176
     1
290
     0
176
     1
 40
1.0
176
     1
 40
1.0
176
     1
  0
VISUALSTYLE
  5
A6
102
{ACAD_REACTORS
330
99
102
}
330
99
100
AcDbVisualStyle
  2
Thicken
 70
    13
177
     3
291
     1
 70
    58
 90
        2
176
     1
 90
        2
176
     1
 90
        1
176
     1
 90
        0
176
     1
 40
0.6
176
     1
 40
30.0
176
     1
 62
     7
420
 16777215
176
     1
 90
        1
176
     1
 90
        4
176
     1
 62
     7
176
     1
 62
   257
176
     1
 90
        1
176
     1
 90
        1
176
     1
 40
1.0
176
     1
 90
       12
176
     1
 62
     7
176
     1
 40
1.0
176
     1
 90
        1
176
     1
 90
        6
176
     1
 90
        2
176
     1
 62
     7
176
     1
 90
        5
176
     1
 90
        0
176
     1
 90
        0
176
     1
290
     0
176
     1
 90
        1
176
     1
 40
0.0
176
     1
 90
        0
176
     1
290
     0
176
     1
290
     1
176
     1
290
     1
176
     1
290
     0
176
     1
290
     0
176
     1
290
     0
176
     1
290
     0
176
     1
290
     0
176
     1
290
     0
176
     1
 90
       50
176
     1
 40
0.0
176
     1
 40
1.0
176
     1
 90
        0
176
     1
 62
    18
420
        0
176
     1
 90
       50
176
     1
 90
        3
176
     1
 62
     5
420
      255
176
     1
290
     0
176
     1
 90
       50
176
     1
 90
       50
176
     1
 90
       50
176
     1
290
     0
176
     1
 90
       50
176
     1
 62
   256
176
     0
 40
1.0
176
     0
 90
        2
176
     1
  1
strokes_ogs.tif
176
     1
290
     0
176
     1
 40
1.0
176
     1
 40
1.0
176
     1
  0
VISUALSTYLE
  5
A0
102
{ACAD_REACTORS
330
99
102
}
330
99
100
AcDbVisualStyle
  2
Wireframe
 70
     5
177
     3
291
     0
 70
    58
 90
        0
176
     1
 90
        2
176
     1
 90
        0
176
     1
 90
        0
176
     1
 40
0.6
176
     1
 40
30.0
176
     1
 62
     7
420
 16777215
176
     1
 90
        1
176
     1
 90
        4
176
     1
 62
     7
176
     1
 62
   257
176
     1
 90
        1
176
     1
 90
        1
176
     1
 40
1.0
176
     1
 90
        0
176
     1
 62
   257
176
     1
 40
1.0
176
     1
 90
        1
176
     1
 90
        6
176
     1
 90
        2
176
     1
 62
     7
176
     1
 90
        3
176
     1
 90
        0
176
     1
 90
        0
176
     1
290
     0
176
     1
 90
        1
176
     1
 40
0.0
176
     1
 90
        0
176
     1
290
     0
176
     1
290
     1
176
     1
290
     1
176
     1
290
     0
176
     1
290
     0
176
     1
290
     0
176
     1
290
     0
176
     1
290
     0
176
     1
290
     0
176
     1
 90
       50
176
     1
 40
0.0
176
     1
 40
1.0
176
     1
 90
        0
176
     1
 62
    18
420
        0
176
     1
 90
       50
176
     1
 90
        3
176
     1
 62
     5
420
      255
176
     1
290
     0
176
     1
 90
       50
176
     1
 90
       50
176
     1
 90
       50
176
     1
290
     0
176
     1
 90
       50
176
     1
 62
   256
176
     0
 40
1.0
176
     0
 90
        2
176
     1
  1
strokes_ogs.tif
176
     1
290
     0
176
     1
 40
1.0
176
     1
 40
1.0
176
     1
  0
VISUALSTYLE
  5
180
102
{ACAD_REACTORS
330
99
102
}
330
99
100
AcDbVisualStyle
  2
X-Ray
 70
    25
177
     3
291
     0
 70
    58
 90
        2
176
     1
 90
        2
176
     1
 90
        1
176
     1
 90
        1
176
     1
 40
0.5
176
     1
 40
30.0
176
     1
 62
     7
420
 16777215
176
     1
 90
        1
176
     1
 90
        0
176
     1
 62
     7
176
     1
 62
   257
176
     1
 90
        1
176
     1
 90
        1
176
     1
 40
1.0
176
     1
 90
        8
176
     1
 62
     7
176
     1
 40
1.0
176
     1
 90
        1
176
     1
 90
        6
176
     1
 90
        2
176
     1
 62
     7
176
     1
 90
        3
176
     1
 90
        0
176
     1
 90
        0
176
     1
290
     0
176
     1
 90
       13
176
     1
 40
0.0
176
     1
 90
        0
176
     1
290
     0
176
     1
290
     1
176
     1
290
     1
176
     1
290
     0
176
     1
290
     0
176
     1
290
     0
176
     1
290
     0
176
     1
290
     0
176
     1
290
     0
176
     1
 90
       50
176
     1
 40
0.0
176
     1
 40
1.0
176
     1
 90
        0
176
     1
 62
    18
420
        0
176
     1
 90
       50
176
     1
 90
        3
176
     1
 62
     5
420
      255
176
     1
290
     0
176
     1
 90
       50
176
     1
 90
       50
176
     1
 90
       50
176
     1
290
     0
176
     1
 90
       50
176
     1
 62
   256
176
     0
 40
1.0
176
     0
 90
        2
176
     1
  1
strokes_ogs.tif
176
     1
290
     0
176
     1
 40
1.0
176
     1
 40
1.0
176
     1
  0
DICTIONARYVAR
  5
F0
102
{ACAD_REACTORS
330
66
102
}
330
66
100
DictionaryVariables
280
     0
  1
1:1
  0
DICTIONARYVAR
  5
EF
102
{ACAD_REACTORS
330
66
102
}
330
66
100
DictionaryVariables
280
     0
  1
STANDARD
  0
DICTIONARYVAR
  5
89
102
{ACAD_REACTORS
330
66
102
}
330
66
100
DictionaryVariables
280
     0
  1
STANDARD
  0
DICTIONARYVAR
  5
1B7
102
{ACAD_REACTORS
330
66
102
}
330
66
100
DictionaryVariables
280
     0
  1
Imperial24
  0
DICTIONARYVAR
  5
1B8
102
{ACAD_REACTORS
330
66
102
}
330
66
100
DictionaryVariables
280
     0
  1
Imperial24
  0
DICTIONARYVAR
  5
67
102
{ACAD_REACTORS
330
66
102
}
330
66
100
DictionaryVariables
280
     0
  1
2
  0
DICTIONARYVAR
  5
6B
102
{ACAD_REACTORS
330
66
102
}
330
66
100
DictionaryVariables
280
     0
  1
1
  0
DICTIONARYVAR
  5
14D
102
{ACAD_REACTORS
330
66
102
}
330
66
100
DictionaryVariables
280
     0
  1
0
  0
DICTIONARYVAR
  5
14E
102
{ACAD_REACTORS
330
66
102
}
330
66
100
DictionaryVariables
280
     0
  1
0
  0
DICTIONARY
  5
1C6
330
1AC
100
AcDbDictionary
280
     1
281
     1
  3
ACAD_XREC_ROUNDTRIP
360
B87
  0
DICTIONARY
  5
194
330
22
100
AcDbDictionary
280
     1
281
     1
  0
DICTIONARY
  5
188
330
97
100
AcDbDictionary
280
     1
281
     1
  3
FBXASSET
360
189
  0
DICTIONARY
  5
186
330
96
100
AcDbDictionary
280
     1
281
     1
  3
FBXASSET
360
187
  0
DICTIONARY
  5
110
330
98
100
AcDbDictionary
280
     1
281
     1
  3
BUMPTILE
360
112
  3
DIFFUSETILE
360
111
  3
FBXASSET
360
18A
  3
OPACITYTILE
360
113
  3
REFLECTIONTILE
360
114
  0
DICTIONARY
  5
1C4
330
1AA
100
AcDbDictionary
280
     1
281
     1
  3
ACAD_XREC_ROUNDTRIP
360
B86
  0
DICTIONARY
  5
104
330
87
100
AcDbDictionary
280
     1
281
     1
  3
ACAD_ROUNDTRIP_2008_TABLESTYLE_CELLSTYLEMAP
360
B85
  0
XRECORD
  5
B87
102
{ACAD_REACTORS
330
1C6
102
}
330
1C6
100
AcDbXrecord
280
     1
102
DISPLAYNAME
  1
Imperial24
102
FLAGS
 90
        0
  0
XRECORD
  5
189
102
{ACAD_REACTORS
330
188
102
}
330
188
100
AcDbXrecord
280
     1
 70
     1
 90
429727718
  1
508B35C9-AEE7-456F-BE74-D52651303AC6
310
504B03040A0000080000B670623B3DEE336E79000000790000001B0000006175746F6465736B2D64657369676E2D7061636B6167652E786D6C3C3F786D6C2076657273696F6E3D22312E302220656E636F64696E673D227574662D3822203F3E3C666F726D6174733E3C666F726D61743E687474703A2F2F736368656D612E
310
6175746F6465736B2E636F6D2F64657369676E2D7061636B6167652F323030393C2F666F726D61743E3C2F666F726D6174733E504B0304140006080800B670623BD486FD9CA0000000F4000000130000005B436F6E74656E745F54797065735D2E786D6C7D8EC10E82300C865F65E91D8A1E8C310C0EEA1BF002731658846E
310
D98AC1B77784ABF1D8FE5FBFBF75BBCE937A534CCEB38643598122B6FEE978D0B0485F9C41B54DDD7D022595594E1A469170414C76A4D9A4D207E29CF43ECE46F218070CC6BECC4078ACAA135ACF422C856C0E68EA1BF5669944DDD7BCDE7B1F8E415D77AECB980613C2E4AC91FC167A2B244592486606FC29C8FD7F045B9A
310
EF7053A7E60B504B0304140006080800B670623B28ED286BEB0000007C01000008000000636F72652E786D6C8D90416EC3201045AF82665B6183218D6D61A254764FD00B204C5C94182C03558F5F9C3852BBEB6A467FFE9B197D71FA9E6FE8CBACC17AD7012D0820E3B41FAD9B3A48F1826B40272956EFE32F1B20A766D3C1
310
268314D3EAD3B24BDABB685CCCAAF3A3D94515828980F42D371D04FD696655A814B3235C8B45E9AB9A4C419F5D8653B2237A1CB163DE672FD6AC209BF3C08E0D1B30EB19C3FC9D72FCC6EB231EFA33EDE96BDD341517E5064B11EDFCBCAF57A3A2194156843498524CAA0FCA5B7268F9E185D42D21A2DCEC7FA0B48CFF8492
310
759155FBBB0F2C80A4F991FB408A72CB22977B50B96EB9C91F504B0304140006080800B670623B55019EA25F0000007C00000007000000636E782E786D6C4DCB3B0E80201045D1AD90E915ED2CF8AC45050C11660C8261F98AB1B07AC9C97D42D718D865D3E909258CFD00CCE24AC6E326A164D74DC0B4128928FF32603847
310
2BA13128B1252AC747C6BAB984FC68F0B87FE8960A5C09FE86CFB69FBA01504B0304140006080800B670623B7BC41AC871010000D40300000C0000006662782F636F72652E786D6CC553ED6E8320147D15C2DF4501B56B6D90A64BBB27D80B50A5CE54C120983EFEAE1F4DD7A56BBA5FF3879273EEE59E7310BE393735EA95
310
ED2AA333CC428A91D2B9292A5D66D8BB63B0C26823B835C67D2BC348CB46657880B1E0A535BE9DA1DC68A7B403549B42CDA0EC3AE530CA6B5864B8CB3F552343E91D5474A7B095F949962A6421D0502778E72C0840D390E18DC5F170E664C205F7BE2A66B62A605A75AC94C522DDEEE3651AEF837817C741F2CE92E02D592D
310
83FD6ECB76EC7595A651C2C9D02CB8AB9A8BBADC2AE954814544691A3016D0E883256BBA58278B17BA5A53CAC9507ED3E4DBE2C9265F691747B3DCA9ADC382819091F8E1162272A8933DE82182932144F88C09DF060D8140C84E1EEA8B8F1340BDCA9DB1093085F157AA97B557309586747CD0EF0B4EA64E983A6E0EAEEFCE
310
889E9EF17847386AA94B30211D2C0FDE0D3AF9A4610EAD5536E8DD1969631B593F67E381C33F5157F17725E5A636F6BF1491F980C8FC7B90E13E8A2F504B0304140006080800B670623B70102A487D0000009D0000000B0000006662782F636E782E786D6C4DCCD10A83201886E15B91FFDC95A5C30335ACCDFB886521330D
310
A76397BF1A1DECE883878F57749FD5A3B74D2F17830472A901D9F088930B8B849267CC01754AA418F3DF0D5018572BE160506249B16C274D761E8BCFBB7A179E27F65CB39A0F14D396184C9921B81F34C3ACA1B4B99ABB6E6F062A25AA5F69DF23ACBE504B0304140006080800B670623B3610CA3329010000120200003100
310
00006662782F42384135303843342D343331462D343546312D424341352D3532343432364645413344462F636F72652E786D6C8D515B6EC32010BC0AE22B55850D0E446E848992B43E412FE000495162B07854397EA176A4F62F3F2C9A9D991D58BEBB8F37F0AD7D30CE76905418026DA553C65E3A98E219B510EC04F7CEC5
310
3F3408EC30EA0E16180A7EF12E4D0B249D8DDAC68C5AA7F4020E21E80881BCE54B0783FCD2E3500D296646B856D320AFC34557A4CAEDCC133C449F0380794839A138B47B86DB2345744D7A44594FD0E1B867883594369BFE63BF7EEF793D0B054FC9A8456E548E63CE46FB674D8A58F068C6477CE9F510B582A2C1F80D1182
310
70F349E816B32D65AFB8DD62CCEB42FF274A937A52948C8DEB66893BCB021484D7734370E5D2E9F608A3EF93F3119479ABA0E50B14B8C298119A43CCC4FCFCECB8A18B6388CEE7EF5D5D4F994BD86CBBA182D76543B9FCAE2FD7B24DF103504B0304140006080800B670623B1B8617914E0100003303000030000000666278
310
2F42384135303843342D343331462D343546312D424341352D3532343432364645413344462F636E782E786D6CD593C16EC32010447F0571AD6CE3D489D20813A9877E410FBD62D82434182CC055F3F75D1292E692438FBD206B7698593D61BEFD1E2DF982108D773D6D6B460938E5B571FB9ECE6957AD29D90A1EBC4F7736
310
4A9C1CA1A759A682EF839FA72269D8C9D92654AD71C72206887E0E0A22CAF926B15E498B01E0AA19451807D01A34B919F16B070157417138917400F2F6FA41FCF0092A45DEE414C19BDC21783E4BD39D891265658C3D8DEA00A3ACE59CBC8678ACB54CB26EEB6BD7839D7E9348BE70AD9C8321B9BCA7F9A4A26C542347DEE0
310
50F09802D22BA6749A800A394DD62899107273365E3C82CFC6A55557BC06C10774B7ABE7AEC3B0F34CF06446280E154026D0542C187BA9DAB6628BF7B6DBB0E5A65B3EB1F58631DE64BBE083F7B65CC218087E22CABB042E51D1F2268F1FE12B3EA24D40D63E9CFE00120194D60B9D5BC67FE6D39CDF37E20AF817881F504B
310
0304140006080800B670623BBFEF2E3B690500003C100000340000006662782F42384135303843342D343331462D343546312D424341352D3532343432364645413344462F6F626A656374732E786D6CAD575D739B3814FD2B0CFB0C98D84E931D4227B6938EA793B6534F3BFB90198F0099B001899144EAECAFDF231018B0
310
D37A3FFC609090EEE7B94757C1FB7D915B2F54C88CB31BDB7727B64559CC938CA53776A576CE956DBD0F03C1B9EA2DB32D460A7A63EB693B0C52C1ABD24C257447AA5C8D66EF177F5832A68CDA569C13296F6C193FD182B8A4523CA1F2D94D88226EBADBBBBEDB2C1C8A4D05299F46424B222853B014F30C52ACC6287F389C
310
D85E1878FA7B18E87FB36AFAF62AAFF667A83F635211161F291B8999FAB3D5DDC5FCDA99CF6653677679E13B8BFBC5CAF1DF4D27CBCBE5F2FAF6EE1A8AA51290642C117467871F101B91C581D77CEA2C36869F3229E68CD1B8F61F1ED6361B89092D294B90C78C4A68EB793D190E7D1D9BDEE7A91E1B95FDE9F3BCEAEFE809
310
6A6D6F9F7D4B79F4275C90E7A04248AA51D5C4C738DAE06F72885AC4796EBE65D22A88A22223B995679120E2D50EB1542F098381188D4EA111AE3DB043FF20AF6F2B4AE3D7D83D65E5AECA730D4D3BAC91BD05FEA992B565D95F549CD6069B90AB2A63EACA38A45E4B6A87D781574F86817E4C2FCCC72690D62E2729520E37
310
9BAF234797BAF6D62B3BFC781FED37BA1E4F2B2F052FA9501A3E80569BB8F6A9A364D4FA67654E6F803383981F82F21591FF84F23D9882BC896C3FDBCF8C162508933B2E0AE4C69DD43F6BD2BE38DDDBF10BF86CB4FA784D37F3AF16075E67EC9030DECA1FC0A55373F5DFF3378C591FA9BDF485C10B0A8C8BA909E5262639
310
A8E72163488806A595734C81CB77D1DE0ED7604A303B76913CEC0272F412782FF88EFF4636D8AA56DF7B322474C4B767303F625997056C7B032C473C592B36CEBD15F3F9FF5233B7ABCDC74D257624A60F8658567497B14CE1EC3C80B76FD02011038F9EE9EB0F2E12387A9C844D3F09855125116D1D731DF8B43D2CF4E0A0
310
79A020C6BE946BCE0B7EA1E1219331CD73C228AF5A2DDD31A4B1DA918CE91350854D40A71723140BFA92E94E62B0626016CEFA5864A50E5977E8753CEDBEE1CBB7F52780D20E17AF0BA0F5F9B02A3AD07DCC732EB6D1EBB661421BE0C39E21BABF0FE16D22EA6929407C8DE596724C88B749B6DB5512BC7B228ADFD7CB7EA6
310
3A22397E690BA8D5D8D4E40CEC8CDA23C2C0B7D5898640101CEC9C6D331CE328CB93CAFBBAC70A642DF70DF95155945B52F08AA973C23469FD69ADEF84F7BB18F983A8F8C90E37F5D35980B2139A1C523540813E824EF83448CF7C72B598CE97D7CEEDDDDD3B6736BFBC771677EF66CE6A7E7139F7A793E9EDF2B2B3A8B624
310
0CDA13AA5F8388264EC4A0129909F3B7F5A16CEDF08128E97D680ACA4B9BE7B7B58BB638F0B00700EF36AE8B32A705658A68F83EE897FC2B41573190D1CCAF0B92D233A47CFEB019D9809933F67DD1A5467F8CF69AD9A5AE859342D45355448C64F968A371DC2D596ADC6E43D93D1B466F877A64E2893E54F23C4B40388995
310
525E5005DA3983ED45412510D3EFCA13737B3863F74BD30F2A12E5B4B5E489A025CE25500DB855B11ACE5BBFA185D35DD48D8DC3CE7DC69F2944DB42AA6F6CF09BCA622ADD08C7A36E7C6AE18000BAB08E040135C2D21C9D75B3A91B77BB746C403F38018DFE6EC939DD92F16B40BC05294B9CDA035AAD6D330AE27FE4786B
310
8E45145EA34A75BE1C263A676A35A8ACC6297337400BF16C54EF515F3F77CB77EB3583889C754FFA29081AA98E2222ADEF05DA3E63D2EDEA8B8756C05A7FB6CABC4A91CBF325398202CC952E70A008A830324BA200D5E5EF8F5F04C75DB4B0EE3340E071C98B823333B83577596BF3849B69F2085AA0FAFA212F26BEFF5877
310
FDE622B28D88A42E49E43326DA82D31E8CB006401E1DA726059ECEC168F97A6599036306A135688F9AD2E61A6EA178F4CD51974A9F2CCB9F36FE5EBD14601068D9C3BF01504B0304140006080000B670623B000000000000000000000000350000006662782F42384135303843342D343331462D343546312D424341352D35
310
32343432364645413344462F76657274696365732E62696E504B0304140006080800B670623BF270F1330600000004000000360000006662782F42384135303843342D343331462D343546312D424341352D3532343432364645413344462F747269616E676C65732E62696E636660600000504B0304140006080000B67062
310
3B000000000000000000000000370000006662782F42384135303843342D343331462D343546312D424341352D3532343432364645413344462F617474726962757465732E62696E504B0304140006080800B670623B08DA0BD19000000041010000360000006662782F42384135303843342D343331462D343546312D4243
310
41352D3532343432364645413344462F6469726563746F72792E786D6C858F410AC3201045AF22B36F53E9A60B35CBEEBAE80D244E44489C6234F4F835464A48035D0DF398FF9F8AF63D0E6CC63039F212F8F9020C7D47C6792B21C5FE7403D62A1188E2E60C98D7234A5830286103A55745067B9D86B8A3CF9C7F90C11DE6
310
07FB144396D7B6A82D282E9A152AD114D5EF2CB866EEE831B8EEA07A7BB5A8D7D61A2BAAEB7FD5F70921FF497D00504B0304140006080800B670623B3B4606F3FE000000A00100003B0000006662782F42384135303843342D343331462D343546312D424341352D3532343432364645413344462F7265736F75726365732F
310
636F72652E786D6C8D504B6E833010BD0A9A6D65B08134808CA354A427E8052C332156828DFCA97AFC9A40A576D7CDCCE87D344F8F9FBEE647F689CE6B6B7A6039850C8DB2A336530F315C4903D94970676DF82583CCC8197B5861107C72362E3BA4AC096842428D1D7107A5F71820538F74F4E0D50D6799CB1892C2DFF345
310
AABB9C306779A2934E701F5C0A906D4FD609C2A1B7D129F4BCD858C163D4E3AED163FAA9AF1A1D88F67CA98E6D35906AA82A52BFB39ABCD5CD915C86331BD86BD3B665CD8BD52C78D0F34F46E550061C419494B6843142CB0F5677F4D0D58717DA7494F26295FF31C565FCA7296A13AA728FBBD93C0896823C09C18BB5AFB4
310
9E65A6BD762BBE01504B010214000A0000080000B670623B3DEE336E79000000790000001B00000000000000000000000000000000006175746F6465736B2D64657369676E2D7061636B6167652E786D6C504B01021400140006080800B670623BD486FD9CA0000000F40000001300000000000000000000000000B2000000
310
5B436F6E74656E745F54797065735D2E786D6C504B01021400140006080800B670623B28ED286BEB0000007C010000080000000000000000000000000083010000636F72652E786D6C504B01021400140006080800B670623B55019EA25F0000007C000000070000000000000000000000000094020000636E782E786D6C50
310
4B01021400140006080800B670623B7BC41AC871010000D40300000C00000000000000000000000000180300006662782F636F72652E786D6C504B01021400140006080800B670623B70102A487D0000009D0000000B00000000000000000000000000B30400006662782F636E782E786D6C504B01021400140006080800B6
310
70623B3610CA3329010000120200003100000000000000000000000000590500006662782F42384135303843342D343331462D343546312D424341352D3532343432364645413344462F636F72652E786D6C504B01021400140006080800B670623B1B8617914E010000330300003000000000000000000000000000D10600
310
006662782F42384135303843342D343331462D343546312D424341352D3532343432364645413344462F636E782E786D6C504B01021400140006080800B670623BBFEF2E3B690500003C10000034000000000000000000000000006D0800006662782F42384135303843342D343331462D343546312D424341352D35323434
310
32364645413344462F6F626A656374732E786D6C504B01021400140006080000B670623B0000000000000000000000003500000000000000000000000000280E00006662782F42384135303843342D343331462D343546312D424341352D3532343432364645413344462F76657274696365732E62696E504B010214001400
310
06080800B670623BF270F133060000000400000036000000000000000000000000007B0E00006662782F42384135303843342D343331462D343546312D424341352D3532343432364645413344462F747269616E676C65732E62696E504B01021400140006080000B670623B00000000000000000000000037000000000000
310
00000000000000D50E00006662782F42384135303843342D343331462D343546312D424341352D3532343432364645413344462F617474726962757465732E62696E504B01021400140006080800B670623B08DA0BD1900000004101000036000000000000000000000000002A0F00006662782F42384135303843342D3433
310
31462D343546312D424341352D3532343432364645413344462F6469726563746F72792E786D6C504B01021400140006080800B670623B3B4606F3FE000000A00100003B000000000000000000000000000E1000006662782F42384135303843342D343331462D343546312D424341352D3532343432364645413344462F72
310
65736F75726365732F636F72652E786D6C504B0506000000000E000E0080040000651100000000
  0
XRECORD
  5
187
102
{ACAD_REACTORS
330
186
102
}
330
186
100
AcDbXrecord
280
     1
 70
     1
 90
429727718
  1
887D55A9-D0DD-414E-B741-A7DCD4DA2B4C
310
504B03040A0000080000B670623B3DEE336E79000000790000001B0000006175746F6465736B2D64657369676E2D7061636B6167652E786D6C3C3F786D6C2076657273696F6E3D22312E302220656E636F64696E673D227574662D3822203F3E3C666F726D6174733E3C666F726D61743E687474703A2F2F736368656D612E
310
6175746F6465736B2E636F6D2F64657369676E2D7061636B6167652F323030393C2F666F726D61743E3C2F666F726D6174733E504B0304140006080800B670623BD486FD9CA0000000F4000000130000005B436F6E74656E745F54797065735D2E786D6C7D8EC10E82300C865F65E91D8A1E8C310C0EEA1BF002731658846E
310
D98AC1B77784ABF1D8FE5FBFBF75BBCE937A534CCEB38643598122B6FEE978D0B0485F9C41B54DDD7D022595594E1A469170414C76A4D9A4D207E29CF43ECE46F218070CC6BECC4078ACAA135ACF422C856C0E68EA1BF5669944DDD7BCDE7B1F8E415D77AECB980613C2E4AC91FC167A2B244592486606FC29C8FD7F045B9A
310
EF7053A7E60B504B0304140006080800B670623BBC1638F5EC0000007C01000008000000636F72652E786D6C8D90416EC3201045AF82665B61836BE2D8C24471DB9CA01740401C94182C03558F5F9C3852BBEB6A467FFE9B197D7EF89E6EE8CB2CC17AD7032D0820E394D7D68D3DA478C67B4007C117EFE32F1B202727D3C3
310
2A83E0E3E2D3BC49CABB685CCCAAF3DA6CA20CC14440EA969B1E82BA98491632C5EC08D76296EA2A4753D06797E194AC468F2356E77DF66CCD02825543D50CACC62D39ED70FDC68EB8FD68F6F8787A6784342D1DDA1D2F5758F068A7E77DB518198D065111D2624A31A93E69DD11D6D5EC85EC3B4278B9DAFF4069D6FF8492
310
75F1B5DADE7D600104CD8FDC0782976B16B9DC83CA75CD4DFC00504B0304140006080800B670623B55019EA25F0000007C00000007000000636E782E786D6C4DCB3B0E80201045D1AD90E915ED2CF8AC45050C11660C8261F98AB1B07AC9C97D42D718D865D3E909258CFD00CCE24AC6E326A164D74DC0B4128928FF326038
310
472BA13128B1252AC747C6BAB984FC68F0B87FE8960A5C09FE86CFB69FBA01504B0304140006080800B670623B3586FFB671010000D40300000C0000006662782F636F72652E786D6CC553ED6E8320147D15C2DF4541A76D6D90A6DDD627D80B50A4CE54C120983EFEAE1F4DD7A55BBA5FF3879273EEE59E7310B6393735EA
310
95ED2AA3731C851423A5A5292A5DE6D8BB63B0C268C39935C67D29C3488B46E578803167A535BE9D2169B453DA01AA4DA16650749D7218C91A1639EEE4876A4428BC838AEE14B6429E44A9C228041AEA38EB9C0501681A32BC313F1ECE8C4C3867DE57C5CC56054CAB8E95B298A7F12E5EEED224C8E87E11242FE936C8DE96
310
AB60BB7F4D295D66D12E5B30323473E6AAE6A24E5A259C2A308F29CD82280A68FC1E256B9AAE93F489AED694323294DF34F9B678B0C957DA3DC7B3DCA9ADC33C022123F1CD2D44E450277AD04338234388F01913BE0D1A0281909D38D4171F27807A259DB1093085F157AA17B557309586747CD0CF0B46A64E983A6E0EAEEF
310
CE881F9EF1FB8E70D44297604238581EBC1B74B249C31C5AAB6CD0BB33D2C636A27ECCC62F0EFF445DC5DF95244D6DEC7F2922F30191F9F720C37DE49F504B0304140006080800B670623B4220A0FF7D0000009D0000000B0000006662782F636E782E786D6C4DCCD10A83201886E15B91FFDCE542CB0335D0EC3E6259C84A
310
C3E9D8E5AF46073BFAE0E1E315DD675BD1DBA5978F41C2FD4600B9F088930F8B849267CC01754AA418F3DF0D50183727E164506249B1EC174D6E1ECB9A0F5D7D785E68DB8151CD286E5A5363CA6B8A39E90D36D40E96B086F55A43A544F52B1D7B86D517504B0304140006080800B670623B2FA3FEDE290100001202000031
310
0000006662782F45374635344235342D363743322D343832342D383044432D4334454645303536354442422F636F72652E786D6C8D515B6EC32010BC0AE22B55850D2E386E848994D7097A0117488A1283C5A3CAF10BB523B57FF961D1ECCCECC0F2ED7DBC816FED8371B687A4C210682B9D32F6D2C314CFA883602BB8772E
310
FEA141608751F7B0C050F08B77695A20E96CD43666D43AA5177008414708E42D5F7A18E4971E876A483133C2B59A06791D2EBA22556E679EE021FA1C00CC43CA09C5717D6274C7286AD7FB06D1AEA1A8C3873DDAD3E3E98859CB0EBB1DAF67A1E02919B5C88DCA71CCD968FFAC49110B1ECDF8882FBD1EA256503418BF2342
310
106E3E08DD60B6A1EC15771B8C795DE8FF4469524F8A92B1F1AD59E2CEB20005E1F5DC105CB9F4797B84D1F7C9F908CABC55D0F2050A5C61CC1AD2F27A26E6E767C7962E8E213A9FBF7775FDCC5CC266DB960A5E970DE5F2BBBE5CCB36C50F504B0304140006080800B670623B1B8617914E01000033030000300000006662
310
782F45374635344235342D363743322D343832342D383044432D4334454645303536354442422F636E782E786D6CD593C16EC32010447F0571AD6CE3D489D20813A9877E410FBD62D82434182CC055F3F75D1292E692438FBD206B7698593D61BEFD1E2DF982108D773D6D6B460938E5B571FB9ECE6957AD29D90A1EBC4F77
310
364A9C1CA1A759A682EF839FA72269D8C9D92654AD71C72206887E0E0A22CAF926B15E498B01E0AA19451807D01A34B919F16B070157417138917400F2F6FA41FCF0092A45DEE414C19BDC21783E4BD39D891265658C3D8DEA00A3ACE59CBC8678ACB54CB26EEB6BD7839D7E9348BE70AD9C8321B9BCA7F9A4A26C542347DE
310
E050F09802D22BA6749A800A394DD62899107273365E3C82CFC6A55557BC06C10774B7ABE7AEC3B0F34CF06446280E154026D0542C187BA9DAB6628BF7B6DBB0E5A65B3EB1F58631DE64BBE083F7B65CC218087E22CABB042E51D1F2268F1FE12B3EA24D40D63E9CFE00120194D60B9D5BC67FE6D39CDF37E20AF817881F50
310
4B0304140006080800B670623B29652116630500003C100000340000006662782F45374635344235342D363743322D343832342D383044432D4334454645303536354442422F6F626A656374732E786D6CAD575D739B3814FD2B0CFB0C989834C90EA1639B24E3E9A6EDD4D3CE3E64C623834CD8006224913AFDF57B040203
310
B65BEF871F0C12D2FD3CF7E8CA7FBFCB33E3957291B2E2D674ED8969D02262715A24B76625B7D6B569BC0F7CCE98EC2D338D82E4F4D654D366E0279C55A59E8AE99654991CCDDECFFF3444440B6A1A514684B83545F44C7362934AB2988A173B2692D8C97667BB76B3702836E1A47C1E092D09A78584A5982F20C5688C7287
310
C389E904BEA3BE07BEFAD7ABA6A75739B53F43FD69212429A20365233153D70BEF2E2E6FAC4BCF9B5ADEBB0BD79ADFCF43CBBD9A4E16EF168B9BD9DD0D140BC921495BC2E9D60C1E101B9E46BED37CEA2CD6861F3329624541A3DA7F7858DBAC25C6B4A4458C3CA654405BCFEBC970E8AAD8F43E4FD558ABEC4F9FE7557F47
310
4F506B7BFBEC5BCA367FC105710E2AB8A00A554D7CB4A30DFE26FBA86D18CBF4B75418399194A72433B274C3097F33032C554B027F2046A1932B842B0FCCC0DDCBEBDB8AD2F835768F59B9ADB24C41D30C6A64AF817F2A456D59FA83F2E3DA60137255A585BCD60EC9B7929AC18DEFD49381AF1ED30BFDB109A4B1CD488294
310
C3CDE6EBC8D185AABD6568061FEE37BB95AAC7E3CA4BCE4ACAA5820FA0D526AE7DAA2869B5EE5999531BE0CC20E6FBA07C41E43FA27CF7A6206F3CDD793B4F6B919C1462CB788EDCD893FA674CDA17AB7B3B7C019F8D561FAEE966FED562DFE98C1D12C6A9FC015C2A35D7FF3D7FC398F591DA4B5FE0BFA2C0189FEA50AE22
310
92817A1ED3020951A03432862970F976B33383259812CC8E5D240BBA801CBCF8CE2BBEE3BF910DB6AAD5F79E05123AE2DB33981FB1ACCB02B69D00CB014FD68AB573A7627EF9BFD4CC2C5C7D58557C4B22FAA88925A4DBB44825CECE3D78FB060D1231F0E885BE7D673C86A3874958F593906B5502D1563157814FDAC3420D
310
F69A070A22EC4B98E23CFF171A1E5311D12C23056555ABA53B8614563B92D17D02AAB009E8F46284624E5F53D5490C560CCCC2591FF1B45421EB0EBD8EA7ED13BE7C5D7E0428CD60FEF60779EB13E6664FF711CB185F6FDED60D139A001FF60CD1FD6D086F1D51474901E26B2CB794A343BC8ED3EDB612E0DD2351FCB65CF4
310
33D511C9E14B5B40ADC6A6263DB0336A8F700DDF56271A024E70B0B3629DE21847591E55DED73D56206AB927E46FAABC5C939C55853C274C93D69FD6FA4E78BF8B11DF898C9ECD60553FAD39283BA6F18984AA23E8884F83F45C5F5F859797B31B2B9C84A1E5B9DE9D35BFF25C6B76152E422F9C5DCC3D847F5801ED09D5AF
310
41441327A25FF15487F9EB725FB666F048A4701E9A827292E6F97569A32DF61DEC01C0BB8DCBBCCC684E0B49147C1FD54BF685A0AB18C868E6973949E819523E3DAC463660E68C7D9F55A9D1EFA3BD7A76A16AE1A810F95CE59B82A4D968A376DC2E8B44BBDD86B27B368CDE0ED548C7137DA860591A83706223A12CA712B4
310
7306DBF39C0A20A6DF95C7FAF670C6EED7A61F946493D1D6926782963813403548A78AE470DEF80D2D9CEAA26E4D1C76F60BFE74219A06527D6B82DF641A51616F703CAAC6A7160E08A00BEB4810A0274592A1B36E3675E36E978A0DE80727A0D6DF2D39A75BD27E0D8837276589537B40ABB56D5A41F48F1C6FCD3188C4EB
310
A6929D2FFB89CE995A4D00AE813BDD032DC48B56BD437DFDDC2DD7AED70C2272D63DE9A72068A45A92F0A4BE17A8A06B9366E16707AD80B1FC649459952097E74BB23805982B55E0401150A165964402AA8BDF9F3E7386BB686EDCA780C0D382E5392BF460A6EFB2C6EA1937D3F809B440D5F5435C4C5CF7A9EEFAF54564BD
310
2182DA24162F98680B4E7930C21A0079709CEAEB99A372305ABE0C0D7D6078105A83F6A0296DAEE1068A47DD1C55A9F4C9B2FC69E3EFD44B81028E963DF81B504B0304140006080000B670623B000000000000000000000000350000006662782F45374635344235342D363743322D343832342D383044432D433445464530
310
3536354442422F76657274696365732E62696E504B0304140006080800B670623BF270F1330600000004000000360000006662782F45374635344235342D363743322D343832342D383044432D4334454645303536354442422F747269616E676C65732E62696E636660600000504B0304140006080000B670623B00000000
310
0000000000000000370000006662782F45374635344235342D363743322D343832342D383044432D4334454645303536354442422F617474726962757465732E62696E504B0304140006080800B670623B08DA0BD19000000041010000360000006662782F45374635344235342D363743322D343832342D383044432D4334
310
454645303536354442422F6469726563746F72792E786D6C858F410AC3201045AF22B36F53E9A60B35CBEEBAE80D244E44489C6234F4F835464A48035D0DF398FF9F8AF63D0E6CC63039F212F8F9020C7D47C6792B21C5FE7403D62A1188E2E60C98D7234A5830286103A55745067B9D86B8A3CF9C7F90C11DE607FB144396
310
D7B6A82D282E9A152AD114D5EF2CB866EEE831B8EEA07A7BB5A8D7D61A2BAAEB7FD5F70921FF497D00504B0304140006080800B670623B6378F24DFF000000A00100003B0000006662782F45374635344235342D363743322D343832342D383044432D4334454645303536354442422F7265736F75726365732F636F72652E
310
786D6C8D504B6E833010BD0A9A6D65B0094E42641C85B639412F6099496225D8C89FAAC7AF09546A77DDCC8CDE47F3F4C4F16B7C149FE88371B603565228D06A37187BED20C50BD9437194C23B177FC9A0B06AC40E6618A4B87A97A615D2CE46B431A3D60DB8822A048C50E8473E3A08FA86A32A558A5911EEE5A4F45D5DB1
310
6465A6B34E8A107D0E502C4FE609D26370C96B0CA25A58295232C3AA3143FE692E063D485EF7F5AEE71BD2D2F39634AFFC44DAF7DD9E9CCE6F9CD25DCBFA762BAAD92C4534E34F46ED51451C40D694B6843142EB0FD61C283F34FC85EE0F948A6A96FF31A569F8A729191B37F51A77B105902C0779125254735F793DCBCC7B
310
EE567E03504B010214000A0000080000B670623B3DEE336E79000000790000001B00000000000000000000000000000000006175746F6465736B2D64657369676E2D7061636B6167652E786D6C504B01021400140006080800B670623BD486FD9CA0000000F40000001300000000000000000000000000B20000005B436F6E
310
74656E745F54797065735D2E786D6C504B01021400140006080800B670623BBC1638F5EC0000007C010000080000000000000000000000000083010000636F72652E786D6C504B01021400140006080800B670623B55019EA25F0000007C000000070000000000000000000000000095020000636E782E786D6C504B010214
310
00140006080800B670623B3586FFB671010000D40300000C00000000000000000000000000190300006662782F636F72652E786D6C504B01021400140006080800B670623B4220A0FF7D0000009D0000000B00000000000000000000000000B40400006662782F636E782E786D6C504B01021400140006080800B670623B2F
310
A3FEDE290100001202000031000000000000000000000000005A0500006662782F45374635344235342D363743322D343832342D383044432D4334454645303536354442422F636F72652E786D6C504B01021400140006080800B670623B1B8617914E010000330300003000000000000000000000000000D2060000666278
310
2F45374635344235342D363743322D343832342D383044432D4334454645303536354442422F636E782E786D6C504B01021400140006080800B670623B29652116630500003C10000034000000000000000000000000006E0800006662782F45374635344235342D363743322D343832342D383044432D4334454645303536
310
354442422F6F626A656374732E786D6C504B01021400140006080000B670623B0000000000000000000000003500000000000000000000000000230E00006662782F45374635344235342D363743322D343832342D383044432D4334454645303536354442422F76657274696365732E62696E504B01021400140006080800
310
B670623BF270F13306000000040000003600000000000000000000000000760E00006662782F45374635344235342D363743322D343832342D383044432D4334454645303536354442422F747269616E676C65732E62696E504B01021400140006080000B670623B0000000000000000000000003700000000000000000000
310
000000D00E00006662782F45374635344235342D363743322D343832342D383044432D4334454645303536354442422F617474726962757465732E62696E504B01021400140006080800B670623B08DA0BD190000000410100003600000000000000000000000000250F00006662782F45374635344235342D363743322D34
310
3832342D383044432D4334454645303536354442422F6469726563746F72792E786D6C504B01021400140006080800B670623B6378F24DFF000000A00100003B00000000000000000000000000091000006662782F45374635344235342D363743322D343832342D383044432D4334454645303536354442422F7265736F75
310
726365732F636F72652E786D6C504B0506000000000E000E0080040000611100000000
  0
XRECORD
  5
112
102
{ACAD_REACTORS
330
110
102
}
330
110
100
AcDbXrecord
280
     1
270
     1
271
     1
  0
XRECORD
  5
111
102
{ACAD_REACTORS
330
110
102
}
330
110
100
AcDbXrecord
280
     1
270
     1
271
     1
  0
XRECORD
  5
18A
102
{ACAD_REACTORS
330
110
102
}
330
110
100
AcDbXrecord
280
     1
 70
     0
 90
1778669749
  1
9BF507EE-FAF7-4A99-A33D-4EE51894BC40
310
504B03040A0000080000B670623B3DEE336E79000000790000001B0000006175746F6465736B2D64657369676E2D7061636B6167652E786D6C3C3F786D6C2076657273696F6E3D22312E302220656E636F64696E673D227574662D3822203F3E3C666F726D6174733E3C666F726D61743E687474703A2F2F736368656D612E
310
6175746F6465736B2E636F6D2F64657369676E2D7061636B6167652F323030393C2F666F726D61743E3C2F666F726D6174733E504B0304140006080800B670623BD486FD9CA0000000F4000000130000005B436F6E74656E745F54797065735D2E786D6C7D8EC10E82300C865F65E91D8A1E8C310C0EEA1BF002731658846E
310
D98AC1B77784ABF1D8FE5FBFBF75BBCE937A534CCEB38643598122B6FEE978D0B0485F9C41B54DDD7D022595594E1A469170414C76A4D9A4D207E29CF43ECE46F218070CC6BECC4078ACAA135ACF422C856C0E68EA1BF5669944DDD7BCDE7B1F8E415D77AECB980613C2E4AC91FC167A2B244592486606FC29C8FD7F045B9A
310
EF7053A7E60B504B0304140006080800B670623BCA089DFFEC0000007C01000008000000636F72652E786D6C8D90416E83301045AF62CDB632D8402020E32882F604BD80653BC44AB011B6AB1EBF262152BBEB6A467FFE9B197D76FA9EEFE84BAFDE38DB03CD08206DA553C64E3DC470C1474027CE56E7C22F1B202B66DDC3
310
260367D3EAE2B24BD2D9A06D48AA754AEFA2F05E0740F29E9A1EBCBCEA59642286E4F0B76C11F226269DD15797E0188D42CF2346A57DE662F40ABCAEC77628C6120F654571D50C04B7F5B9C1E3997CD4F550BE3745C3F20DE62C98F9755FAE5A04AD801784B498524C8A4F5A75E4D055873772EC0861F966FF03C545FD138A
310
C686B2D8DF7D621E384D8F3C069CE55B16A93C824A75CB8DFF00504B0304140006080800B670623B55019EA25F0000007C00000007000000636E782E786D6C4DCB3B0E80201045D1AD90E915ED2CF8AC45050C11660C8261F98AB1B07AC9C97D42D718D865D3E909258CFD00CCE24AC6E326A164D74DC0B4128928FF326038
310
472BA13128B1252AC747C6BAB984FC68F0B87FE8960A5C09FE86CFB69FBA01504B0304140006080800B670623B68FC0B7272010000D40300000C0000006662782F636F72652E786D6CC5535B6E833010BC8AE5DF0A6C1E8124328E22D29EA01770C0A128602363A31CBFCB234A53A555FA553EC09AD9F5CE8C31DB5DDA060D
310
D2F4B556190E7C8A9154852E6B5565D8D993B7C668C799D1DA7E29C3488956667884316795D1AE5BA0422B2B950554E9522EA0E87B69312A1A5864B82F3E642B7CE12C54F467BF13C55954D20F7CA0A18EB3DE1A1080E621E31BF3D3F1C2C88C73E65C5D2E6C5DC2B4FA544B8379921C36797888BC3C8A032F4E73EA6D927D
310
EA1DF6F42D49F2E8350D5346C666CE6CDD5ED515460A2B4BCC434A375E1078347C0FE22D5D6DE3D50B5D6F2965642CBF6B725DF96493AB958DC245EEDCD6631E809089F8E61622B2A81703E8219C913144F84C09DF070D8140C8561C9BAB8F3340832CAC363130A576376A108D933095FA747AD0CF0B46E64E983A6D0EAE1F
310
CE089F9EF1FB8E70D44255604258581E9D1D75B259C3125A278D37D80B52DAB4A279CEC62F0EFF44DDC43F9454E8469BFF5244960322CBEF41C6FBC83F01504B0304140006080800B670623B0F71DDB67E0000009D0000000B0000006662782F636E782E786D6C4DCCD10A83201886E15B91FFDCA54DB73F502386BB8F5816
310
32D3703976F9ABD1C18E3E78F87855FB990379BBFCF2296AE02706C4C5471A7C9C349475A408A4352AA7B4FEDD80C47E761A7606A3A69CCA72D0E0C6BE8475D3E0E3F3409428EA6B27A84079A782899AA2EC1A7AE3ECCC2FD858CB2D544655BFD2B67BD87C01504B0304140006080800B670623BE134B4FB28010000120200
310
00310000006662782F38353834323741342D343835462D343034322D383541392D4331303331363839454531452F636F72652E786D6C8D515B6EC32010BC0AE22B55850D0EA424C24451959EA0172086A42831583CAA1CBF503B52FB971F16CDCECC0EACD8DFC71BF836215AEF7A481A0C817183D7D65D7A98D3197108F652
310
04EFD31F1A044E8DA6871586525C82CFD3020DDE25E352419DD76601558C264130DCCAA58771F832A36A544E8511AFCDA486ABBA988634A55D7852C4144A00300FA927949C71DABD1D28A29C7D208A6987383B6CD13BC16BB2E1DBE3911C453B0BA5C8D9EA456E758963CFD684674DAA588A64C747FC2118958C86B2C3788B
310
0841B8FB247487D98EB257CC77188BB6D2FF89F2A49F1465EBD2BA5BE2CEB2082511EDDC9042FB7CBA3DC298FBE4430275DE2A9AE1054ADC60CC08E3A29D89E5F9C5714317C7987C28DFBBBA9E0A97B0D97643A568EB864AF95D5FA9759BF207504B0304140006080800B670623B1B8617914E010000330300003000000066
310
62782F38353834323741342D343835462D343034322D383541392D4331303331363839454531452F636E782E786D6CD593C16EC32010447F0571AD6CE3D489D20813A9877E410FBD62D82434182CC055F3F75D1292E692438FBD206B7698593D61BEFD1E2DF982108D773D6D6B460938E5B571FB9ECE6957AD29D90A1EBC4F
310
77364A9C1CA1A759A682EF839FA72269D8C9D92654AD71C72206887E0E0A22CAF926B15E498B01E0AA19451807D01A34B919F16B070157417138917400F2F6FA41FCF0092A45DEE414C19BDC21783E4BD39D891265658C3D8DEA00A3ACE59CBC8678ACB54CB26EEB6BD7839D7E9348BE70AD9C8321B9BCA7F9A4A26C542347
310
DEE050F09802D22BA6749A800A394DD62899107273365E3C82CFC6A55557BC06C10774B7ABE7AEC3B0F34CF06446280E154026D0542C187BA9DAB6628BF7B6DBB0E5A65B3EB1F58631DE64BBE083F7B65CC218087E22CABB042E51D1F2268F1FE12B3EA24D40D63E9CFE00120194D60B9D5BC67FE6D39CDF37E20AF817881F
310
504B0304140006080800B670623B5933D422630500003B100000340000006662782F38353834323741342D343835462D343034322D383541392D4331303331363839454531452F6F626A656374732E786D6CAD575B6FA33814FE2B887D0642934E9B156594264D158D3A534DD4D13E548A0C38942D60649B4EBABF7E3F8321
310
40924EF6928780CDF1B97EE762EFF32E4B8D37CA45C2F21BD3B547A641F39045491EDF98A5DC5AD7A6F1D9F73863B243661A39C9E88DA9B64DDF8B392B0BBD15D12D295339D85DDEFE618890E6D434C2940871638AF08566C426A5641115AF764424B1E3EDCE76ED9AB0CF36E6A47819302D08A7B984A6D8CFC1C5A89572FB
310
CB91E9F89EA3BEFB9EFAD754E3D3544E654F5F7E920B49F2F040D880CDD89D2CEE2E2EA7D6E56432B6269F2E5CEB7679BBB0DCABF168FE693E9FCEEEA6102C240727AD09A75BD3BF876F78127A4EFDA9D5582B7E4CA590E5390D2BFB6161A5B3E618D182E611E2985001691DAB47FDA5AB7CD3F93C566B2DB2BB7D9E55DD13
310
1D468DEECDB3AB290BFE8409E21C54704115AA6AFF68436BFC8DF65E0B184BF5B74418199194272435D224E084BF9B3E481589EFF5D828747285706581E9BB7B7E5D5D911ABFC6EE312DB7659A2A689A7E85EC0DF04FA5A8344BFEA2FCB834E8845895492EAFB541F2BDA0A63FF59C6AD3F7D4637CA13FD68E34B629891172
310
98597F1D183A57B9B75A98FE9765B05BAB7C3C2EBCE0ACA05C2AF8005A4DE09AA7F29216EB9E15397500C6F47CBE77CA7778FE2BD277AF0AE2C693DD6437D1522427B9D8329E2136F6A8FA19A3E6C56ADF0E5F50CF06D48734EDCEBF22F69C56D97EC138153F804B85E6FABFC7AFEFB32E523BE1F3BD372418E363EDCA7548
310
52949E8724474014288D94610BB57C1BEC4C7F854A89CA8E5324F55B871CBC78CE1BBEE3BFE68D6A5589EF3C730474506FCFA8FCF0659516D0ED04580EEA6425581B77CAE797FF4BCECC16EB2FEB926F49481F746159D06D922712BD730FDEAE42BD40F42C7AA5EF3F198F60E86110D6DD20645A9480B795CF95E3E3A659A8
310
C55E724F408873315335CFFB8584874484344D494E59D94869DB90C26A5B64F49C802CAC1D3ABE18A098D3B7444D123D8A9E5AE8F5214F0AE5B2B6E9B575DA3E61CBD3EA2B4009FA940524DD1305FB6A1FB294F14DF0BEA90BA109ECE1481FDC3FFAE8D60E75141700BE82725371B4873751B2DD960265F788137FACE6DD40
310
B575E4F0A5C99F46629D92131467A41EE11ABD8D4CCC039CA0AFB37C93A08B232B8F0AEFCA1E0A1015DF13FC83322B362463652ECF71D3A8B1A7D1BE65DE1D62C44F22C317D35F574FEB16153BA2D13E543D10A80E74C4A65E78A6B7CBCBD1D5DD9DB59C2DAFACC96C3AB566E3F1C29ADCDD5DBAD7D3C9ED7C822ED74F80A6
310
41755310DE4443F44A9E68373FADF6596BFA0F440AE7BECE2727AE9F4F2B1B53B1E7E00CF0DD1E5C65454A339A4BA2D0FBA05ED2EF0443458F47BDBFCA484CCFE0F2ED7E3DD0013B679C7B5499467F0ECEEADDB9CA85A34CE44B99053949D2C1416DB85DE4B136BB7165FBAC0B7AB3542BED4F8CA182A549847A1319316519
310
95A83A67147B9E5101C47487F2485F1ECE38FD568F839204296D3479219888530154036E6528FBFBC66F98E0D4107563A2D7D9AFF8D389681A08F58D89F22693900A3B407754734FC51C10C010D6D640809EE4718AC1BA3ED4AEDB53CA37283F68805A7E4B72CEB0A4EDEAD5DD8C14059A76AFAA56BA6901E13F32BC51C720
310
12AF41295B5BF61BAD3195181FB506E6B40F4C10AF5AF40EF9F5B159AE5DD1F43C72D635E94310D45C2D49785C5D0B94D3B54AB3C5A38349C0587D338AB48C11CBF339599C02CCA54A70A008A8D03C0B2201D5F9EFCF8F9CE12A9A19CB0410789EB32C63B95ECCF455D658BFE0621A3DA32C5075FB101723D77DAE867E7D0F
310
D90444509B44E2151B4DC2290B065803200FBAA9BE9D392A0603F2D5C2D00D6302A615680F66D2FA166E2079D4C551A54AB758161FCEFD4E450A14704CECFEDF504B0304140006080000B670623B000000000000000000000000350000006662782F38353834323741342D343835462D343034322D383541392D4331303331
310
363839454531452F76657274696365732E62696E504B0304140006080800B670623BF270F1330600000004000000360000006662782F38353834323741342D343835462D343034322D383541392D4331303331363839454531452F747269616E676C65732E62696E636660600000504B0304140006080000B670623B000000
310
000000000000000000370000006662782F38353834323741342D343835462D343034322D383541392D4331303331363839454531452F617474726962757465732E62696E504B0304140006080800B670623B08DA0BD19000000041010000360000006662782F38353834323741342D343835462D343034322D383541392D43
310
31303331363839454531452F6469726563746F72792E786D6C858F410AC3201045AF22B36F53E9A60B35CBEEBAE80D244E44489C6234F4F835464A48035D0DF398FF9F8AF63D0E6CC63039F212F8F9020C7D47C6792B21C5FE7403D62A1188E2E60C98D7234A5830286103A55745067B9D86B8A3CF9C7F90C11DE607FB1443
310
96D7B6A82D282E9A152AD114D5EF2CB866EEE831B8EEA07A7BB5A8D7D61A2BAAEB7FD5F70921FF497D00504B0304140006080800B670623BD9A3B367FE000000A00100003B0000006662782F38353834323741342D343835462D343034322D383541392D4331303331363839454531452F7265736F75726365732F636F7265
310
2E786D6C8D504B6E833010BD0A9A6D65B01D0201194711694FD00B586642AD043BF2A7EAF16B122AB5BB6E6646EFA3797AE2F8B5DC8A4FF4C1383B002B291468B59B8C9D0748F1420E501CA5F0CEC55F3228AC5A708015062966EFD27D83B4B3116DCCA875136EA00A012314FA968F0182FEC045952AC5AC08D7F2AEF455CD
310
58B232D3592745883E07289E4FD609D26370C96B0CA27AB252A464A64D63A6FCD35C0C7A904D73EE467EE664DCD58CD4ED4849D79C5A723ED1B7A61977AF2D6F45B59AA58866F9C9A83DAA8813484E6947182394BFB3BAA7FBBEDEBFD0434FA9A856F91F53BA4FFF342563E38E6F719FB60092E5200F428A6AED2BAF479979
310
AFDDCA6F504B010214000A0000080000B670623B3DEE336E79000000790000001B00000000000000000000000000000000006175746F6465736B2D64657369676E2D7061636B6167652E786D6C504B01021400140006080800B670623BD486FD9CA0000000F40000001300000000000000000000000000B20000005B436F6E
310
74656E745F54797065735D2E786D6C504B01021400140006080800B670623BCA089DFFEC0000007C010000080000000000000000000000000083010000636F72652E786D6C504B01021400140006080800B670623B55019EA25F0000007C000000070000000000000000000000000095020000636E782E786D6C504B010214
310
00140006080800B670623B68FC0B7272010000D40300000C00000000000000000000000000190300006662782F636F72652E786D6C504B01021400140006080800B670623B0F71DDB67E0000009D0000000B00000000000000000000000000B50400006662782F636E782E786D6C504B01021400140006080800B670623BE1
310
34B4FB280100001202000031000000000000000000000000005C0500006662782F38353834323741342D343835462D343034322D383541392D4331303331363839454531452F636F72652E786D6C504B01021400140006080800B670623B1B8617914E010000330300003000000000000000000000000000D3060000666278
310
2F38353834323741342D343835462D343034322D383541392D4331303331363839454531452F636E782E786D6C504B01021400140006080800B670623B5933D422630500003B10000034000000000000000000000000006F0800006662782F38353834323741342D343835462D343034322D383541392D4331303331363839
310
454531452F6F626A656374732E786D6C504B01021400140006080000B670623B0000000000000000000000003500000000000000000000000000240E00006662782F38353834323741342D343835462D343034322D383541392D4331303331363839454531452F76657274696365732E62696E504B01021400140006080800
310
B670623BF270F13306000000040000003600000000000000000000000000770E00006662782F38353834323741342D343835462D343034322D383541392D4331303331363839454531452F747269616E676C65732E62696E504B01021400140006080000B670623B0000000000000000000000003700000000000000000000
310
000000D10E00006662782F38353834323741342D343835462D343034322D383541392D4331303331363839454531452F617474726962757465732E62696E504B01021400140006080800B670623B08DA0BD190000000410100003600000000000000000000000000260F00006662782F38353834323741342D343835462D34
310
3034322D383541392D4331303331363839454531452F6469726563746F72792E786D6C504B01021400140006080800B670623BD9A3B367FE000000A00100003B000000000000000000000000000A1000006662782F38353834323741342D343835462D343034322D383541392D4331303331363839454531452F7265736F75
310
726365732F636F72652E786D6C504B0506000000000E000E0080040000611100000000
  0
XRECORD
  5
113
102
{ACAD_REACTORS
330
110
102
}
330
110
100
AcDbXrecord
280
     1
270
     1
271
     1
  0
XRECORD
  5
114
102
{ACAD_REACTORS
330
110
102
}
330
110
100
AcDbXrecord
280
     1
270
     1
271
     1
  0
XRECORD
  5
B86
102
{ACAD_REACTORS
330
1C4
102
}
330
1C4
100
AcDbXrecord
280
     1
102
DISPLAYNAME
  1
Imperial24
102
FLAGS
 90
        0
  0
CELLSTYLEMAP
  5
B85
102
{ACAD_REACTORS
330
104
102
}
330
104
100
AcDbCellStyleMap
 90
        3
300
CELLSTYLE
  1
TABLEFORMAT_BEGIN
 90
        5
170
     1
 91
        0
 92
    32768
 62
   257
 93
        1
300
CONTENTFORMAT
  1
CONTENTFORMAT_BEGIN
 90
        0
 91
        0
 92
      512
 93
        0
300

 40
0.0
140
1.0
 94
        5
 62
     0
340
11
144
0.25
309
CONTENTFORMAT_END
171
     1
301
MARGIN
  1
CELLMARGIN_BEGIN
 40
0.06
 40
0.06
 40
0.06
 40
0.06
 40
0.18
 40
0.18
309
CELLMARGIN_END
 94
        6
 95
        1
302
GRIDFORMAT
  1
GRIDFORMAT_BEGIN
 90
        0
 91
        1
 62
     0
 92
       -2
340
0
 93
        0
 40
0.045
309
GRIDFORMAT_END
 95
        2
302
GRIDFORMAT
  1
GRIDFORMAT_BEGIN
 90
        0
 91
        1
 62
     0
 92
       -2
340
0
 93
        0
 40
0.045
309
GRIDFORMAT_END
 95
        4
302
GRIDFORMAT
  1
GRIDFORMAT_BEGIN
 90
        0
 91
        1
 62
     0
 92
       -2
340
0
 93
        0
 40
0.045
309
GRIDFORMAT_END
 95
        8
302
GRIDFORMAT
  1
GRIDFORMAT_BEGIN
 90
        0
 91
        1
 62
     0
 92
       -2
340
0
 93
        0
 40
0.045
309
GRIDFORMAT_END
 95
       16
302
GRIDFORMAT
  1
GRIDFORMAT_BEGIN
 90
        0
 91
        1
 62
     0
 92
       -2
340
0
 93
        0
 40
0.045
309
GRIDFORMAT_END
 95
       32
302
GRIDFORMAT
  1
GRIDFORMAT_BEGIN
 90
        0
 91
        1
 62
     0
 92
       -2
340
0
 93
        0
 40
0.045
309
GRIDFORMAT_END
309
TABLEFORMAT_END
  1
CELLSTYLE_BEGIN
 90
        1
 91
        1
300
_TITLE
309
CELLSTYLE_END
300
CELLSTYLE
  1
TABLEFORMAT_BEGIN
 90
        5
170
     1
 91
        0
 92
        0
 62
   257
 93
        1
300
CONTENTFORMAT
  1
CONTENTFORMAT_BEGIN
 90
        0
 91
        0
 92
      512
 93
        0
300

 40
0.0
140
1.0
 94
        5
 62
     0
340
11
144
0.18
309
CONTENTFORMAT_END
171
     1
301
MARGIN
  1
CELLMARGIN_BEGIN
 40
0.06
 40
0.06
 40
0.06
 40
0.06
 40
0.18
 40
0.18
309
CELLMARGIN_END
 94
        6
 95
        1
302
GRIDFORMAT
  1
GRIDFORMAT_BEGIN
 90
        0
 91
        1
 62
     0
 92
       -2
340
0
 93
        0
 40
0.045
309
GRIDFORMAT_END
 95
        2
302
GRIDFORMAT
  1
GRIDFORMAT_BEGIN
 90
        0
 91
        1
 62
     0
 92
       -2
340
0
 93
        0
 40
0.045
309
GRIDFORMAT_END
 95
        4
302
GRIDFORMAT
  1
GRIDFORMAT_BEGIN
 90
        0
 91
        1
 62
     0
 92
       -2
340
0
 93
        0
 40
0.045
309
GRIDFORMAT_END
 95
        8
302
GRIDFORMAT
  1
GRIDFORMAT_BEGIN
 90
        0
 91
        1
 62
     0
 92
       -2
340
0
 93
        0
 40
0.045
309
GRIDFORMAT_END
 95
       16
302
GRIDFORMAT
  1
GRIDFORMAT_BEGIN
 90
        0
 91
        1
 62
     0
 92
       -2
340
0
 93
        0
 40
0.045
309
GRIDFORMAT_END
 95
       32
302
GRIDFORMAT
  1
GRIDFORMAT_BEGIN
 90
        0
 91
        1
 62
     0
 92
       -2
340
0
 93
        0
 40
0.045
309
GRIDFORMAT_END
309
TABLEFORMAT_END
  1
CELLSTYLE_BEGIN
 90
        2
 91
        1
300
_HEADER
309
CELLSTYLE_END
300
CELLSTYLE
  1
TABLEFORMAT_BEGIN
 90
        5
170
     1
 91
        0
 92
        0
 62
   257
 93
        1
300
CONTENTFORMAT
  1
CONTENTFORMAT_BEGIN
 90
        0
 91
        0
 92
      512
 93
        0
300

 40
0.0
140
1.0
 94
        2
 62
     0
340
11
144
0.18
309
CONTENTFORMAT_END
171
     1
301
MARGIN
  1
CELLMARGIN_BEGIN
 40
0.06
 40
0.06
 40
0.06
 40
0.06
 40
0.18
 40
0.18
309
CELLMARGIN_END
 94
        6
 95
        1
302
GRIDFORMAT
  1
GRIDFORMAT_BEGIN
 90
        0
 91
        1
 62
     0
 92
       -2
340
0
 93
        0
 40
0.045
309
GRIDFORMAT_END
 95
        2
302
GRIDFORMAT
  1
GRIDFORMAT_BEGIN
 90
        0
 91
        1
 62
     0
 92
       -2
340
0
 93
        0
 40
0.045
309
GRIDFORMAT_END
 95
        4
302
GRIDFORMAT
  1
GRIDFORMAT_BEGIN
 90
        0
 91
        1
 62
     0
 92
       -2
340
0
 93
        0
 40
0.045
309
GRIDFORMAT_END
 95
        8
302
GRIDFORMAT
  1
GRIDFORMAT_BEGIN
 90
        0
 91
        1
 62
     0
 92
       -2
340
0
 93
        0
 40
0.045
309
GRIDFORMAT_END
 95
       16
302
GRIDFORMAT
  1
GRIDFORMAT_BEGIN
 90
        0
 91
        1
 62
     0
 92
       -2
340
0
 93
        0
 40
0.045
309
GRIDFORMAT_END
 95
       32
302
GRIDFORMAT
  1
GRIDFORMAT_BEGIN
 90
        0
 91
        1
 62
     0
 92
       -2
340
0
 93
        0
 40
0.045
309
GRIDFORMAT_END
309
TABLEFORMAT_END
  1
CELLSTYLE_BEGIN
 90
        3
 91
        2
300
_DATA
309
CELLSTYLE_END
  0
ENDSEC
  0
SECTION
  2
ACDSDATA
 70
     2
 71
     8
  0
ACDSSCHEMA
 90
        0
  1
AcDb_Thumbnail_Schema
  2
AcDbDs::ID
280
    10
 91
        8
  2
Thumbnail_Data
280
    15
 91
        0
101
ACDSRECORD
 95
        0
 90
        1
  2
AcDbDs::TreatedAsObjectData
280
     1
291
     1
101
ACDSRECORD
 95
        0
 90
        2
  2
AcDbDs::Legacy
280
     1
291
     1
101
ACDSRECORD
  1
AcDbDs::ID
 90
        3
  2
AcDs:Indexable
280
     1
291
     1
101
ACDSRECORD
  1
AcDbDs::ID
 90
        4
  2
AcDbDs::HandleAttribute
280
     7
282
     1
  0
ACDSSCHEMA
 90
        1
  1
AcDbDs::TreatedAsObjectDataSchema
  2
AcDbDs::TreatedAsObjectData
280
     1
 91
        0
  0
ACDSSCHEMA
 90
        2
  1
AcDbDs::LegacySchema
  2
AcDbDs::Legacy
280
     1
 91
        0
  0
ACDSSCHEMA
 90
        3
  1
AcDbDs::IndexedPropertySchema
  2
AcDs:Indexable
280
     1
 91
        0
  0
ACDSSCHEMA
 90
        4
  1
AcDbDs::HandleAttributeSchema
  2
AcDbDs::HandleAttribute
280
     7
 91
        1
284
     1
  0
ACDSRECORD
 90
        0
  2
AcDbDs::ID
280
    10
320
5E
  2
Thumbnail_Data
280
    15
 94
     2639
310
89504E470D0A1A0A0000000D4948445200000100000000C508030000008CFEDCE700000300504C5445FFFFFF000000C8C8C80000000000000000000000000000000000000000000000000000330000660000990000CC0000FF0033000033330033660033990033CC0033FF0066000066330066660066990066CC0066FF0099
310
000099330099660099990099CC0099FF00CC0000CC3300CC6600CC9900CCCC00CCFF00FF0000FF3300FF6600FF9900FFCC00FFFF3300003300333300663300993300CC3300FF3333003333333333663333993333CC3333FF3366003366333366663366993366CC3366FF3399003399333399663399993399CC3399FF33CC00
310
33CC3333CC6633CC9933CCCC33CCFF33FF0033FF3333FF6633FF9933FFCC33FFFF6600006600336600666600996600CC6600FF6633006633336633666633996633CC6633FF6666006666336666666666996666CC6666FF6699006699336699666699996699CC6699FF66CC0066CC3366CC6666CC9966CCCC66CCFF66FF0066
310
FF3366FF6666FF9966FFCC66FFFF9900009900339900669900999900CC9900FF9933009933339933669933999933CC9933FF9966009966339966669966999966CC9966FF9999009999339999669999999999CC9999FF99CC0099CC3399CC6699CC9999CCCC99CCFF99FF0099FF3399FF6699FF9999FFCC99FFFFCC0000CC00
310
33CC0066CC0099CC00CCCC00FFCC3300CC3333CC3366CC3399CC33CCCC33FFCC6600CC6633CC6666CC6699CC66CCCC66FFCC9900CC9933CC9966CC9999CC99CCCC99FFCCCC00CCCC33CCCC66CCCC99CCCCCCCCCCFFCCFF00CCFF33CCFF66CCFF99CCFFCCCCFFFFFF0000FF0033FF0066FF0099FF00CCFF00FFFF3300FF3333
310
FF3366FF3399FF33CCFF33FFFF6600FF6633FF6666FF6699FF66CCFF66FFFF9900FF9933FF9966FF9999FF99CCFF99FFFFCC00FFCC33FFCC66FFCC99FFCCCCFFCCFFFFFF00FFFF33FFFF66FFFF99FFFFCCFFFFFF0000000D0D0D1A1A1A2828283535354343435050505D5D5D6B6B6B787878868686939393A1A1A1AEAEAEBB
310
BBBBC9C9C9D6D6D6E4E4E4F1F1F1FFFFFF000000000000000000000000000000000000000000000000000000000000B0E2D2350000070A4944415478DAED9D6B72AB300C85BD21ED7F01DE897F6B1105BFDF28140284C3CCCDA4199AA2CF928E2C1BAEE2971FEACD07000000000040786F96E34DAF1500F3B6B13700000000
310
0015000084000000000020090200420000000000A00223508F3FFEA902E6375C7D7F0E000000780900F536000A001002000000008024080008010000000040120400840000000054002A0015400E000000800A4005A002C801FDDF7FEAE680E3003C74F8EF0E80E82600D45500B4BE0680BA0900A5E944273007AAC0F10082
310
DD7A898315C2091BD6EE9D03A84A06A40EDFB4F724008E01D92B3A2C286E0DA0B1D2C6818740C764865BAB00C551F7C6C6B78E8105F24F0C7756012AC2C031D0DAFB80778412CF8FA980B32ADA656DB6829039437084E818F43B39C0DB9F0A213FEC71A8A985E03DE5030E57026069007802ABA9DED3FD706B1D7EB2579918
310
A88CC11CC66D011409C0127002C8FE5397FE5602BE40509CD8F8177BF5CA4C4BE90B55804501903BBCBD9238D494C697FCE72A37DE7F9C3CE86E2AC032FB1783741EF1F69292FDF12501283E5FAFFF200007878038001617D6CE0182772700944EE7E82C5403B8670E6099FD76D457F527CE6AA0207B99FD030086E7B3E9AB
310
00B0D87E97E516FB43DDB7BA4293051467215386903E2A091E0B40E8FFB1EE53DEEA607F143ACABE2F390075E752375201A9038420501CCA5FEF0AE52873AD1C52FBCF5401DA09A07280CCEA351BACEFF22A27FB3A6AE4232B9A2F50819D00A8CC00FEFA3915FF9495FC7DFBE36FEBED6EDA893980F6C50035336115F3BE23
310
A1A80AF291FDE44B886B0090FA370032541FCC5610A23E94F657FA31AF018F0310BCEC23001D0294D7BD5100F339DF623EBBC95F36DBE9DBFFCD8ED02E00DC0390E7360B20333FBD539CE50A16D84F933C78840A84E996A99A771F7EAB5966FE19006333587BB0CEBD87D596FD2954CE53015F6B99C47BFB1BB92B004572D7
310
A5FF8737CB1F8BF4B6ECCF0BE653936000B061FCC6235AA3FD11C0125FDACF836CF45B39D0D1F2A9FDB2FED8812A4066D3F889E9D414377EFC6C24B00D7DEF0DDA07014FEC1737C58E05B06BE0EB91A2A20318EA5FE705F6535D5C56D6341977C1884689F0ECB9C0B6EDA4FAF5936BF82D87E120027EC6E7FB1FDC744E0683
310
3F8D85333B425B01DFBDAC6C192010F00590FBBA38D7EDDBDF014A97AC0B7C3CF0950CB8894F7A5DE54F174D2F55CD7AA963AC200F9E540AF3A7035F0E969BF52FAF6B3BCCC44E3FAB924099FEEA2F96E5C17300F067035FF4377C116C85DFB603ED94C6AC2F15806ADA34C73C2A06BFD511DA18F84C03B5CFFA6CEB42D7F8
310
F73931F5BD1A0A341D7ACA12245DD0119A39633374DA95C0ECE7B24571C4B9C70F0BFFCE5F38A421B217C06CE8BB8EEA9AE06E625096475C277BDA404DFF69881CB52E401FE483AC5EA1AAB119B4AF9EF24F9CE9CBA5F0E00412E783D0F6D7CE343FC9A42E80DEBC67EE7783FF2DE2EB6DF1B1F1A90BA6E36E88BACDC5B54B
310
0C07BFB15EB9F5D3BA36FD3280A10C12E569304E883B00CA224032F8CE7AEAABF377D70548A2034A57275205808A26076DFA7E92D16B54600660980E5A931200A7934A58FA87EBD75AF746E0ABABC3BD6E1509CE2C004C7745559FD4A3D729072FDC2142C506A039299596805D83A0B7E4418DF9F5DF33E457DAD3A9D701A0
310
B0FF477F00C0FD5AAFBBD149FC6D6F94DA95822B01281F9B8254A1FCC68890014997003A912F48BFDF5701C915754B27F7C261B1C00A248D378235977C4D4768CBFE7A0A171C9B0667B3AAD68AE29691AEF049CA8F6B778A960990CA695E73FD618B40D3FA6EAD63E16C6C2DB6AFDC2768AA0438DCD6111CA0B707B425D066
310
BFE1A46BED375DBA55B64E80447D755FFFD975E12602A8DC19CB12F333625703E88665BBB3D3AD6FF1A4AFE16C62DEF2FED687EE77BF80DB005B7B80DD199FFA40FD6553DE0AFE4EC2B8DFFD02D46B6CB85B03E60BDDEBC689FC5A652B04B7BB5FC0A87AD2628B9EB21532F19EB862265C20B9E1FD02DAEE0BCDC5C2AD0990
310
E808BBA9A59DC99B01A058E59505832320FD166E8A093AA21436DF4A824DAAF60B256D7F6F7810C9CCBFEB5D634D93884AA365622299773CE2DE61B5EFDE3822355B8EBBAB0A0C9571CFF1BF85117323008ACE729EA700D8C89A5BD2989FF8380042F364F2D2E07CC41324E8A838EAACA53F40058C163D43431008F93DA88F
310
5201E14344B6A321A1BC415BFCA474214649BF08407D720FBD3BF3071FA42417067A860AEC9D50C95CE0117381D36261ED403E41054E0C05FAED87A90910E06972EF0640FA3755403EFCDAD0812AF0C8C3AE8E1DA302CF3CC600F05C6100000085072B0300420000000000900401002100000000005001A800720000000054
310
002A0015400E000000800A4005A002C8010010CF7BFCF14F003F7B4855E0C70F00400800000000009220002004000000A0025001A80072C0BB01D8DEC99B5E91030000000000002C007EF9F17A007F9E89B68B97F8B68F0000000049454E44AE426082
  0
ACDSRECORD
 90
        0
  2
AcDbDs::ID
280
    10
320
22
  2
Thumbnail_Data
280
    15
 94
     1492
310
89504E470D0A1A0A0000000D4948445200000100000000600803000000C52F5CBA00000300504C5445212830000000C8C8C80000000000000000000000000000000000000000000000000000330000660000990000CC0000FF0033000033330033660033990033CC0033FF0066000066330066660066990066CC0066FF0099
310
000099330099660099990099CC0099FF00CC0000CC3300CC6600CC9900CCCC00CCFF00FF0000FF3300FF6600FF9900FFCC00FFFF3300003300333300663300993300CC3300FF3333003333333333663333993333CC3333FF3366003366333366663366993366CC3366FF3399003399333399663399993399CC3399FF33CC00
310
33CC3333CC6633CC9933CCCC33CCFF33FF0033FF3333FF6633FF9933FFCC33FFFF6600006600336600666600996600CC6600FF6633006633336633666633996633CC6633FF6666006666336666666666996666CC6666FF6699006699336699666699996699CC6699FF66CC0066CC3366CC6666CC9966CCCC66CCFF66FF0066
310
FF3366FF6666FF9966FFCC66FFFF9900009900339900669900999900CC9900FF9933009933339933669933999933CC9933FF9966009966339966669966999966CC9966FF9999009999339999669999999999CC9999FF99CC0099CC3399CC6699CC9999CCCC99CCFF99FF0099FF3399FF6699FF9999FFCC99FFFFCC0000CC00
310
33CC0066CC0099CC00CCCC00FFCC3300CC3333CC3366CC3399CC33CCCC33FFCC6600CC6633CC6666CC6699CC66CCCC66FFCC9900CC9933CC9966CC9999CC99CCCC99FFCCCC00CCCC33CCCC66CCCC99CCCCCCCCCCFFCCFF00CCFF33CCFF66CCFF99CCFFCCCCFFFFFF0000FF0033FF0066FF0099FF00CCFF00FFFF3300FF3333
310
FF3366FF3399FF33CCFF33FFFF6600FF6633FF6666FF6699FF66CCFF66FFFF9900FF9933FF9966FF9999FF99CCFF99FFFFCC00FFCC33FFCC66FFCC99FFCCCCFFCCFFFFFF00FFFF33FFFF66FFFF99FFFFCCFFFFFF0000000D0D0D1A1A1A2828283535354343435050505D5D5D6B6B6B787878868686939393A1A1A1AEAEAEBB
310
BBBBC9C9C9D6D6D6E4E4E4F1F1F1FFFFFF000000000000000000000000000000000000000000000000000000000000B21171F6000000354944415478DAEDD0310100000C02200BD9BF9E1D76EC82082400000000000000000000000000000000705205000000000000007F0696AC002E99FF93890000000049454E44AE4260
310
82981D55201A41518510DE19FFAE4A08EEEB41770F48E9EF557889003A3C40A501B6BE0EE4D32335F4BEA5FCAB230970BE6BE65C80CDAECE8F6DB09D61C71E385F9AF70A48990FCAD6A7F22826E05C8014A9943A5E57FCE9C9A71376021C0E18544DB0893F3EEFC9209D4DF7AA229C06B087EC77DA34C6BFEE746F9F47BED2
310
D9F10408B9014AC98FF16BC11A980870D5F9F19514A4E521C0E271778B7FC5E03F267EEC05B3A48055D5AEF8EB1561F5FDE0398DB1E58FCCE70A680D324DC5F99D70C6BFAE04D3122EB3DF6E7B63F4AAA381CFBDA71E1231E9A9F6F32AD4E65F4F9BB2272BC8866F5B297D75A6FF74859BE8DB17ADF3CD2BC5D1593004719D
310
9529C5C3D979554A1E9297D740CDFD8FDB276927B09B58591B4F3B61980810BA3AD750336E045098347B2C807A1AE879A770E004A14965E7FC7525D434FCB81C2EAF803D4553EF80F56BE1C7CBD7C7B200F91660CF1B7E292905A0299E7AFF9B7D61AA80FBDF49A6C3BEB4FABDA13F09F0DC06FEDD40BFE1BD00BE39DCC3EB
310
FF4300006F9808BE10807F54711E0000000000000000FC2F3FFD91E6608E5B09900000000049454E44AE426082446876C230346EFE07F9D0F587A2672CCB15D675EE334D464607990A68F9DA692AACD792DBDD80B8FC5774C85E068CB23FEB87D7C5DB2ED8C88090065BC43F00DCA76A3BDE1CCD95E1362685BCC080877372
310
F020B6067BDE1EBFE9FDECD08E068CD6F0A327EDEE51DF0C5B6E81CF7921940C4F87AF31E079248A3719200F7375E05D063C58B290015F42E5DDA8BEDD0142082184104208218490BFE607C1852BBD3AA9E1300000000049454E44AE426082
  0
ENDSEC
  0
EOF
