 999
Metric - Created with Simple DXF 20190828
 999
Bits=0
 0
SECTION
 2
HEADER
 0
ENDSEC
 999
********************************
 0
SECTION
 2
BLOCKS
 0
ENDSEC
 999
********************************
 0
SECTION
 2
ENTITIES
 0
POLYLINE
 8
Layer0
 70
1
 10
51.2961
 20
189.5
 30
0
 39
0
 66
1
 0
VERTEX
 8
Layer0
 10
51.2961
 20
189.5
 30
0
 0
VERTEX
 8
Layer0
 10
101.2961
 20
189.5
 30
0
 0
VERTEX
 8
Layer0
 10
101.2961
 20
207
 30
0
 42
0.0921
 0
VERTEX
 8
Layer0
 10
97.3136
 20
205.2099
 30
0
 42
-0.1751
 0
VERTEX
 8
Layer0
 10
89.9467
 20
202.9582
 30
0
 42
0.1874
 0
VERTEX
 8
Layer0
 10
81.7653
 20
200.2025
 30
0
 42
-0.1258
 0
VERTEX
 8
Layer0
 10
69.5188
 20
194.2937
 30
0
 42
-0.0744
 0
VERTEX
 8
Layer0
 10
52.2961
 20
194
 30
0
 0
VERTEX
 8
Layer0
 10
52.2961
 20
200.5
 30
0
 0
VERTEX
 8
Layer0
 10
46.2961
 20
200.5
 30
0
 0
VERTEX
 8
Layer0
 10
46.2961
 20
194
 30
0
 0
VERTEX
 8
Layer0
 10
31.2961
 20
194
 30
0
 0
VERTEX
 8
Layer0
 10
31.2961
 20
200.5
 30
0
 0
VERTEX
 8
Layer0
 10
15.8912
 20
202.9398
 30
0
 42
-0.2016
 0
VERTEX
 8
Layer0
 10
3.6343
 20
198.9175
 30
0
 42
-0.4197
 0
VERTEX
 8
Layer0
 10
4.2572
 20
192.1148
 30
0
 42
0.367
 0
VERTEX
 8
Layer0
 10
4.2572
 20
183.8852
 30
0
 42
-0.4197
 0
VERTEX
 8
Layer0
 10
3.6343
 20
177.0825
 30
0
 42
-0.2016
 0
VERTEX
 8
Layer0
 10
15.8912
 20
173.0602
 30
0
 0
VERTEX
 8
Layer0
 10
31.2961
 20
175.5
 30
0
 0
VERTEX
 8
Layer0
 10
31.2961
 20
182
 30
0
 0
VERTEX
 8
Layer0
 10
46.2961
 20
182
 30
0
 0
VERTEX
 8
Layer0
 10
46.2961
 20
175.5
 30
0
 0
VERTEX
 8
Layer0
 10
52.2961
 20
175.5
 30
0
 0
VERTEX
 8
Layer0
 10
52.2961
 20
182
 30
0
 42
-0.0744
 0
VERTEX
 8
Layer0
 10
69.5188
 20
181.7063
 30
0
 42
-0.1258
 0
VERTEX
 8
Layer0
 10
81.7653
 20
175.7975
 30
0
 42
0.1874
 0
VERTEX
 8
Layer0
 10
89.9467
 20
173.0418
 30
0
 42
-0.1751
 0
VERTEX
 8
Layer0
 10
97.3136
 20
170.7901
 30
0
 42
0.0921
 0
VERTEX
 8
Layer0
 10
101.2961
 20
169
 30
0
 0
VERTEX
 8
Layer0
 10
101.2961
 20
186.5
 30
0
 0
VERTEX
 8
Layer0
 10
51.2961
 20
186.5
 30
0
 0
SEQEND
 999
********************************
 0
POLYLINE
 8
Layer0
 70
1
 10
152.6709
 20
186.5
 30
0
 39
0
 66
1
 0
VERTEX
 8
Layer0
 10
152.6709
 20
186.5
 30
0
 0
VERTEX
 8
Layer0
 10
104.2961
 20
186.522
 30
0
 42
0.1178
 0
VERTEX
 8
Layer0
 10
105.632
 20
183.8852
 30
0
 42
-0.4197
 0
VERTEX
 8
Layer0
 10
105.0091
 20
177.0825
 30
0
 42
-0.2016
 0
VERTEX
 8
Layer0
 10
117.266
 20
173.0602
 30
0
 0
VERTEX
 8
Layer0
 10
132.6709
 20
175.5
 30
0
 0
VERTEX
 8
Layer0
 10
132.6709
 20
182
 30
0
 0
VERTEX
 8
Layer0
 10
147.6709
 20
182
 30
0
 0
VERTEX
 8
Layer0
 10
147.6709
 20
175.5
 30
0
 0
VERTEX
 8
Layer0
 10
153.6709
 20
175.5
 30
0
 0
VERTEX
 8
Layer0
 10
153.6709
 20
182
 30
0
 42
-0.0744
 0
VERTEX
 8
Layer0
 10
170.8936
 20
181.7063
 30
0
 42
-0.1258
 0
VERTEX
 8
Layer0
 10
183.1401
 20
175.7975
 30
0
 42
0.1874
 0
VERTEX
 8
Layer0
 10
191.3215
 20
173.0418
 30
0
 42
-0.1751
 0
VERTEX
 8
Layer0
 10
198.6884
 20
170.7901
 30
0
 42
0.0921
 0
VERTEX
 8
Layer0
 10
202.6709
 20
169
 30
0
 0
VERTEX
 8
Layer0
 10
202.6709
 20
207
 30
0
 42
0.0921
 0
VERTEX
 8
Layer0
 10
198.6884
 20
205.2099
 30
0
 42
-0.1751
 0
VERTEX
 8
Layer0
 10
191.3215
 20
202.9582
 30
0
 42
0.1874
 0
VERTEX
 8
Layer0
 10
183.1401
 20
200.2025
 30
0
 42
-0.1258
 0
VERTEX
 8
Layer0
 10
170.8936
 20
194.2937
 30
0
 42
-0.0744
 0
VERTEX
 8
Layer0
 10
153.6709
 20
194
 30
0
 0
VERTEX
 8
Layer0
 10
153.6709
 20
200.5
 30
0
 0
VERTEX
 8
Layer0
 10
147.6709
 20
200.5
 30
0
 0
VERTEX
 8
Layer0
 10
147.6709
 20
194
 30
0
 0
VERTEX
 8
Layer0
 10
132.6709
 20
194
 30
0
 0
VERTEX
 8
Layer0
 10
132.6709
 20
200.5
 30
0
 0
VERTEX
 8
Layer0
 10
117.266
 20
202.9398
 30
0
 42
-0.2016
 0
VERTEX
 8
Layer0
 10
105.0091
 20
198.9175
 30
0
 42
-0.4197
 0
VERTEX
 8
Layer0
 10
105.632
 20
192.1148
 30
0
 42
0.1178
 0
VERTEX
 8
Layer0
 10
104.2961
 20
189.478
 30
0
 0
VERTEX
 8
Layer0
 10
152.6709
 20
189.5
 30
0
 0
SEQEND
 999
********************************
 0
POLYLINE
 8
Layer0
 70
1
 10
249
 20
189.5
 30
0
 39
0
 66
1
 0
VERTEX
 8
Layer0
 10
249
 20
189.5
 30
0
 0
VERTEX
 8
Layer0
 10
294
 20
189.5
 30
0
 0
VERTEX
 8
Layer0
 10
294
 20
207
 30
0
 42
0.0921
 0
VERTEX
 8
Layer0
 10
290.0176
 20
205.2099
 30
0
 42
-0.1751
 0
VERTEX
 8
Layer0
 10
282.6506
 20
202.9582
 30
0
 42
0.1874
 0
VERTEX
 8
Layer0
 10
274.4693
 20
200.2025
 30
0
 42
-0.1258
 0
VERTEX
 8
Layer0
 10
262.2227
 20
194.2937
 30
0
 42
-0.0744
 0
VERTEX
 8
Layer0
 10
245
 20
194
 30
0
 0
VERTEX
 8
Layer0
 10
245
 20
200.5
 30
0
 0
VERTEX
 8
Layer0
 10
239
 20
200.5
 30
0
 0
VERTEX
 8
Layer0
 10
239
 20
194
 30
0
 0
VERTEX
 8
Layer0
 10
224
 20
194
 30
0
 0
VERTEX
 8
Layer0
 10
224
 20
199
 30
0
 0
VERTEX
 8
Layer0
 10
209.4536
 20
202.6608
 30
0
 0
VERTEX
 8
Layer0
 10
209.4536
 20
197.6608
 30
0
 0
VERTEX
 8
Layer0
 10
215.6716
 20
196.0959
 30
0
 0
VERTEX
 8
Layer0
 10
210.1179
 20
193.7956
 30
0
 42
0.7673
 0
VERTEX
 8
Layer0
 10
210.1179
 20
182.2044
 30
0
 0
VERTEX
 8
Layer0
 10
215.6716
 20
179.9041
 30
0
 0
VERTEX
 8
Layer0
 10
209.4536
 20
178.3392
 30
0
 0
VERTEX
 8
Layer0
 10
209.4536
 20
173.3392
 30
0
 0
VERTEX
 8
Layer0
 10
224
 20
177
 30
0
 0
VERTEX
 8
Layer0
 10
224
 20
182
 30
0
 0
VERTEX
 8
Layer0
 10
239
 20
182
 30
0
 0
VERTEX
 8
Layer0
 10
239
 20
175.5
 30
0
 0
VERTEX
 8
Layer0
 10
245
 20
175.5
 30
0
 0
VERTEX
 8
Layer0
 10
245
 20
182
 30
0
 42
-0.0744
 0
VERTEX
 8
Layer0
 10
262.2227
 20
181.7063
 30
0
 42
-0.1258
 0
VERTEX
 8
Layer0
 10
274.4693
 20
175.7975
 30
0
 42
0.1874
 0
VERTEX
 8
Layer0
 10
282.6506
 20
173.0418
 30
0
 42
-0.1751
 0
VERTEX
 8
Layer0
 10
290.0176
 20
170.7901
 30
0
 42
0.0921
 0
VERTEX
 8
Layer0
 10
294
 20
169
 30
0
 0
VERTEX
 8
Layer0
 10
294
 20
186.5
 30
0
 0
VERTEX
 8
Layer0
 10
249
 20
186.5
 30
0
 0
SEQEND
 999
********************************
 0
POLYLINE
 8
Layer0
 70
1
 10
272.2948
 20
91.0446
 30
0
 39
0
 66
1
 0
VERTEX
 8
Layer0
 10
272.2948
 20
91.0446
 30
0
 0
VERTEX
 8
Layer0
 10
272.2948
 20
134.1631
 30
0
 42
0.2706
 0
VERTEX
 8
Layer0
 10
267.9993
 20
129.9266
 30
0
 0
VERTEX
 8
Layer0
 10
265.6989
 20
124.373
 30
0
 0
VERTEX
 8
Layer0
 10
264.1341
 20
130.591
 30
0
 0
VERTEX
 8
Layer0
 10
259.1341
 20
130.591
 30
0
 0
VERTEX
 8
Layer0
 10
262.7948
 20
116.0446
 30
0
 0
VERTEX
 8
Layer0
 10
267.7948
 20
116.0446
 30
0
 0
VERTEX
 8
Layer0
 10
267.7948
 20
101.0446
 30
0
 0
VERTEX
 8
Layer0
 10
261.2948
 20
101.0446
 30
0
 0
VERTEX
 8
Layer0
 10
261.2948
 20
95.0446
 30
0
 0
VERTEX
 8
Layer0
 10
267.7948
 20
95.0446
 30
0
 42
-0.0744
 0
VERTEX
 8
Layer0
 10
267.5011
 20
77.8218
 30
0
 42
-0.1258
 0
VERTEX
 8
Layer0
 10
261.5924
 20
65.5753
 30
0
 42
0.1874
 0
VERTEX
 8
Layer0
 10
258.8366
 20
57.3939
 30
0
 42
-0.1751
 0
VERTEX
 8
Layer0
 10
256.5849
 20
50.027
 30
0
 42
0.0921
 0
VERTEX
 8
Layer0
 10
254.7948
 20
46.0446
 30
0
 0
VERTEX
 8
Layer0
 10
292.7948
 20
46.0446
 30
0
 42
0.0921
 0
VERTEX
 8
Layer0
 10
291.0047
 20
50.027
 30
0
 42
-0.1751
 0
VERTEX
 8
Layer0
 10
288.7531
 20
57.3939
 30
0
 42
0.1874
 0
VERTEX
 8
Layer0
 10
285.9973
 20
65.5753
 30
0
 42
-0.1258
 0
VERTEX
 8
Layer0
 10
280.0885
 20
77.8218
 30
0
 42
-0.0744
 0
VERTEX
 8
Layer0
 10
279.7948
 20
95.0446
 30
0
 0
VERTEX
 8
Layer0
 10
286.2948
 20
95.0446
 30
0
 0
VERTEX
 8
Layer0
 10
286.2948
 20
101.0446
 30
0
 0
VERTEX
 8
Layer0
 10
279.7948
 20
101.0446
 30
0
 0
VERTEX
 8
Layer0
 10
279.7948
 20
116.0446
 30
0
 0
VERTEX
 8
Layer0
 10
284.7948
 20
116.0446
 30
0
 0
VERTEX
 8
Layer0
 10
288.4556
 20
130.591
 30
0
 0
VERTEX
 8
Layer0
 10
283.4556
 20
130.591
 30
0
 0
VERTEX
 8
Layer0
 10
281.8908
 20
124.373
 30
0
 0
VERTEX
 8
Layer0
 10
279.5904
 20
129.9266
 30
0
 42
0.2706
 0
VERTEX
 8
Layer0
 10
275.2948
 20
134.1631
 30
0
 0
VERTEX
 8
Layer0
 10
275.2948
 20
91.0446
 30
0
 0
SEQEND
 999
********************************
 0
POLYLINE
 8
Layer0
 70
1
 10
240.5
 20
127
 30
0
 39
0
 66
1
 0
VERTEX
 8
Layer0
 10
240.5
 20
127
 30
0
 0
VERTEX
 8
Layer0
 10
240.5
 20
87
 30
0
 0
VERTEX
 8
Layer0
 10
258
 20
87
 30
0
 42
0.0921
 0
VERTEX
 8
Layer0
 10
256.2099
 20
90.9824
 30
0
 42
-0.1751
 0
VERTEX
 8
Layer0
 10
253.9582
 20
98.3494
 30
0
 42
0.1874
 0
VERTEX
 8
Layer0
 10
251.2025
 20
106.5307
 30
0
 42
-0.1258
 0
VERTEX
 8
Layer0
 10
245.2937
 20
118.7773
 30
0
 42
-0.0744
 0
VERTEX
 8
Layer0
 10
245
 20
136
 30
0
 0
VERTEX
 8
Layer0
 10
251.5
 20
136
 30
0
 0
VERTEX
 8
Layer0
 10
251.5
 20
142
 30
0
 0
VERTEX
 8
Layer0
 10
245
 20
142
 30
0
 0
VERTEX
 8
Layer0
 10
245
 20
147
 30
0
 42
0.5455
 0
VERTEX
 8
Layer0
 10
249.5
 20
153.2482
 30
0
 42
0.1576
 0
VERTEX
 8
Layer0
 10
239
 20
166.0464
 30
0
 42
0.1576
 0
VERTEX
 8
Layer0
 10
228.5
 20
153.2482
 30
0
 42
0.5455
 0
VERTEX
 8
Layer0
 10
233
 20
147
 30
0
 0
VERTEX
 8
Layer0
 10
233
 20
142
 30
0
 0
VERTEX
 8
Layer0
 10
226.5
 20
142
 30
0
 0
VERTEX
 8
Layer0
 10
226.5
 20
136
 30
0
 0
VERTEX
 8
Layer0
 10
233
 20
136
 30
0
 42
-0.0744
 0
VERTEX
 8
Layer0
 10
232.7063
 20
118.7773
 30
0
 42
-0.1258
 0
VERTEX
 8
Layer0
 10
226.7975
 20
106.5307
 30
0
 42
0.1874
 0
VERTEX
 8
Layer0
 10
224.0418
 20
98.3494
 30
0
 42
-0.1751
 0
VERTEX
 8
Layer0
 10
221.7901
 20
90.9824
 30
0
 42
0.0921
 0
VERTEX
 8
Layer0
 10
220
 20
87
 30
0
 0
VERTEX
 8
Layer0
 10
237.5
 20
87
 30
0
 0
VERTEX
 8
Layer0
 10
237.5
 20
127
 30
0
 0
SEQEND
 999
********************************
 0
POLYLINE
 8
Layer0
 70
1
 10
197.5
 20
127
 30
0
 39
0
 66
1
 0
VERTEX
 8
Layer0
 10
197.5
 20
127
 30
0
 0
VERTEX
 8
Layer0
 10
197.5
 20
87
 30
0
 0
VERTEX
 8
Layer0
 10
215
 20
87
 30
0
 42
0.0921
 0
VERTEX
 8
Layer0
 10
213.2099
 20
90.9824
 30
0
 42
-0.1751
 0
VERTEX
 8
Layer0
 10
210.9582
 20
98.3494
 30
0
 42
0.1874
 0
VERTEX
 8
Layer0
 10
208.2025
 20
106.5307
 30
0
 42
-0.1258
 0
VERTEX
 8
Layer0
 10
202.2937
 20
118.7773
 30
0
 42
-0.0744
 0
VERTEX
 8
Layer0
 10
202
 20
136
 30
0
 0
VERTEX
 8
Layer0
 10
208.5
 20
136
 30
0
 0
VERTEX
 8
Layer0
 10
208.5
 20
142
 30
0
 0
VERTEX
 8
Layer0
 10
202
 20
142
 30
0
 0
VERTEX
 8
Layer0
 10
202
 20
147
 30
0
 42
0.5455
 0
VERTEX
 8
Layer0
 10
206.5
 20
153.2482
 30
0
 42
0.1576
 0
VERTEX
 8
Layer0
 10
196
 20
166.0464
 30
0
 42
0.1576
 0
VERTEX
 8
Layer0
 10
185.5
 20
153.2482
 30
0
 42
0.5455
 0
VERTEX
 8
Layer0
 10
190
 20
147
 30
0
 0
VERTEX
 8
Layer0
 10
190
 20
142
 30
0
 0
VERTEX
 8
Layer0
 10
183.5
 20
142
 30
0
 0
VERTEX
 8
Layer0
 10
183.5
 20
136
 30
0
 0
VERTEX
 8
Layer0
 10
190
 20
136
 30
0
 42
-0.0744
 0
VERTEX
 8
Layer0
 10
189.7063
 20
118.7773
 30
0
 42
-0.1258
 0
VERTEX
 8
Layer0
 10
183.7975
 20
106.5307
 30
0
 42
0.1874
 0
VERTEX
 8
Layer0
 10
181.0418
 20
98.3494
 30
0
 42
-0.1751
 0
VERTEX
 8
Layer0
 10
178.7901
 20
90.9824
 30
0
 42
0.0921
 0
VERTEX
 8
Layer0
 10
177
 20
87
 30
0
 0
VERTEX
 8
Layer0
 10
194.5
 20
87
 30
0
 0
VERTEX
 8
Layer0
 10
194.5
 20
127
 30
0
 0
SEQEND
 999
********************************
 0
POLYLINE
 8
Layer0
 70
1
 10
154.5
 20
127
 30
0
 39
0
 66
1
 0
VERTEX
 8
Layer0
 10
154.5
 20
127
 30
0
 0
VERTEX
 8
Layer0
 10
154.5
 20
87
 30
0
 0
VERTEX
 8
Layer0
 10
172
 20
87
 30
0
 42
0.0921
 0
VERTEX
 8
Layer0
 10
170.2099
 20
90.9824
 30
0
 42
-0.1751
 0
VERTEX
 8
Layer0
 10
167.9582
 20
98.3494
 30
0
 42
0.1874
 0
VERTEX
 8
Layer0
 10
165.2025
 20
106.5307
 30
0
 42
-0.1258
 0
VERTEX
 8
Layer0
 10
159.2937
 20
118.7773
 30
0
 42
-0.0744
 0
VERTEX
 8
Layer0
 10
159
 20
136
 30
0
 0
VERTEX
 8
Layer0
 10
165.5
 20
136
 30
0
 0
VERTEX
 8
Layer0
 10
165.5
 20
142
 30
0
 0
VERTEX
 8
Layer0
 10
159
 20
142
 30
0
 0
VERTEX
 8
Layer0
 10
159
 20
147
 30
0
 42
0.5455
 0
VERTEX
 8
Layer0
 10
163.5
 20
153.2482
 30
0
 42
0.131
 0
VERTEX
 8
Layer0
 10
155.2761
 20
164.4101
 30
0
 0
VERTEX
 8
Layer0
 10
154.5
 20
164.9993
 30
0
 0
VERTEX
 8
Layer0
 10
144.9229
 20
165.9907
 30
0
 42
0.5
 0
VERTEX
 8
Layer0
 10
145.2138
 20
164.012
 30
0
 42
0.375
 0
VERTEX
 8
Layer0
 10
143.1765
 20
161.5443
 30
0
 42
-0.0548
 0
VERTEX
 8
Layer0
 10
137.6206
 20
156.8092
 30
0
 42
0.7825
 0
VERTEX
 8
Layer0
 10
140.3292
 20
152.6064
 30
0
 42
0.069
 0
VERTEX
 8
Layer0
 10
146.3997
 20
155.6704
 30
0
 42
-0.2847
 0
VERTEX
 8
Layer0
 10
148.0447
 20
155.7533
 30
0
 42
-0.1663
 0
VERTEX
 8
Layer0
 10
148.5229
 20
155.3153
 30
0
 42
-0.4414
 0
VERTEX
 8
Layer0
 10
148.0686
 20
153.7497
 30
0
 0
VERTEX
 8
Layer0
 10
146.4942
 20
152.2131
 30
0
 0
VERTEX
 8
Layer0
 10
145.1764
 20
150.4515
 30
0
 0
VERTEX
 8
Layer0
 10
144.1606
 20
148.5
 30
0
 0
VERTEX
 8
Layer0
 10
144.1606
 20
147
 30
0
 0
VERTEX
 8
Layer0
 10
147
 20
147
 30
0
 0
VERTEX
 8
Layer0
 10
147
 20
142
 30
0
 0
VERTEX
 8
Layer0
 10
140.5
 20
142
 30
0
 0
VERTEX
 8
Layer0
 10
140.5
 20
136
 30
0
 0
VERTEX
 8
Layer0
 10
147
 20
136
 30
0
 42
-0.0744
 0
VERTEX
 8
Layer0
 10
146.7063
 20
118.7773
 30
0
 42
-0.1258
 0
VERTEX
 8
Layer0
 10
140.7975
 20
106.5307
 30
0
 42
0.1874
 0
VERTEX
 8
Layer0
 10
138.0418
 20
98.3494
 30
0
 42
-0.1751
 0
VERTEX
 8
Layer0
 10
135.7901
 20
90.9824
 30
0
 42
0.0921
 0
VERTEX
 8
Layer0
 10
134
 20
87
 30
0
 0
VERTEX
 8
Layer0
 10
151.5
 20
87
 30
0
 0
VERTEX
 8
Layer0
 10
151.5
 20
127
 30
0
 0
SEQEND
 999
********************************
 0
POLYLINE
 8
Layer0
 70
1
 10
111.5
 20
127
 30
0
 39
0
 66
1
 0
VERTEX
 8
Layer0
 10
111.5
 20
127
 30
0
 0
VERTEX
 8
Layer0
 10
111.5
 20
87
 30
0
 0
VERTEX
 8
Layer0
 10
129
 20
87
 30
0
 42
0.0921
 0
VERTEX
 8
Layer0
 10
127.2099
 20
90.9824
 30
0
 42
-0.1751
 0
VERTEX
 8
Layer0
 10
124.9582
 20
98.3494
 30
0
 42
0.1874
 0
VERTEX
 8
Layer0
 10
122.2025
 20
106.5307
 30
0
 42
-0.1258
 0
VERTEX
 8
Layer0
 10
116.2937
 20
118.7773
 30
0
 42
-0.0744
 0
VERTEX
 8
Layer0
 10
116
 20
136
 30
0
 0
VERTEX
 8
Layer0
 10
122.5
 20
136
 30
0
 0
VERTEX
 8
Layer0
 10
122.5
 20
142
 30
0
 0
VERTEX
 8
Layer0
 10
116
 20
142
 30
0
 0
VERTEX
 8
Layer0
 10
116
 20
147
 30
0
 42
0.5455
 0
VERTEX
 8
Layer0
 10
120.5
 20
153.2482
 30
0
 42
0.131
 0
VERTEX
 8
Layer0
 10
112.2761
 20
164.4101
 30
0
 0
VERTEX
 8
Layer0
 10
111.5
 20
164.9993
 30
0
 0
VERTEX
 8
Layer0
 10
101.9229
 20
165.9907
 30
0
 42
0.5
 0
VERTEX
 8
Layer0
 10
102.2138
 20
164.012
 30
0
 42
0.375
 0
VERTEX
 8
Layer0
 10
100.1765
 20
161.5443
 30
0
 42
-0.0548
 0
VERTEX
 8
Layer0
 10
94.6206
 20
156.8092
 30
0
 42
0.7825
 0
VERTEX
 8
Layer0
 10
97.3292
 20
152.6064
 30
0
 42
0.069
 0
VERTEX
 8
Layer0
 10
103.3997
 20
155.6704
 30
0
 42
-0.2847
 0
VERTEX
 8
Layer0
 10
105.0447
 20
155.7533
 30
0
 42
-0.1663
 0
VERTEX
 8
Layer0
 10
105.5229
 20
155.3153
 30
0
 42
-0.4414
 0
VERTEX
 8
Layer0
 10
105.0686
 20
153.7497
 30
0
 0
VERTEX
 8
Layer0
 10
103.4942
 20
152.2131
 30
0
 0
VERTEX
 8
Layer0
 10
102.1764
 20
150.4515
 30
0
 0
VERTEX
 8
Layer0
 10
101.1606
 20
148.5
 30
0
 0
VERTEX
 8
Layer0
 10
101.1606
 20
147
 30
0
 0
VERTEX
 8
Layer0
 10
104
 20
147
 30
0
 0
VERTEX
 8
Layer0
 10
104
 20
142
 30
0
 0
VERTEX
 8
Layer0
 10
97.5
 20
142
 30
0
 0
VERTEX
 8
Layer0
 10
97.5
 20
136
 30
0
 0
VERTEX
 8
Layer0
 10
104
 20
136
 30
0
 42
-0.0744
 0
VERTEX
 8
Layer0
 10
103.7063
 20
118.7773
 30
0
 42
-0.1258
 0
VERTEX
 8
Layer0
 10
97.7975
 20
106.5307
 30
0
 42
0.1874
 0
VERTEX
 8
Layer0
 10
95.0418
 20
98.3494
 30
0
 42
-0.1751
 0
VERTEX
 8
Layer0
 10
92.7901
 20
90.9824
 30
0
 42
0.0921
 0
VERTEX
 8
Layer0
 10
91
 20
87
 30
0
 0
VERTEX
 8
Layer0
 10
108.5
 20
87
 30
0
 0
VERTEX
 8
Layer0
 10
108.5
 20
127
 30
0
 0
SEQEND
 999
********************************
 0
POLYLINE
 8
Layer0
 70
1
 10
68.5
 20
127
 30
0
 39
0
 66
1
 0
VERTEX
 8
Layer0
 10
68.5
 20
127
 30
0
 0
VERTEX
 8
Layer0
 10
68.5
 20
87
 30
0
 0
VERTEX
 8
Layer0
 10
86
 20
87
 30
0
 42
0.0921
 0
VERTEX
 8
Layer0
 10
84.2099
 20
90.9824
 30
0
 42
-0.1751
 0
VERTEX
 8
Layer0
 10
81.9582
 20
98.3494
 30
0
 42
0.1874
 0
VERTEX
 8
Layer0
 10
79.2025
 20
106.5307
 30
0
 42
-0.1258
 0
VERTEX
 8
Layer0
 10
73.2937
 20
118.7773
 30
0
 42
-0.0744
 0
VERTEX
 8
Layer0
 10
73
 20
136
 30
0
 0
VERTEX
 8
Layer0
 10
79.5
 20
136
 30
0
 0
VERTEX
 8
Layer0
 10
79.5
 20
142
 30
0
 0
VERTEX
 8
Layer0
 10
73
 20
142
 30
0
 0
VERTEX
 8
Layer0
 10
73
 20
147
 30
0
 0
VERTEX
 8
Layer0
 10
77
 20
147
 30
0
 0
VERTEX
 8
Layer0
 10
77
 20
165
 30
0
 0
VERTEX
 8
Layer0
 10
74.5
 20
165
 30
0
 0
VERTEX
 8
Layer0
 10
74.5
 20
161
 30
0
 0
VERTEX
 8
Layer0
 10
71.5
 20
161
 30
0
 0
VERTEX
 8
Layer0
 10
71.5
 20
165
 30
0
 0
VERTEX
 8
Layer0
 10
67
 20
165
 30
0
 0
VERTEX
 8
Layer0
 10
62.5
 20
165
 30
0
 0
VERTEX
 8
Layer0
 10
62.5
 20
161
 30
0
 0
VERTEX
 8
Layer0
 10
59.5
 20
161
 30
0
 0
VERTEX
 8
Layer0
 10
59.5
 20
165
 30
0
 0
VERTEX
 8
Layer0
 10
57
 20
165
 30
0
 0
VERTEX
 8
Layer0
 10
57
 20
147
 30
0
 0
VERTEX
 8
Layer0
 10
61
 20
147
 30
0
 0
VERTEX
 8
Layer0
 10
61
 20
142
 30
0
 0
VERTEX
 8
Layer0
 10
54.5
 20
142
 30
0
 0
VERTEX
 8
Layer0
 10
54.5
 20
136
 30
0
 0
VERTEX
 8
Layer0
 10
61
 20
136
 30
0
 42
-0.0744
 0
VERTEX
 8
Layer0
 10
60.7063
 20
118.7773
 30
0
 42
-0.1258
 0
VERTEX
 8
Layer0
 10
54.7975
 20
106.5307
 30
0
 42
0.1874
 0
VERTEX
 8
Layer0
 10
52.0418
 20
98.3494
 30
0
 42
-0.1751
 0
VERTEX
 8
Layer0
 10
49.7901
 20
90.9824
 30
0
 42
0.0921
 0
VERTEX
 8
Layer0
 10
48
 20
87
 30
0
 0
VERTEX
 8
Layer0
 10
65.5
 20
87
 30
0
 0
VERTEX
 8
Layer0
 10
65.5
 20
127
 30
0
 0
SEQEND
 999
********************************
 0
POLYLINE
 8
Layer0
 70
1
 10
25.5
 20
127
 30
0
 39
0
 66
1
 0
VERTEX
 8
Layer0
 10
25.5
 20
127
 30
0
 0
VERTEX
 8
Layer0
 10
25.5
 20
87
 30
0
 0
VERTEX
 8
Layer0
 10
43
 20
87
 30
0
 42
0.0921
 0
VERTEX
 8
Layer0
 10
41.2099
 20
90.9824
 30
0
 42
-0.1751
 0
VERTEX
 8
Layer0
 10
38.9582
 20
98.3494
 30
0
 42
0.1874
 0
VERTEX
 8
Layer0
 10
36.2025
 20
106.5307
 30
0
 42
-0.1258
 0
VERTEX
 8
Layer0
 10
30.2937
 20
118.7773
 30
0
 42
-0.0744
 0
VERTEX
 8
Layer0
 10
30
 20
136
 30
0
 0
VERTEX
 8
Layer0
 10
36.5
 20
136
 30
0
 0
VERTEX
 8
Layer0
 10
36.5
 20
142
 30
0
 0
VERTEX
 8
Layer0
 10
30
 20
142
 30
0
 0
VERTEX
 8
Layer0
 10
30
 20
147
 30
0
 0
VERTEX
 8
Layer0
 10
34
 20
147
 30
0
 0
VERTEX
 8
Layer0
 10
34
 20
165
 30
0
 0
VERTEX
 8
Layer0
 10
31.5
 20
165
 30
0
 0
VERTEX
 8
Layer0
 10
31.5
 20
161
 30
0
 0
VERTEX
 8
Layer0
 10
28.5
 20
161
 30
0
 0
VERTEX
 8
Layer0
 10
28.5
 20
165
 30
0
 0
VERTEX
 8
Layer0
 10
24
 20
165
 30
0
 0
VERTEX
 8
Layer0
 10
19.5
 20
165
 30
0
 0
VERTEX
 8
Layer0
 10
19.5
 20
161
 30
0
 0
VERTEX
 8
Layer0
 10
16.5
 20
161
 30
0
 0
VERTEX
 8
Layer0
 10
16.5
 20
165
 30
0
 0
VERTEX
 8
Layer0
 10
14
 20
165
 30
0
 0
VERTEX
 8
Layer0
 10
14
 20
147
 30
0
 0
VERTEX
 8
Layer0
 10
18
 20
147
 30
0
 0
VERTEX
 8
Layer0
 10
18
 20
142
 30
0
 0
VERTEX
 8
Layer0
 10
11.5
 20
142
 30
0
 0
VERTEX
 8
Layer0
 10
11.5
 20
136
 30
0
 0
VERTEX
 8
Layer0
 10
18
 20
136
 30
0
 42
-0.0744
 0
VERTEX
 8
Layer0
 10
17.7063
 20
118.7773
 30
0
 42
-0.1258
 0
VERTEX
 8
Layer0
 10
11.7975
 20
106.5307
 30
0
 42
0.1874
 0
VERTEX
 8
Layer0
 10
9.0418
 20
98.3494
 30
0
 42
-0.1751
 0
VERTEX
 8
Layer0
 10
6.7901
 20
90.9824
 30
0
 42
0.0921
 0
VERTEX
 8
Layer0
 10
5
 20
87
 30
0
 0
VERTEX
 8
Layer0
 10
22.5
 20
87
 30
0
 0
VERTEX
 8
Layer0
 10
22.5
 20
127
 30
0
 0
SEQEND
 999
********************************
 0
POLYLINE
 8
Layer0
 70
1
 10
22.5
 20
44
 30
0
 39
0
 66
1
 0
VERTEX
 8
Layer0
 10
22.5
 20
44
 30
0
 0
VERTEX
 8
Layer0
 10
22.5
 20
82
 30
0
 0
VERTEX
 8
Layer0
 10
19.5
 20
82
 30
0
 0
VERTEX
 8
Layer0
 10
19.5
 20
78
 30
0
 0
VERTEX
 8
Layer0
 10
16.5
 20
78
 30
0
 0
VERTEX
 8
Layer0
 10
16.5
 20
82
 30
0
 0
VERTEX
 8
Layer0
 10
14
 20
82
 30
0
 0
VERTEX
 8
Layer0
 10
14
 20
64
 30
0
 0
VERTEX
 8
Layer0
 10
18
 20
64
 30
0
 0
VERTEX
 8
Layer0
 10
18
 20
59
 30
0
 0
VERTEX
 8
Layer0
 10
11.5
 20
59
 30
0
 0
VERTEX
 8
Layer0
 10
11.5
 20
53
 30
0
 0
VERTEX
 8
Layer0
 10
18
 20
53
 30
0
 42
-0.0744
 0
VERTEX
 8
Layer0
 10
17.7063
 20
35.7773
 30
0
 42
-0.1258
 0
VERTEX
 8
Layer0
 10
11.7975
 20
23.5307
 30
0
 42
0.1874
 0
VERTEX
 8
Layer0
 10
9.0418
 20
15.3494
 30
0
 42
-0.1751
 0
VERTEX
 8
Layer0
 10
6.7901
 20
7.9824
 30
0
 42
0.0921
 0
VERTEX
 8
Layer0
 10
5
 20
4
 30
0
 0
VERTEX
 8
Layer0
 10
43
 20
4
 30
0
 42
0.0921
 0
VERTEX
 8
Layer0
 10
41.2099
 20
7.9824
 30
0
 42
-0.1751
 0
VERTEX
 8
Layer0
 10
38.9582
 20
15.3494
 30
0
 42
0.1874
 0
VERTEX
 8
Layer0
 10
36.2025
 20
23.5307
 30
0
 42
-0.1258
 0
VERTEX
 8
Layer0
 10
30.2937
 20
35.7773
 30
0
 42
-0.0744
 0
VERTEX
 8
Layer0
 10
30
 20
53
 30
0
 0
VERTEX
 8
Layer0
 10
36.5
 20
53
 30
0
 0
VERTEX
 8
Layer0
 10
36.5
 20
59
 30
0
 0
VERTEX
 8
Layer0
 10
30
 20
59
 30
0
 0
VERTEX
 8
Layer0
 10
30
 20
64
 30
0
 0
VERTEX
 8
Layer0
 10
34
 20
64
 30
0
 0
VERTEX
 8
Layer0
 10
34
 20
82
 30
0
 0
VERTEX
 8
Layer0
 10
31.5
 20
82
 30
0
 0
VERTEX
 8
Layer0
 10
31.5
 20
78
 30
0
 0
VERTEX
 8
Layer0
 10
28.5
 20
78
 30
0
 0
VERTEX
 8
Layer0
 10
28.5
 20
82
 30
0
 0
VERTEX
 8
Layer0
 10
25.5
 20
82
 30
0
 0
VERTEX
 8
Layer0
 10
25.5
 20
44
 30
0
 0
SEQEND
 999
********************************
 0
POLYLINE
 8
Layer0
 70
1
 10
65.5
 20
44
 30
0
 39
0
 66
1
 0
VERTEX
 8
Layer0
 10
65.5
 20
44
 30
0
 0
VERTEX
 8
Layer0
 10
65.5
 20
82
 30
0
 0
VERTEX
 8
Layer0
 10
62.5
 20
82
 30
0
 0
VERTEX
 8
Layer0
 10
62.5
 20
78
 30
0
 0
VERTEX
 8
Layer0
 10
59.5
 20
78
 30
0
 0
VERTEX
 8
Layer0
 10
59.5
 20
82
 30
0
 0
VERTEX
 8
Layer0
 10
57
 20
82
 30
0
 0
VERTEX
 8
Layer0
 10
57
 20
64
 30
0
 0
VERTEX
 8
Layer0
 10
61
 20
64
 30
0
 0
VERTEX
 8
Layer0
 10
61
 20
59
 30
0
 0
VERTEX
 8
Layer0
 10
54.5
 20
59
 30
0
 0
VERTEX
 8
Layer0
 10
54.5
 20
53
 30
0
 0
VERTEX
 8
Layer0
 10
61
 20
53
 30
0
 42
-0.0744
 0
VERTEX
 8
Layer0
 10
60.7063
 20
35.7773
 30
0
 42
-0.1258
 0
VERTEX
 8
Layer0
 10
54.7975
 20
23.5307
 30
0
 42
0.1874
 0
VERTEX
 8
Layer0
 10
52.0418
 20
15.3494
 30
0
 42
-0.1751
 0
VERTEX
 8
Layer0
 10
49.7901
 20
7.9824
 30
0
 42
0.0921
 0
VERTEX
 8
Layer0
 10
48
 20
4
 30
0
 0
VERTEX
 8
Layer0
 10
86
 20
4
 30
0
 42
0.0921
 0
VERTEX
 8
Layer0
 10
84.2099
 20
7.9824
 30
0
 42
-0.1751
 0
VERTEX
 8
Layer0
 10
81.9582
 20
15.3494
 30
0
 42
0.1874
 0
VERTEX
 8
Layer0
 10
79.2025
 20
23.5307
 30
0
 42
-0.1258
 0
VERTEX
 8
Layer0
 10
73.2937
 20
35.7773
 30
0
 42
-0.0744
 0
VERTEX
 8
Layer0
 10
73
 20
53
 30
0
 0
VERTEX
 8
Layer0
 10
79.5
 20
53
 30
0
 0
VERTEX
 8
Layer0
 10
79.5
 20
59
 30
0
 0
VERTEX
 8
Layer0
 10
73
 20
59
 30
0
 0
VERTEX
 8
Layer0
 10
73
 20
64
 30
0
 0
VERTEX
 8
Layer0
 10
77
 20
64
 30
0
 0
VERTEX
 8
Layer0
 10
77
 20
82
 30
0
 0
VERTEX
 8
Layer0
 10
74.5
 20
82
 30
0
 0
VERTEX
 8
Layer0
 10
74.5
 20
78
 30
0
 0
VERTEX
 8
Layer0
 10
71.5
 20
78
 30
0
 0
VERTEX
 8
Layer0
 10
71.5
 20
82
 30
0
 0
VERTEX
 8
Layer0
 10
68.5
 20
82
 30
0
 0
VERTEX
 8
Layer0
 10
68.5
 20
44
 30
0
 0
SEQEND
 999
********************************
 0
POLYLINE
 8
Layer0
 70
1
 10
108.5
 20
44
 30
0
 39
0
 66
1
 0
VERTEX
 8
Layer0
 10
108.5
 20
44
 30
0
 0
VERTEX
 8
Layer0
 10
108.5
 20
81.9993
 30
0
 42
0.3525
 0
VERTEX
 8
Layer0
 10
105.0901
 20
75.9496
 30
0
 42
-0.1737
 0
VERTEX
 8
Layer0
 10
103.1792
 20
65.4216
 30
0
 42
0.5774
 0
VERTEX
 8
Layer0
 10
104
 20
64
 30
0
 0
VERTEX
 8
Layer0
 10
104
 20
59
 30
0
 0
VERTEX
 8
Layer0
 10
97.5
 20
59
 30
0
 0
VERTEX
 8
Layer0
 10
97.5
 20
53
 30
0
 0
VERTEX
 8
Layer0
 10
104
 20
53
 30
0
 42
-0.0744
 0
VERTEX
 8
Layer0
 10
103.7063
 20
35.7773
 30
0
 42
-0.1258
 0
VERTEX
 8
Layer0
 10
97.7975
 20
23.5307
 30
0
 42
0.1874
 0
VERTEX
 8
Layer0
 10
95.0418
 20
15.3494
 30
0
 42
-0.1751
 0
VERTEX
 8
Layer0
 10
92.7901
 20
7.9824
 30
0
 42
0.0921
 0
VERTEX
 8
Layer0
 10
91
 20
4
 30
0
 0
VERTEX
 8
Layer0
 10
129
 20
4
 30
0
 42
0.0921
 0
VERTEX
 8
Layer0
 10
127.2099
 20
7.9824
 30
0
 42
-0.1751
 0
VERTEX
 8
Layer0
 10
124.9582
 20
15.3494
 30
0
 42
0.1874
 0
VERTEX
 8
Layer0
 10
122.2025
 20
23.5307
 30
0
 42
-0.1258
 0
VERTEX
 8
Layer0
 10
116.2937
 20
35.7773
 30
0
 42
-0.0744
 0
VERTEX
 8
Layer0
 10
116
 20
53
 30
0
 0
VERTEX
 8
Layer0
 10
122.5
 20
53
 30
0
 0
VERTEX
 8
Layer0
 10
122.5
 20
59
 30
0
 0
VERTEX
 8
Layer0
 10
116
 20
59
 30
0
 0
VERTEX
 8
Layer0
 10
116
 20
64
 30
0
 42
0.5774
 0
VERTEX
 8
Layer0
 10
116.8208
 20
65.4216
 30
0
 42
-0.1737
 0
VERTEX
 8
Layer0
 10
114.9099
 20
75.9496
 30
0
 42
0.3525
 0
VERTEX
 8
Layer0
 10
111.5
 20
81.9993
 30
0
 0
VERTEX
 8
Layer0
 10
111.5
 20
44
 30
0
 0
SEQEND
 999
********************************
 0
POLYLINE
 8
Layer0
 70
1
 10
151.5
 20
44
 30
0
 39
0
 66
1
 0
VERTEX
 8
Layer0
 10
151.5
 20
44
 30
0
 0
VERTEX
 8
Layer0
 10
151.5
 20
81.9993
 30
0
 42
0.3525
 0
VERTEX
 8
Layer0
 10
148.0901
 20
75.9496
 30
0
 42
-0.1737
 0
VERTEX
 8
Layer0
 10
146.1792
 20
65.4216
 30
0
 42
0.5774
 0
VERTEX
 8
Layer0
 10
147
 20
64
 30
0
 0
VERTEX
 8
Layer0
 10
147
 20
59
 30
0
 0
VERTEX
 8
Layer0
 10
140.5
 20
59
 30
0
 0
VERTEX
 8
Layer0
 10
140.5
 20
53
 30
0
 0
VERTEX
 8
Layer0
 10
147
 20
53
 30
0
 42
-0.0744
 0
VERTEX
 8
Layer0
 10
146.7063
 20
35.7773
 30
0
 42
-0.1258
 0
VERTEX
 8
Layer0
 10
140.7975
 20
23.5307
 30
0
 42
0.1874
 0
VERTEX
 8
Layer0
 10
138.0418
 20
15.3494
 30
0
 42
-0.1751
 0
VERTEX
 8
Layer0
 10
135.7901
 20
7.9824
 30
0
 42
0.0921
 0
VERTEX
 8
Layer0
 10
134
 20
4
 30
0
 0
VERTEX
 8
Layer0
 10
172
 20
4
 30
0
 42
0.0921
 0
VERTEX
 8
Layer0
 10
170.2099
 20
7.9824
 30
0
 42
-0.1751
 0
VERTEX
 8
Layer0
 10
167.9582
 20
15.3494
 30
0
 42
0.1874
 0
VERTEX
 8
Layer0
 10
165.2025
 20
23.5307
 30
0
 42
-0.1258
 0
VERTEX
 8
Layer0
 10
159.2937
 20
35.7773
 30
0
 42
-0.0744
 0
VERTEX
 8
Layer0
 10
159
 20
53
 30
0
 0
VERTEX
 8
Layer0
 10
165.5
 20
53
 30
0
 0
VERTEX
 8
Layer0
 10
165.5
 20
59
 30
0
 0
VERTEX
 8
Layer0
 10
159
 20
59
 30
0
 0
VERTEX
 8
Layer0
 10
159
 20
64
 30
0
 42
0.5774
 0
VERTEX
 8
Layer0
 10
159.8208
 20
65.4216
 30
0
 42
-0.1737
 0
VERTEX
 8
Layer0
 10
157.9099
 20
75.9496
 30
0
 42
0.3525
 0
VERTEX
 8
Layer0
 10
154.5
 20
81.9993
 30
0
 0
VERTEX
 8
Layer0
 10
154.5
 20
44
 30
0
 0
SEQEND
 999
********************************
 0
POLYLINE
 8
Layer0
 70
1
 10
194.5
 20
44
 30
0
 39
0
 66
1
 0
VERTEX
 8
Layer0
 10
194.5
 20
44
 30
0
 0
VERTEX
 8
Layer0
 10
194.5
 20
81.9993
 30
0
 42
0.1402
 0
VERTEX
 8
Layer0
 10
185.5
 20
70.2482
 30
0
 42
0.5455
 0
VERTEX
 8
Layer0
 10
190
 20
64
 30
0
 0
VERTEX
 8
Layer0
 10
190
 20
59
 30
0
 0
VERTEX
 8
Layer0
 10
183.5
 20
59
 30
0
 0
VERTEX
 8
Layer0
 10
183.5
 20
53
 30
0
 0
VERTEX
 8
Layer0
 10
190
 20
53
 30
0
 42
-0.0744
 0
VERTEX
 8
Layer0
 10
189.7063
 20
35.7773
 30
0
 42
-0.1258
 0
VERTEX
 8
Layer0
 10
183.7975
 20
23.5307
 30
0
 42
0.1874
 0
VERTEX
 8
Layer0
 10
181.0418
 20
15.3494
 30
0
 42
-0.1751
 0
VERTEX
 8
Layer0
 10
178.7901
 20
7.9824
 30
0
 42
0.0921
 0
VERTEX
 8
Layer0
 10
177
 20
4
 30
0
 0
VERTEX
 8
Layer0
 10
215
 20
4
 30
0
 42
0.0921
 0
VERTEX
 8
Layer0
 10
213.2099
 20
7.9824
 30
0
 42
-0.1751
 0
VERTEX
 8
Layer0
 10
210.9582
 20
15.3494
 30
0
 42
0.1874
 0
VERTEX
 8
Layer0
 10
208.2025
 20
23.5307
 30
0
 42
-0.1258
 0
VERTEX
 8
Layer0
 10
202.2937
 20
35.7773
 30
0
 42
-0.0744
 0
VERTEX
 8
Layer0
 10
202
 20
53
 30
0
 0
VERTEX
 8
Layer0
 10
208.5
 20
53
 30
0
 0
VERTEX
 8
Layer0
 10
208.5
 20
59
 30
0
 0
VERTEX
 8
Layer0
 10
202
 20
59
 30
0
 0
VERTEX
 8
Layer0
 10
202
 20
64
 30
0
 42
0.5455
 0
VERTEX
 8
Layer0
 10
206.5
 20
70.2482
 30
0
 42
0.1402
 0
VERTEX
 8
Layer0
 10
197.5
 20
81.9993
 30
0
 0
VERTEX
 8
Layer0
 10
197.5
 20
44
 30
0
 0
SEQEND
 999
********************************
 0
POLYLINE
 8
Layer0
 70
1
 10
237.5
 20
44
 30
0
 39
0
 66
1
 0
VERTEX
 8
Layer0
 10
237.5
 20
44
 30
0
 0
VERTEX
 8
Layer0
 10
237.5
 20
81.9993
 30
0
 42
0.1402
 0
VERTEX
 8
Layer0
 10
228.5
 20
70.2482
 30
0
 42
0.5455
 0
VERTEX
 8
Layer0
 10
233
 20
64
 30
0
 0
VERTEX
 8
Layer0
 10
233
 20
59
 30
0
 0
VERTEX
 8
Layer0
 10
226.5
 20
59
 30
0
 0
VERTEX
 8
Layer0
 10
226.5
 20
53
 30
0
 0
VERTEX
 8
Layer0
 10
233
 20
53
 30
0
 42
-0.0744
 0
VERTEX
 8
Layer0
 10
232.7063
 20
35.7773
 30
0
 42
-0.1258
 0
VERTEX
 8
Layer0
 10
226.7975
 20
23.5307
 30
0
 42
0.1874
 0
VERTEX
 8
Layer0
 10
224.0418
 20
15.3494
 30
0
 42
-0.1751
 0
VERTEX
 8
Layer0
 10
221.7901
 20
7.9824
 30
0
 42
0.0921
 0
VERTEX
 8
Layer0
 10
220
 20
4
 30
0
 0
VERTEX
 8
Layer0
 10
258
 20
4
 30
0
 42
0.0921
 0
VERTEX
 8
Layer0
 10
256.2099
 20
7.9824
 30
0
 42
-0.1751
 0
VERTEX
 8
Layer0
 10
253.9582
 20
15.3494
 30
0
 42
0.1874
 0
VERTEX
 8
Layer0
 10
251.2025
 20
23.5307
 30
0
 42
-0.1258
 0
VERTEX
 8
Layer0
 10
245.2937
 20
35.7773
 30
0
 42
-0.0744
 0
VERTEX
 8
Layer0
 10
245
 20
53
 30
0
 0
VERTEX
 8
Layer0
 10
251.5
 20
53
 30
0
 0
VERTEX
 8
Layer0
 10
251.5
 20
59
 30
0
 0
VERTEX
 8
Layer0
 10
245
 20
59
 30
0
 0
VERTEX
 8
Layer0
 10
245
 20
64
 30
0
 42
0.5455
 0
VERTEX
 8
Layer0
 10
249.5
 20
70.2482
 30
0
 42
0.1402
 0
VERTEX
 8
Layer0
 10
240.5
 20
81.9993
 30
0
 0
VERTEX
 8
Layer0
 10
240.5
 20
44
 30
0
 0
SEQEND
 999
********************************
 0
ENDSEC
 0
EOF
