  0
SECTION
  2
HEADER
  9
$ACADVER
  1
AC1014
  9
$ACADMAINTVER
 70
     9
  9
$DWGCODEPAGE
  3
MAC-ROMAN
  9
$INSBASE
 10
0.0
 20
0.0
 30
0.0
  9
$EXTMIN
 10
1.000000000000000E+20
 20
1.000000000000000E+20
 30
1.000000000000000E+20
  9
$EXTMAX
 10
-1.000000000000000E+20
 20
-1.000000000000000E+20
 30
-1.000000000000000E+20
  9
$LIMMIN
 10
0.0
 20
0.0
  9
$LIMMAX
 10
12.0
 20
9.0
  9
$ORTHOMODE
 70
     0
  9
$REGENMODE
 70
     1
  9
$FILLMODE
 70
     1
  9
$QTEXTMODE
 70
     0
  9
$MIRRTEXT
 70
     1
  9
$DRAGMODE
 70
     2
  9
$LTSCALE
 40
1.0
  9
$OSMODE
 70
    37
  9
$ATTMODE
 70
     1
  9
$TEXTSIZE
 40
0.2
  9
$TRACEWID
 40
0.05
  9
$TEXTSTYLE
  7
STANDARD
  9
$CLAYER
  8
0
  9
$CELTYPE
  6
BYLAYER
  9
$CECOLOR
 62
   256
  9
$CELTSCALE
 40
1.0
  9
$DELOBJ
 70
     1
  9
$DISPSILH
 70
     0
  9
$DIMSCALE
 40
1.0
  9
$DIMASZ
 40
0.18
  9
$DIMEXO
 40
0.0625
  9
$DIMDLI
 40
0.38
  9
$DIMRND
 40
0.0
  9
$DIMDLE
 40
0.0
  9
$DIMEXE
 40
0.18
  9
$DIMTP
 40
0.0
  9
$DIMTM
 40
0.0
  9
$DIMTXT
 40
0.18
  9
$DIMCEN
 40
0.09
  9
$DIMTSZ
 40
0.0
  9
$DIMTOL
 70
     0
  9
$DIMLIM
 70
     0
  9
$DIMTIH
 70
     1
  9
$DIMTOH
 70
     1
  9
$DIMSE1
 70
     0
  9
$DIMSE2
 70
     0
  9
$DIMTAD
 70
     0
  9
$DIMZIN
 70
     0
  9
$DIMBLK
  1

  9
$DIMASO
 70
     1
  9
$DIMSHO
 70
     1
  9
$DIMPOST
  1

  9
$DIMAPOST
  1

  9
$DIMALT
 70
     0
  9
$DIMALTD
 70
     2
  9
$DIMALTF
 40
25.4
  9
$DIMLFAC
 40
1.0
  9
$DIMTOFL
 70
     0
  9
$DIMTVP
 40
0.0
  9
$DIMTIX
 70
     0
  9
$DIMSOXD
 70
     0
  9
$DIMSAH
 70
     0
  9
$DIMBLK1
  1

  9
$DIMBLK2
  1

  9
$DIMSTYLE
  2
STANDARD
  9
$DIMCLRD
 70
     0
  9
$DIMCLRE
 70
     0
  9
$DIMCLRT
 70
     0
  9
$DIMTFAC
 40
1.0
  9
$DIMGAP
 40
0.09
  9
$DIMJUST
 70
     0
  9
$DIMSD1
 70
     0
  9
$DIMSD2
 70
     0
  9
$DIMTOLJ
 70
     1
  9
$DIMTZIN
 70
     0
  9
$DIMALTZ
 70
     0
  9
$DIMALTTZ
 70
     0
  9
$DIMFIT
 70
     3
  9
$DIMUPT
 70
     0
  9
$DIMUNIT
 70
     2
  9
$DIMDEC
 70
     4
  9
$DIMTDEC
 70
     4
  9
$DIMALTU
 70
     2
  9
$DIMALTTD
 70
     2
  9
$DIMTXSTY
  7
STANDARD
  9
$DIMAUNIT
 70
     0
  9
$LUNITS
 70
     2
  9
$LUPREC
 70
     4
  9
$SKETCHINC
 40
0.1
  9
$FILLETRAD
 40
0.5
  9
$AUNITS
 70
     0
  9
$AUPREC
 70
     0
  9
$MENU
  1
.
  9
$ELEVATION
 40
0.0
  9
$PELEVATION
 40
0.0
  9
$THICKNESS
 40
0.0
  9
$LIMCHECK
 70
     0
  9
$CHAMFERA
 40
0.0
  9
$CHAMFERB
 40
0.0
  9
$CHAMFERC
 40
0.0
  9
$CHAMFERD
 40
0.0
  9
$SKPOLY
 70
     0
  9
$TDCREATE
 40
2459499.478304687
  9
$TDUPDATE
 40
2459499.478304942
  9
$TDINDWG
 40
0.0000000116
  9
$TDUSRTIMER
 40
0.0000000116
  9
$USRTIMER
 70
     1
  9
$ANGBASE
 50
0.0
  9
$ANGDIR
 70
     0
  9
$PDMODE
 70
     0
  9
$PDSIZE
 40
0.0
  9
$PLINEWID
 40
0.0
  9
$COORDS
 70
     1
  9
$SPLFRAME
 70
     0
  9
$SPLINETYPE
 70
     6
  9
$SPLINESEGS
 70
     8
  9
$ATTDIA
 70
     0
  9
$ATTREQ
 70
     1
  9
$HANDLING
 70
     1
  9
$HANDSEED
  5
3D7
  9
$SURFTAB1
 70
     6
  9
$SURFTAB2
 70
     6
  9
$SURFTYPE
 70
     6
  9
$SURFU
 70
     6
  9
$SURFV
 70
     6
  9
$UCSNAME
  2

  9
$UCSORG
 10
0.0
 20
0.0
 30
0.0
  9
$UCSXDIR
 10
1.0
 20
0.0
 30
0.0
  9
$UCSYDIR
 10
0.0
 20
1.0
 30
0.0
  9
$PUCSNAME
  2

  9
$PUCSORG
 10
0.0
 20
0.0
 30
0.0
  9
$PUCSXDIR
 10
1.0
 20
0.0
 30
0.0
  9
$PUCSYDIR
 10
0.0
 20
1.0
 30
0.0
  9
$USERI1
 70
     0
  9
$USERI2
 70
     0
  9
$USERI3
 70
     0
  9
$USERI4
 70
     0
  9
$USERI5
 70
     0
  9
$USERR1
 40
0.0
  9
$USERR2
 40
0.0
  9
$USERR3
 40
0.0
  9
$USERR4
 40
0.0
  9
$USERR5
 40
0.0
  9
$WORLDVIEW
 70
     1
  9
$SHADEDGE
 70
     3
  9
$SHADEDIF
 70
    70
  9
$TILEMODE
 70
     1
  9
$MAXACTVP
 70
    64
  9
$PINSBASE
 10
0.0
 20
0.0
 30
0.0
  9
$PLIMCHECK
 70
     0
  9
$PEXTMIN
 10
1.000000000000000E+20
 20
1.000000000000000E+20
 30
1.000000000000000E+20
  9
$PEXTMAX
 10
-1.000000000000000E+20
 20
-1.000000000000000E+20
 30
-1.000000000000000E+20
  9
$PLIMMIN
 10
0.0
 20
0.0
  9
$PLIMMAX
 10
12.0
 20
9.0
  9
$UNITMODE
 70
     0
  9
$VISRETAIN
 70
     1
  9
$PLINEGEN
 70
     0
  9
$PSLTSCALE
 70
     1
  9
$TREEDEPTH
 70
  3020
  9
$PICKSTYLE
 70
     1
  9
$CMLSTYLE
  2
STANDARD
  9
$CMLJUST
 70
     0
  9
$CMLSCALE
 40
1.0
  9
$PROXYGRAPHICS
 70
     1
  9
$MEASUREMENT
 70
     1
  0
ENDSEC
  0
SECTION
  2
CLASSES
  0
CLASS
  1
ACDBDICTIONARYWDFLT
  2
AcDbDictionaryWithDefault
  3
ObjectDBX Classes
 90
        0
280
     0
281
     0
  0
CLASS
  1
VISUALSTYLE
  2
AcDbVisualStyle
  3
ObjectDBX Classes
 90
     4095
280
     0
281
     0
  0
CLASS
  1
MATERIAL
  2
AcDbMaterial
  3
ObjectDBX Classes
 90
     1153
280
     0
281
     0
  0
CLASS
  1
SCALE
  2
AcDbScale
  3
ObjectDBX Classes
 90
     1153
280
     0
281
     0
  0
CLASS
  1
TABLESTYLE
  2
AcDbTableStyle
  3
ObjectDBX Classes
 90
     4095
280
     0
281
     0
  0
CLASS
  1
MLEADERSTYLE
  2
AcDbMLeaderStyle
  3
ACDB_MLEADERSTYLE_CLASS
 90
     4095
280
     0
281
     0
  0
CLASS
  1
SUN
  2
AcDbSun
  3
SCENEOE
 90
     1153
280
     0
281
     0
  0
CLASS
  1
DICTIONARYVAR
  2
AcDbDictionaryVar
  3
ObjectDBX Classes
 90
        0
280
     0
281
     0
  0
CLASS
  1
XRECORD
  2
AcDbXrecord
  3
ObjectDBX Classes
 90
        0
280
     0
281
     0
  0
CLASS
  1
LWPOLYLINE
  2
AcDbPolyline
  3
ObjectDBX Classes
 90
        0
280
     0
281
     1
  0
CLASS
  1
HATCH
  2
AcDbHatch
  3
ObjectDBX Classes
 90
        0
280
     0
281
     1
  0
CLASS
  1
ACDBPLACEHOLDER
  2
AcDbPlaceHolder
  3
ObjectDBX Classes
 90
        0
280
     0
281
     0
  0
CLASS
  1
LAYOUT
  2
AcDbLayout
  3
ObjectDBX Classes
 90
        0
280
     0
281
     0
  0
ENDSEC
  0
SECTION
  2
TABLES
  0
TABLE
  2
VPORT
  5
8
102
{ACAD_XDICTIONARY
360
3CC
102
}
330
0
100
AcDbSymbolTable
 70
     1
  0
VPORT
  5
29
330
8
100
AcDbSymbolTableRecord
100
AcDbViewportTableRecord
  2
*ACTIVE
 70
     0
 10
0.0
 20
0.0
 11
1.0
 21
1.0
 12
0.0
 22
0.0
 13
0.0
 23
0.0
 14
0.5
 24
0.5
 15
0.5
 25
0.5
 16
0.0
 26
0.0
 36
1.0
 17
0.0
 27
0.0
 37
-1000.0
 40
726.3157894736855
 41
1.934996220710506
 42
50.0
 43
4.799083729902495
 44
4799.083729902495
 50
0.0
 51
0.0
 71
     0
 72
   100
 73
     1
 74
     3
 75
     0
 76
     0
 77
     0
 78
     0
  0
ENDTAB
  0
TABLE
  2
LTYPE
  5
5
330
0
100
AcDbSymbolTable
 70
     1
  0
LTYPE
  5
14
330
5
100
AcDbSymbolTableRecord
100
AcDbLinetypeTableRecord
  2
BYBLOCK
 70
     0
  3

 72
    65
 73
     0
 40
0.0
  0
LTYPE
  5
15
330
5
100
AcDbSymbolTableRecord
100
AcDbLinetypeTableRecord
  2
BYLAYER
 70
     0
  3

 72
    65
 73
     0
 40
0.0
  0
LTYPE
  5
16
330
5
100
AcDbSymbolTableRecord
100
AcDbLinetypeTableRecord
  2
CONTINUOUS
 70
     0
  3
Solid line
 72
    65
 73
     0
 40
0.0
  0
ENDTAB
  0
TABLE
  2
LAYER
  5
2
330
0
100
AcDbSymbolTable
 70
     3
  0
LAYER
  5
10
330
2
100
AcDbSymbolTableRecord
100
AcDbLayerTableRecord
  2
0
 70
     0
 62
     7
  6
CONTINUOUS
  0
LAYER
  5
6E
330
2
100
AcDbSymbolTableRecord
100
AcDbLayerTableRecord
  2
PROFILEEDGES
 70
     0
 62
     7
  6
CONTINUOUS
  0
LAYER
  5
6F
330
2
100
AcDbSymbolTableRecord
100
AcDbLayerTableRecord
  2
SECTIONCUTEDGES
 70
     0
 62
     7
  6
CONTINUOUS
  0
ENDTAB
  0
TABLE
  2
STYLE
  5
3
330
0
100
AcDbSymbolTable
 70
     1
  0
STYLE
  5
11
330
3
100
AcDbSymbolTableRecord
100
AcDbTextStyleTableRecord
  2
STANDARD
 70
     0
 40
0.0
 41
1.0
 50
0.0
 71
     0
 42
0.2
  3
txt
  4

  0
ENDTAB
  0
TABLE
  2
VIEW
  5
6
330
0
100
AcDbSymbolTable
 70
     0
  0
ENDTAB
  0
TABLE
  2
UCS
  5
7
330
0
100
AcDbSymbolTable
 70
     0
  0
ENDTAB
  0
TABLE
  2
APPID
  5
9
330
0
100
AcDbSymbolTable
 70
     2
  0
APPID
  5
12
330
9
100
AcDbSymbolTableRecord
100
AcDbRegAppTableRecord
  2
ACAD
 70
     0
  0
APPID
  5
3D6
330
9
100
AcDbSymbolTableRecord
100
AcDbRegAppTableRecord
  2
ACAD_MLEADERVER
 70
     0
  0
ENDTAB
  0
TABLE
  2
DIMSTYLE
  5
A
330
0
100
AcDbSymbolTable
 70
     1
  0
DIMSTYLE
105
27
330
A
100
AcDbSymbolTableRecord
100
AcDbDimStyleTableRecord
  2
STANDARD
 70
     0
  3

  4

  5

  6

  7

 40
1.0
 41
0.18
 42
0.0625
 43
0.38
 44
0.18
 45
0.0
 46
0.0
 47
0.0
 48
0.0
140
0.18
141
0.09
142
0.0
143
25.4
144
1.0
145
0.0
146
1.0
147
0.09
 71
     0
 72
     0
 73
     1
 74
     1
 75
     0
 76
     0
 77
     0
 78
     0
170
     0
171
     2
172
     0
173
     0
174
     0
175
     0
176
     0
177
     0
178
     0
270
     2
271
     4
272
     4
273
     2
274
     2
340
11
275
     0
280
     0
281
     0
282
     0
283
     1
284
     0
285
     0
286
     0
287
     3
288
     0
  0
ENDTAB
  0
TABLE
  2
BLOCK_RECORD
  5
1
330
0
100
AcDbSymbolTable
 70
     0
  0
BLOCK_RECORD
  5
1F
330
1
100
AcDbSymbolTableRecord
100
AcDbBlockTableRecord
  2
*MODEL_SPACE
  0
BLOCK_RECORD
  5
1B
330
1
100
AcDbSymbolTableRecord
100
AcDbBlockTableRecord
  2
*PAPER_SPACE
  0
ENDTAB
  0
ENDSEC
  0
SECTION
  2
BLOCKS
  0
BLOCK
  5
20
330
1F
100
AcDbEntity
  8
0
100
AcDbBlockBegin
  2
*MODEL_SPACE
 70
     0
 10
0.0
 20
0.0
 30
0.0
  3
*MODEL_SPACE
  1

  0
ENDBLK
  5
21
330
1F
100
AcDbEntity
  8
0
100
AcDbBlockEnd
  0
BLOCK
  5
1C
330
1B
100
AcDbEntity
 67
     1
  8
0
100
AcDbBlockBegin
  2
*PAPER_SPACE
 70
     0
 10
0.0
 20
0.0
 30
0.0
  3
*PAPER_SPACE
  1

  0
ENDBLK
  5
1D
330
1B
100
AcDbEntity
 67
     1
  8
0
100
AcDbBlockEnd
  0
ENDSEC
  0
SECTION
  2
ENTITIES
  0
LINE
  5
70
330
1F
100
AcDbEntity
  8
0
100
AcDbLine
 10
-98.23223304703798
 20
-5.232233047033997
 30
0.0
 11
-97.8349364905434
 21
-5.750000000000136
 31
0.0
  0
LINE
  5
71
330
1F
100
AcDbEntity
  8
0
100
AcDbLine
 10
-97.8349364905434
 20
-5.750000000000136
 30
0.0
 11
-97.58518543428173
 21
-6.352952387244329
 31
0.0
  0
LINE
  5
72
330
1F
100
AcDbEntity
  8
0
100
AcDbLine
 10
-97.58518543428173
 20
-6.352952387244329
 30
0.0
 11
-97.5000000000044
 21
-6.999999999999852
 31
0.0
  0
LINE
  5
73
330
1F
100
AcDbEntity
  8
0
100
AcDbLine
 10
-97.5000000000044
 20
-6.999999999999852
 30
0.0
 11
-97.58518543428173
 21
-7.647047612756818
 31
0.0
  0
LINE
  5
74
330
1F
100
AcDbEntity
  8
0
100
AcDbLine
 10
-97.58518543428173
 20
-7.647047612756818
 30
0.0
 11
-97.8349364905434
 21
-8.25000000000029
 31
0.0
  0
LINE
  5
75
330
1F
100
AcDbEntity
  8
0
100
AcDbLine
 10
-97.8349364905434
 20
-8.25000000000029
 30
0.0
 11
-98.23223304703798
 21
-8.767766952966427
 31
0.0
  0
LINE
  5
76
330
1F
100
AcDbEntity
  8
0
100
AcDbLine
 10
-98.23223304703798
 20
-8.767766952966427
 30
0.0
 11
-98.75000000000483
 21
-9.165063509461003
 31
0.0
  0
LINE
  5
77
330
1F
100
AcDbEntity
  8
0
100
AcDbLine
 10
-98.75000000000483
 20
-9.165063509461003
 30
0.0
 11
-99.35295238724831
 21
-9.414814565722674
 31
0.0
  0
LINE
  5
78
330
1F
100
AcDbEntity
  8
0
100
AcDbLine
 10
-99.35295238724831
 20
-9.414814565722674
 30
0.0
 11
-100.0000000000045
 21
-9.500000000000005
 31
0.0
  0
LINE
  5
79
330
1F
100
AcDbEntity
  8
0
100
AcDbLine
 10
-100.0000000000045
 20
-9.500000000000005
 30
0.0
 11
-100.6470476127608
 21
-9.414814565722674
 31
0.0
  0
LINE
  5
7A
330
1F
100
AcDbEntity
  8
0
100
AcDbLine
 10
-100.6470476127608
 20
-9.414814565722674
 30
0.0
 11
-101.2500000000043
 21
-9.165063509461003
 31
0.0
  0
LINE
  5
7B
330
1F
100
AcDbEntity
  8
0
100
AcDbLine
 10
-101.2500000000043
 20
-9.165063509461003
 30
0.0
 11
-101.7677669529711
 21
-8.767766952966427
 31
0.0
  0
LINE
  5
7C
330
1F
100
AcDbEntity
  8
0
100
AcDbLine
 10
-101.7677669529711
 20
-8.767766952966427
 30
0.0
 11
-102.1650635094657
 21
-8.25000000000029
 31
0.0
  0
LINE
  5
7D
330
1F
100
AcDbEntity
  8
0
100
AcDbLine
 10
-102.1650635094657
 20
-8.25000000000029
 30
0.0
 11
-102.4148145657274
 21
-7.647047612756818
 31
0.0
  0
LINE
  5
7E
330
1F
100
AcDbEntity
  8
0
100
AcDbLine
 10
-102.4148145657274
 20
-7.647047612756818
 30
0.0
 11
-102.5000000000047
 21
-6.999999999999852
 31
0.0
  0
LINE
  5
7F
330
1F
100
AcDbEntity
  8
0
100
AcDbLine
 10
-102.5000000000047
 20
-6.999999999999852
 30
0.0
 11
-102.4148145657274
 21
-6.352952387244329
 31
0.0
  0
LINE
  5
80
330
1F
100
AcDbEntity
  8
0
100
AcDbLine
 10
-102.4148145657274
 20
-6.352952387244329
 30
0.0
 11
-102.1650635094657
 21
-5.750000000000136
 31
0.0
  0
LINE
  5
81
330
1F
100
AcDbEntity
  8
0
100
AcDbLine
 10
-102.1650635094657
 20
-5.750000000000136
 30
0.0
 11
-101.7677669529711
 21
-5.232233047033997
 31
0.0
  0
LINE
  5
82
330
1F
100
AcDbEntity
  8
0
100
AcDbLine
 10
-101.7677669529711
 20
-5.232233047033997
 30
0.0
 11
-101.2500000000043
 21
-4.8349364905387
 31
0.0
  0
LINE
  5
83
330
1F
100
AcDbEntity
  8
0
100
AcDbLine
 10
-101.2500000000043
 20
27.16506350946124
 30
0.0
 11
-100.6470476127608
 21
27.41481456572219
 31
0.0
  0
LINE
  5
84
330
1F
100
AcDbEntity
  8
0
100
AcDbLine
 10
-100.6470476127608
 20
27.41481456572219
 30
0.0
 11
-100.0000000000045
 21
27.49999999999952
 31
0.0
  0
LINE
  5
85
330
1F
100
AcDbEntity
  8
0
100
AcDbLine
 10
-100.0000000000045
 20
27.49999999999952
 30
0.0
 11
-99.35295238724831
 21
27.41481456572219
 31
0.0
  0
LINE
  5
86
330
1F
100
AcDbEntity
  8
0
100
AcDbLine
 10
-99.35295238724831
 20
27.41481456572219
 30
0.0
 11
-98.75000000000483
 21
27.16506350946124
 31
0.0
  0
LINE
  5
87
330
1F
100
AcDbEntity
  8
0
100
AcDbLine
 10
-98.75000000000483
 20
27.16506350946124
 30
0.0
 11
-98.23223304703798
 21
26.76776695296594
 31
0.0
  0
LINE
  5
88
330
1F
100
AcDbEntity
  8
0
100
AcDbLine
 10
-98.23223304703798
 20
26.76776695296594
 30
0.0
 11
-97.8349364905434
 21
26.2499999999998
 31
0.0
  0
LINE
  5
89
330
1F
100
AcDbEntity
  8
0
100
AcDbLine
 10
-97.8349364905434
 20
26.2499999999998
 30
0.0
 11
-97.58518543428173
 21
25.64704761275561
 31
0.0
  0
LINE
  5
8A
330
1F
100
AcDbEntity
  8
0
100
AcDbLine
 10
-97.58518543428173
 20
25.64704761275561
 30
0.0
 11
-97.5000000000044
 21
25.00000000000009
 31
0.0
  0
LINE
  5
8B
330
1F
100
AcDbEntity
  8
0
100
AcDbLine
 10
-98.75000000000483
 20
-68.83493649053858
 30
0.0
 11
-98.23223304703798
 21
-69.23223304703389
 31
0.0
  0
LINE
  5
8C
330
1F
100
AcDbEntity
  8
0
100
AcDbLine
 10
-98.23223304703798
 20
-69.23223304703389
 30
0.0
 11
-97.8349364905434
 21
-69.75000000000001
 31
0.0
  0
LINE
  5
8D
330
1F
100
AcDbEntity
  8
0
100
AcDbLine
 10
-97.8349364905434
 20
-69.75000000000001
 30
0.0
 11
-97.58518543428173
 21
-70.35295238724422
 31
0.0
  0
LINE
  5
8E
330
1F
100
AcDbEntity
  8
0
100
AcDbLine
 10
-97.58518543428173
 20
-70.35295238724422
 30
0.0
 11
-97.5000000000044
 21
-70.99999999999973
 31
0.0
  0
LINE
  5
8F
330
1F
100
AcDbEntity
  8
0
100
AcDbLine
 10
-97.5000000000044
 20
-70.99999999999973
 30
0.0
 11
-97.58518543428173
 21
-71.64704761275671
 31
0.0
  0
LINE
  5
90
330
1F
100
AcDbEntity
  8
0
100
AcDbLine
 10
-97.58518543428173
 20
-71.64704761275671
 30
0.0
 11
-97.8349364905434
 21
-72.25000000000017
 31
0.0
  0
LINE
  5
91
330
1F
100
AcDbEntity
  8
0
100
AcDbLine
 10
-97.8349364905434
 20
-72.25000000000017
 30
0.0
 11
-98.23223304703798
 21
-72.76776695296631
 31
0.0
  0
LINE
  5
92
330
1F
100
AcDbEntity
  8
0
100
AcDbLine
 10
-98.23223304703798
 20
-72.76776695296631
 30
0.0
 11
-98.75000000000483
 21
-73.1650635094609
 31
0.0
  0
LINE
  5
93
330
1F
100
AcDbEntity
  8
0
100
AcDbLine
 10
-98.75000000000483
 20
-73.1650635094609
 30
0.0
 11
-99.35295238724831
 21
-73.41481456572255
 31
0.0
  0
LINE
  5
94
330
1F
100
AcDbEntity
  8
0
100
AcDbLine
 10
-99.35295238724831
 20
-73.41481456572255
 30
0.0
 11
-100.0000000000045
 21
-73.49999999999989
 31
0.0
  0
LINE
  5
95
330
1F
100
AcDbEntity
  8
0
100
AcDbLine
 10
-100.0000000000045
 20
-73.49999999999989
 30
0.0
 11
-100.6470476127608
 21
-73.41481456572255
 31
0.0
  0
LINE
  5
96
330
1F
100
AcDbEntity
  8
0
100
AcDbLine
 10
-100.6470476127608
 20
-73.41481456572255
 30
0.0
 11
-101.2500000000043
 21
-73.1650635094609
 31
0.0
  0
LINE
  5
97
330
1F
100
AcDbEntity
  8
0
100
AcDbLine
 10
-101.2500000000043
 20
-73.1650635094609
 30
0.0
 11
-101.7677669529711
 21
-72.76776695296631
 31
0.0
  0
LINE
  5
98
330
1F
100
AcDbEntity
  8
0
100
AcDbLine
 10
-101.7677669529711
 20
-72.76776695296631
 30
0.0
 11
-102.1650635094657
 21
-72.25000000000017
 31
0.0
  0
LINE
  5
99
330
1F
100
AcDbEntity
  8
0
100
AcDbLine
 10
-102.1650635094657
 20
-72.25000000000017
 30
0.0
 11
-102.4148145657274
 21
-71.64704761275671
 31
0.0
  0
LINE
  5
9A
330
1F
100
AcDbEntity
  8
0
100
AcDbLine
 10
-102.4148145657274
 20
-71.64704761275671
 30
0.0
 11
-102.5000000000047
 21
-70.99999999999973
 31
0.0
  0
LINE
  5
9B
330
1F
100
AcDbEntity
  8
0
100
AcDbLine
 10
-102.5000000000047
 20
-70.99999999999973
 30
0.0
 11
-102.4148145657274
 21
-70.35295238724422
 31
0.0
  0
LINE
  5
9C
330
1F
100
AcDbEntity
  8
0
100
AcDbLine
 10
-102.4148145657274
 20
-70.35295238724422
 30
0.0
 11
-102.1650635094657
 21
-69.75000000000001
 31
0.0
  0
LINE
  5
9D
330
1F
100
AcDbEntity
  8
0
100
AcDbLine
 10
-102.1650635094657
 20
-69.75000000000001
 30
0.0
 11
-101.7677669529711
 21
-69.23223304703389
 31
0.0
  0
LINE
  5
9E
330
1F
100
AcDbEntity
  8
0
100
AcDbLine
 10
-101.7677669529711
 20
-69.23223304703389
 30
0.0
 11
-101.2500000000043
 21
-68.83493649053858
 31
0.0
  0
LINE
  5
9F
330
1F
100
AcDbEntity
  8
0
100
AcDbLine
 10
-101.2500000000043
 20
-68.83493649053858
 30
0.0
 11
-100.6470476127608
 21
-68.58518543427763
 31
0.0
  0
LINE
  5
A0
330
1F
100
AcDbEntity
  8
0
100
AcDbLine
 10
-100.6470476127608
 20
-68.58518543427763
 30
0.0
 11
-100.0000000000045
 21
-68.5000000000003
 31
0.0
  0
LINE
  5
A1
330
1F
100
AcDbEntity
  8
0
100
AcDbLine
 10
-100.0000000000045
 20
-68.5000000000003
 30
0.0
 11
-99.35295238724831
 21
-68.58518543427763
 31
0.0
  0
LINE
  5
A2
330
1F
100
AcDbEntity
  8
0
100
AcDbLine
 10
-99.35295238724831
 20
-68.58518543427763
 30
0.0
 11
-98.75000000000483
 21
-68.83493649053858
 31
0.0
  0
LINE
  5
A3
330
1F
100
AcDbEntity
  8
0
100
AcDbLine
 10
-101.2500000000043
 20
-36.83493649053865
 30
0.0
 11
-100.6470476127608
 21
-36.5851854342777
 31
0.0
  0
LINE
  5
A4
330
1F
100
AcDbEntity
  8
0
100
AcDbLine
 10
-100.6470476127608
 20
-36.5851854342777
 30
0.0
 11
-100.0000000000045
 21
-36.50000000000036
 31
0.0
  0
LINE
  5
A5
330
1F
100
AcDbEntity
  8
0
100
AcDbLine
 10
-100.0000000000045
 20
-36.50000000000036
 30
0.0
 11
-99.35295238724831
 21
-36.5851854342777
 31
0.0
  0
LINE
  5
A6
330
1F
100
AcDbEntity
  8
0
100
AcDbLine
 10
-99.35295238724831
 20
-36.5851854342777
 30
0.0
 11
-98.75000000000483
 21
-36.83493649053865
 31
0.0
  0
LINE
  5
A7
330
1F
100
AcDbEntity
  8
0
100
AcDbLine
 10
-98.75000000000483
 20
-36.83493649053865
 30
0.0
 11
-98.23223304703798
 21
-37.23223304703394
 31
0.0
  0
LINE
  5
A8
330
1F
100
AcDbEntity
  8
0
100
AcDbLine
 10
-98.23223304703798
 20
-37.23223304703394
 30
0.0
 11
-97.8349364905434
 21
-37.75000000000008
 31
0.0
  0
LINE
  5
A9
330
1F
100
AcDbEntity
  8
0
100
AcDbLine
 10
-97.8349364905434
 20
-37.75000000000008
 30
0.0
 11
-97.58518543428173
 21
-38.35295238724427
 31
0.0
  0
LINE
  5
AA
330
1F
100
AcDbEntity
  8
0
100
AcDbLine
 10
-97.58518543428173
 20
-38.35295238724427
 30
0.0
 11
-97.5000000000044
 21
-38.99999999999979
 31
0.0
  0
LINE
  5
AB
330
1F
100
AcDbEntity
  8
0
100
AcDbLine
 10
-97.5000000000044
 20
-38.99999999999979
 30
0.0
 11
-97.58518543428173
 21
-39.64704761275676
 31
0.0
  0
LINE
  5
AC
330
1F
100
AcDbEntity
  8
0
100
AcDbLine
 10
-97.58518543428173
 20
-39.64704761275676
 30
0.0
 11
-97.8349364905434
 21
-40.25000000000023
 31
0.0
  0
LINE
  5
AD
330
1F
100
AcDbEntity
  8
0
100
AcDbLine
 10
-97.8349364905434
 20
-40.25000000000023
 30
0.0
 11
-98.23223304703798
 21
-40.76776695296637
 31
0.0
  0
LINE
  5
AE
330
1F
100
AcDbEntity
  8
0
100
AcDbLine
 10
-98.23223304703798
 20
-40.76776695296637
 30
0.0
 11
-98.75000000000483
 21
-41.16506350946094
 31
0.0
  0
LINE
  5
AF
330
1F
100
AcDbEntity
  8
0
100
AcDbLine
 10
-98.75000000000483
 20
-41.16506350946094
 30
0.0
 11
-99.35295238724831
 21
-41.41481456572262
 31
0.0
  0
LINE
  5
B0
330
1F
100
AcDbEntity
  8
0
100
AcDbLine
 10
-99.35295238724831
 20
-41.41481456572262
 30
0.0
 11
-100.0000000000045
 21
-41.49999999999994
 31
0.0
  0
LINE
  5
B1
330
1F
100
AcDbEntity
  8
0
100
AcDbLine
 10
-100.0000000000045
 20
-41.49999999999994
 30
0.0
 11
-100.6470476127608
 21
-41.41481456572262
 31
0.0
  0
LINE
  5
B2
330
1F
100
AcDbEntity
  8
0
100
AcDbLine
 10
-100.6470476127608
 20
-41.41481456572262
 30
0.0
 11
-101.2500000000043
 21
-41.16506350946094
 31
0.0
  0
LINE
  5
B3
330
1F
100
AcDbEntity
  8
0
100
AcDbLine
 10
-101.2500000000043
 20
-41.16506350946094
 30
0.0
 11
-101.7677669529711
 21
-40.76776695296637
 31
0.0
  0
LINE
  5
B4
330
1F
100
AcDbEntity
  8
0
100
AcDbLine
 10
-101.7677669529711
 20
-40.76776695296637
 30
0.0
 11
-102.1650635094657
 21
-40.25000000000023
 31
0.0
  0
LINE
  5
B5
330
1F
100
AcDbEntity
  8
0
100
AcDbLine
 10
-102.1650635094657
 20
-40.25000000000023
 30
0.0
 11
-102.4148145657274
 21
-39.64704761275676
 31
0.0
  0
LINE
  5
B6
330
1F
100
AcDbEntity
  8
0
100
AcDbLine
 10
-102.4148145657274
 20
-39.64704761275676
 30
0.0
 11
-102.5000000000047
 21
-38.99999999999979
 31
0.0
  0
LINE
  5
B7
330
1F
100
AcDbEntity
  8
0
100
AcDbLine
 10
-102.5000000000047
 20
-38.99999999999979
 30
0.0
 11
-102.4148145657274
 21
-38.35295238724427
 31
0.0
  0
LINE
  5
B8
330
1F
100
AcDbEntity
  8
0
100
AcDbLine
 10
-102.4148145657274
 20
-38.35295238724427
 30
0.0
 11
-102.1650635094657
 21
-37.75000000000008
 31
0.0
  0
LINE
  5
B9
330
1F
100
AcDbEntity
  8
0
100
AcDbLine
 10
-102.1650635094657
 20
-37.75000000000008
 30
0.0
 11
-101.7677669529711
 21
-37.23223304703394
 31
0.0
  0
LINE
  5
BA
330
1F
100
AcDbEntity
  8
0
100
AcDbLine
 10
-101.7677669529711
 20
-37.23223304703394
 30
0.0
 11
-101.2500000000043
 21
-36.83493649053865
 31
0.0
  0
LINE
  5
BB
330
1F
100
AcDbEntity
  8
0
100
AcDbLine
 10
-99.35295238724831
 20
-164.5851854342775
 30
0.0
 11
-98.75000000000483
 21
-164.8349364905391
 31
0.0
  0
LINE
  5
BC
330
1F
100
AcDbEntity
  8
0
100
AcDbLine
 10
-98.75000000000483
 20
-164.8349364905391
 30
0.0
 11
-98.23223304703798
 21
-165.2322330470337
 31
0.0
  0
LINE
  5
BD
330
1F
100
AcDbEntity
  8
0
100
AcDbLine
 10
-98.23223304703798
 20
-165.2322330470337
 30
0.0
 11
-97.8349364905434
 21
-165.7499999999998
 31
0.0
  0
LINE
  5
BE
330
1F
100
AcDbEntity
  8
0
100
AcDbLine
 10
-97.8349364905434
 20
-165.7499999999998
 30
0.0
 11
-97.58518543428173
 21
-166.352952387244
 31
0.0
  0
LINE
  5
BF
330
1F
100
AcDbEntity
  8
0
100
AcDbLine
 10
-97.58518543428173
 20
-166.352952387244
 30
0.0
 11
-97.5000000000044
 21
-167.0000000000003
 31
0.0
  0
LINE
  5
C0
330
1F
100
AcDbEntity
  8
0
100
AcDbLine
 10
-97.5000000000044
 20
-167.0000000000003
 30
0.0
 11
-97.58518543428173
 21
-167.6470476127565
 31
0.0
  0
LINE
  5
C1
330
1F
100
AcDbEntity
  8
0
100
AcDbLine
 10
-97.58518543428173
 20
-167.6470476127565
 30
0.0
 11
-97.8349364905434
 21
-168.25
 31
0.0
  0
LINE
  5
C2
330
1F
100
AcDbEntity
  8
0
100
AcDbLine
 10
-97.8349364905434
 20
-168.25
 30
0.0
 11
-98.23223304703798
 21
-168.7677669529661
 31
0.0
  0
LINE
  5
C3
330
1F
100
AcDbEntity
  8
0
100
AcDbLine
 10
-98.23223304703798
 20
-168.7677669529661
 30
0.0
 11
-98.75000000000483
 21
-169.1650635094614
 31
0.0
  0
LINE
  5
C4
330
1F
100
AcDbEntity
  8
0
100
AcDbLine
 10
-98.75000000000483
 20
-169.1650635094614
 30
0.0
 11
-99.35295238724831
 21
-169.4148145657231
 31
0.0
  0
LINE
  5
C5
330
1F
100
AcDbEntity
  8
0
100
AcDbLine
 10
-99.35295238724831
 20
-169.4148145657231
 30
0.0
 11
-100.0000000000045
 21
-169.5000000000004
 31
0.0
  0
LINE
  5
C6
330
1F
100
AcDbEntity
  8
0
100
AcDbLine
 10
-100.0000000000045
 20
-169.5000000000004
 30
0.0
 11
-100.6470476127608
 21
-169.4148145657231
 31
0.0
  0
LINE
  5
C7
330
1F
100
AcDbEntity
  8
0
100
AcDbLine
 10
-100.6470476127608
 20
-169.4148145657231
 30
0.0
 11
-101.2500000000043
 21
-169.1650635094614
 31
0.0
  0
LINE
  5
C8
330
1F
100
AcDbEntity
  8
0
100
AcDbLine
 10
-101.2500000000043
 20
-169.1650635094614
 30
0.0
 11
-101.7677669529711
 21
-168.7677669529661
 31
0.0
  0
LINE
  5
C9
330
1F
100
AcDbEntity
  8
0
100
AcDbLine
 10
-101.7677669529711
 20
-168.7677669529661
 30
0.0
 11
-102.1650635094657
 21
-168.25
 31
0.0
  0
LINE
  5
CA
330
1F
100
AcDbEntity
  8
0
100
AcDbLine
 10
-102.1650635094657
 20
-168.25
 30
0.0
 11
-102.4148145657274
 21
-167.6470476127565
 31
0.0
  0
LINE
  5
CB
330
1F
100
AcDbEntity
  8
0
100
AcDbLine
 10
-102.4148145657274
 20
-167.6470476127565
 30
0.0
 11
-102.5000000000047
 21
-167.0000000000003
 31
0.0
  0
LINE
  5
CC
330
1F
100
AcDbEntity
  8
0
100
AcDbLine
 10
-102.5000000000047
 20
-167.0000000000003
 30
0.0
 11
-102.4148145657274
 21
-166.352952387244
 31
0.0
  0
LINE
  5
CD
330
1F
100
AcDbEntity
  8
0
100
AcDbLine
 10
-100.0000000000045
 20
123.4999999999993
 30
0.0
 11
-99.35295238724831
 21
123.414814565722
 31
0.0
  0
LINE
  5
CE
330
1F
100
AcDbEntity
  8
0
100
AcDbLine
 10
-99.35295238724831
 20
123.414814565722
 30
0.0
 11
-98.75000000000483
 21
123.1650635094611
 31
0.0
  0
LINE
  5
CF
330
1F
100
AcDbEntity
  8
0
100
AcDbLine
 10
-98.75000000000483
 20
123.1650635094611
 30
0.0
 11
-98.23223304703798
 21
122.767766952965
 31
0.0
  0
LINE
  5
D0
330
1F
100
AcDbEntity
  8
0
100
AcDbLine
 10
-98.23223304703798
 20
122.767766952965
 30
0.0
 11
-97.8349364905434
 21
122.2499999999996
 31
0.0
  0
LINE
  5
D1
330
1F
100
AcDbEntity
  8
0
100
AcDbLine
 10
-97.8349364905434
 20
122.2499999999996
 30
0.0
 11
-97.58518543428173
 21
121.6470476127554
 31
0.0
  0
LINE
  5
D2
330
1F
100
AcDbEntity
  8
0
100
AcDbLine
 10
-97.58518543428173
 20
121.6470476127554
 30
0.0
 11
-97.5000000000044
 21
120.9999999999999
 31
0.0
  0
LINE
  5
D3
330
1F
100
AcDbEntity
  8
0
100
AcDbLine
 10
-97.5000000000044
 20
120.9999999999999
 30
0.0
 11
-97.58518543428173
 21
120.352952387243
 31
0.0
  0
LINE
  5
D4
330
1F
100
AcDbEntity
  8
0
100
AcDbLine
 10
-97.58518543428173
 20
120.352952387243
 30
0.0
 11
-97.8349364905434
 21
119.7499999999987
 31
0.0
  0
LINE
  5
D5
330
1F
100
AcDbEntity
  8
0
100
AcDbLine
 10
-97.8349364905434
 20
119.7499999999987
 30
0.0
 11
-98.23223304703798
 21
119.2322330470333
 31
0.0
  0
LINE
  5
D6
330
1F
100
AcDbEntity
  8
0
100
AcDbLine
 10
-98.23223304703798
 20
119.2322330470333
 30
0.0
 11
-98.75000000000483
 21
118.8349364905388
 31
0.0
  0
LINE
  5
D7
330
1F
100
AcDbEntity
  8
0
100
AcDbLine
 10
-98.75000000000483
 20
118.8349364905388
 30
0.0
 11
-99.35295238724831
 21
118.5851854342764
 31
0.0
  0
LINE
  5
D8
330
1F
100
AcDbEntity
  8
0
100
AcDbLine
 10
-99.35295238724831
 20
118.5851854342764
 30
0.0
 11
-100.0000000000045
 21
118.499999999999
 31
0.0
  0
LINE
  5
D9
330
1F
100
AcDbEntity
  8
0
100
AcDbLine
 10
-100.0000000000045
 20
118.499999999999
 30
0.0
 11
-100.6470476127608
 21
118.5851854342764
 31
0.0
  0
LINE
  5
DA
330
1F
100
AcDbEntity
  8
0
100
AcDbLine
 10
-100.6470476127608
 20
118.5851854342764
 30
0.0
 11
-101.2500000000043
 21
118.8349364905388
 31
0.0
  0
LINE
  5
DB
330
1F
100
AcDbEntity
  8
0
100
AcDbLine
 10
-101.2500000000043
 20
118.8349364905388
 30
0.0
 11
-101.7677669529711
 21
119.2322330470333
 31
0.0
  0
LINE
  5
DC
330
1F
100
AcDbEntity
  8
0
100
AcDbLine
 10
-101.7677669529711
 20
119.2322330470333
 30
0.0
 11
-102.1650635094657
 21
119.7499999999987
 31
0.0
  0
LINE
  5
DD
330
1F
100
AcDbEntity
  8
0
100
AcDbLine
 10
-102.1650635094657
 20
119.7499999999987
 30
0.0
 11
-102.4148145657274
 21
120.352952387243
 31
0.0
  0
LINE
  5
DE
330
1F
100
AcDbEntity
  8
0
100
AcDbLine
 10
-102.4148145657274
 20
120.352952387243
 30
0.0
 11
-102.5000000000047
 21
120.9999999999999
 31
0.0
  0
LINE
  5
DF
330
1F
100
AcDbEntity
  8
0
100
AcDbLine
 10
-102.5000000000047
 20
120.9999999999999
 30
0.0
 11
-102.4148145657274
 21
121.6470476127554
 31
0.0
  0
LINE
  5
E0
330
1F
100
AcDbEntity
  8
0
100
AcDbLine
 10
-102.4148145657274
 20
121.6470476127554
 30
0.0
 11
-102.1650635094657
 21
122.2499999999996
 31
0.0
  0
LINE
  5
E1
330
1F
100
AcDbEntity
  8
0
100
AcDbLine
 10
-102.1650635094657
 20
122.2499999999996
 30
0.0
 11
-101.7677669529711
 21
122.767766952965
 31
0.0
  0
LINE
  5
E2
330
1F
100
AcDbEntity
  8
0
100
AcDbLine
 10
-101.7677669529711
 20
122.767766952965
 30
0.0
 11
-101.2500000000043
 21
123.1650635094611
 31
0.0
  0
LINE
  5
E3
330
1F
100
AcDbEntity
  8
0
100
AcDbLine
 10
-101.2500000000043
 20
155.165063509461
 30
0.0
 11
-100.6470476127608
 21
155.4148145657219
 31
0.0
  0
LINE
  5
E4
330
1F
100
AcDbEntity
  8
0
100
AcDbLine
 10
-100.6470476127608
 20
155.4148145657219
 30
0.0
 11
-100.0000000000045
 21
155.4999999999993
 31
0.0
  0
LINE
  5
E5
330
1F
100
AcDbEntity
  8
0
100
AcDbLine
 10
-100.0000000000045
 20
155.4999999999993
 30
0.0
 11
-99.35295238724831
 21
155.4148145657219
 31
0.0
  0
LINE
  5
E6
330
1F
100
AcDbEntity
  8
0
100
AcDbLine
 10
-99.35295238724831
 20
155.4148145657219
 30
0.0
 11
-98.75000000000483
 21
155.165063509461
 31
0.0
  0
LINE
  5
E7
330
1F
100
AcDbEntity
  8
0
100
AcDbLine
 10
-98.75000000000483
 20
155.165063509461
 30
0.0
 11
-98.23223304703798
 21
154.7677669529664
 31
0.0
  0
LINE
  5
E8
330
1F
100
AcDbEntity
  8
0
100
AcDbLine
 10
-98.23223304703798
 20
-136.7677669529662
 30
0.0
 11
-98.75000000000483
 21
-137.1650635094608
 31
0.0
  0
LINE
  5
E9
330
1F
100
AcDbEntity
  8
0
100
AcDbLine
 10
-98.75000000000483
 20
-137.1650635094608
 30
0.0
 11
-99.35295238724831
 21
-137.4148145657225
 31
0.0
  0
LINE
  5
EA
330
1F
100
AcDbEntity
  8
0
100
AcDbLine
 10
-99.35295238724831
 20
-137.4148145657225
 30
0.0
 11
-100.0000000000045
 21
-137.4999999999998
 31
0.0
  0
LINE
  5
EB
330
1F
100
AcDbEntity
  8
0
100
AcDbLine
 10
-100.0000000000045
 20
-137.4999999999998
 30
0.0
 11
-100.6470476127608
 21
-137.4148145657225
 31
0.0
  0
LINE
  5
EC
330
1F
100
AcDbEntity
  8
0
100
AcDbLine
 10
-100.6470476127608
 20
-137.4148145657225
 30
0.0
 11
-101.2500000000043
 21
-137.1650635094608
 31
0.0
  0
LINE
  5
ED
330
1F
100
AcDbEntity
  8
0
100
AcDbLine
 10
-101.2500000000043
 20
-137.1650635094608
 30
0.0
 11
-101.7677669529711
 21
-136.7677669529662
 31
0.0
  0
LINE
  5
EE
330
1F
100
AcDbEntity
  8
0
100
AcDbLine
 10
-101.7677669529711
 20
-136.7677669529662
 30
0.0
 11
-102.1650635094657
 21
-136.2500000000001
 31
0.0
  0
LINE
  5
EF
330
1F
100
AcDbEntity
  8
0
100
AcDbLine
 10
-102.1650635094657
 20
-136.2500000000001
 30
0.0
 11
-102.4148145657274
 21
-135.6470476127566
 31
0.0
  0
LINE
  5
F0
330
1F
100
AcDbEntity
  8
0
100
AcDbLine
 10
-102.4148145657274
 20
-135.6470476127566
 30
0.0
 11
-102.5000000000047
 21
-134.9999999999996
 31
0.0
  0
LINE
  5
F1
330
1F
100
AcDbEntity
  8
0
100
AcDbLine
 10
-102.5000000000047
 20
-134.9999999999996
 30
0.0
 11
-102.4148145657274
 21
-134.3529523872441
 31
0.0
  0
LINE
  5
F2
330
1F
100
AcDbEntity
  8
0
100
AcDbLine
 10
-102.4148145657274
 20
-134.3529523872441
 30
0.0
 11
-102.1650635094657
 21
-133.7499999999999
 31
0.0
  0
LINE
  5
F3
330
1F
100
AcDbEntity
  8
0
100
AcDbLine
 10
-102.1650635094657
 20
-133.7499999999999
 30
0.0
 11
-101.7677669529711
 21
-133.2322330470338
 31
0.0
  0
LINE
  5
F4
330
1F
100
AcDbEntity
  8
0
100
AcDbLine
 10
-101.7677669529711
 20
-133.2322330470338
 30
0.0
 11
-101.2500000000043
 21
-132.8349364905385
 31
0.0
  0
LINE
  5
F5
330
1F
100
AcDbEntity
  8
0
100
AcDbLine
 10
-101.2500000000043
 20
-100.8349364905385
 30
0.0
 11
-100.6470476127608
 21
-100.5851854342776
 31
0.0
  0
LINE
  5
F6
330
1F
100
AcDbEntity
  8
0
100
AcDbLine
 10
-100.6470476127608
 20
-100.5851854342776
 30
0.0
 11
-100.0000000000045
 21
-100.5000000000002
 31
0.0
  0
LINE
  5
F7
330
1F
100
AcDbEntity
  8
0
100
AcDbLine
 10
-100.0000000000045
 20
-100.5000000000002
 30
0.0
 11
-99.35295238724831
 21
-100.5851854342776
 31
0.0
  0
LINE
  5
F8
330
1F
100
AcDbEntity
  8
0
100
AcDbLine
 10
-99.35295238724831
 20
-100.5851854342776
 30
0.0
 11
-98.75000000000483
 21
-100.8349364905385
 31
0.0
  0
LINE
  5
F9
330
1F
100
AcDbEntity
  8
0
100
AcDbLine
 10
-98.75000000000483
 20
-100.8349364905385
 30
0.0
 11
-98.23223304703798
 21
-101.2322330470338
 31
0.0
  0
LINE
  5
FA
330
1F
100
AcDbEntity
  8
0
100
AcDbLine
 10
-98.23223304703798
 20
-101.2322330470338
 30
0.0
 11
-97.8349364905434
 21
-101.75
 31
0.0
  0
LINE
  5
FB
330
1F
100
AcDbEntity
  8
0
100
AcDbLine
 10
-97.8349364905434
 20
-101.75
 30
0.0
 11
-97.58518543428173
 21
-102.3529523872442
 31
0.0
  0
LINE
  5
FC
330
1F
100
AcDbEntity
  8
0
100
AcDbLine
 10
-97.58518543428173
 20
-102.3529523872442
 30
0.0
 11
-97.5000000000044
 21
-102.9999999999997
 31
0.0
  0
LINE
  5
FD
330
1F
100
AcDbEntity
  8
0
100
AcDbLine
 10
-97.5000000000044
 20
-102.9999999999997
 30
0.0
 11
-97.58518543428173
 21
-103.6470476127566
 31
0.0
  0
LINE
  5
FE
330
1F
100
AcDbEntity
  8
0
100
AcDbLine
 10
-97.58518543428173
 20
-103.6470476127566
 30
0.0
 11
-97.8349364905434
 21
-104.2500000000001
 31
0.0
  0
LINE
  5
FF
330
1F
100
AcDbEntity
  8
0
100
AcDbLine
 10
-97.8349364905434
 20
-104.2500000000001
 30
0.0
 11
-98.23223304703798
 21
-104.7677669529663
 31
0.0
  0
LINE
  5
100
330
1F
100
AcDbEntity
  8
0
100
AcDbLine
 10
-98.23223304703798
 20
-104.7677669529663
 30
0.0
 11
-98.75000000000483
 21
-105.1650635094608
 31
0.0
  0
LINE
  5
101
330
1F
100
AcDbEntity
  8
0
100
AcDbLine
 10
-98.75000000000483
 20
-105.1650635094608
 30
0.0
 11
-99.35295238724831
 21
-105.4148145657225
 31
0.0
  0
LINE
  5
102
330
1F
100
AcDbEntity
  8
0
100
AcDbLine
 10
-99.35295238724831
 20
-105.4148145657225
 30
0.0
 11
-100.0000000000045
 21
-105.4999999999998
 31
0.0
  0
LINE
  5
103
330
1F
100
AcDbEntity
  8
0
100
AcDbLine
 10
-100.0000000000045
 20
-105.4999999999998
 30
0.0
 11
-100.6470476127608
 21
-105.4148145657225
 31
0.0
  0
LINE
  5
104
330
1F
100
AcDbEntity
  8
0
100
AcDbLine
 10
-100.6470476127608
 20
-105.4148145657225
 30
0.0
 11
-101.2500000000043
 21
-105.1650635094608
 31
0.0
  0
LINE
  5
105
330
1F
100
AcDbEntity
  8
0
100
AcDbLine
 10
-101.2500000000043
 20
-105.1650635094608
 30
0.0
 11
-101.7677669529711
 21
-104.7677669529663
 31
0.0
  0
LINE
  5
106
330
1F
100
AcDbEntity
  8
0
100
AcDbLine
 10
-101.7677669529711
 20
-104.7677669529663
 30
0.0
 11
-102.1650635094657
 21
-104.2500000000001
 31
0.0
  0
LINE
  5
107
330
1F
100
AcDbEntity
  8
0
100
AcDbLine
 10
-102.1650635094657
 20
-104.2500000000001
 30
0.0
 11
-102.4148145657274
 21
-103.6470476127566
 31
0.0
  0
LINE
  5
108
330
1F
100
AcDbEntity
  8
0
100
AcDbLine
 10
-102.4148145657274
 20
-103.6470476127566
 30
0.0
 11
-102.5000000000047
 21
-102.9999999999997
 31
0.0
  0
LINE
  5
109
330
1F
100
AcDbEntity
  8
0
100
AcDbLine
 10
-102.5000000000047
 20
-102.9999999999997
 30
0.0
 11
-102.4148145657274
 21
-102.3529523872442
 31
0.0
  0
LINE
  5
10A
330
1F
100
AcDbEntity
  8
0
100
AcDbLine
 10
-102.4148145657274
 20
-102.3529523872442
 30
0.0
 11
-102.1650635094657
 21
-101.75
 31
0.0
  0
LINE
  5
10B
330
1F
100
AcDbEntity
  8
0
100
AcDbLine
 10
-102.1650635094657
 20
-101.75
 30
0.0
 11
-101.7677669529711
 21
-101.2322330470338
 31
0.0
  0
LINE
  5
10C
330
1F
100
AcDbEntity
  8
0
100
AcDbLine
 10
-101.7677669529711
 20
-101.2322330470338
 30
0.0
 11
-101.2500000000043
 21
-100.8349364905385
 31
0.0
  0
LINE
  5
10D
330
1F
100
AcDbEntity
  8
0
100
AcDbLine
 10
-102.5000000000047
 20
184.9999999999998
 30
0.0
 11
-102.4148145657274
 21
185.6470476127553
 31
0.0
  0
LINE
  5
10E
330
1F
100
AcDbEntity
  8
0
100
AcDbLine
 10
-102.4148145657274
 20
185.6470476127553
 30
0.0
 11
-102.1650635094657
 21
186.2499999999995
 31
0.0
  0
LINE
  5
10F
330
1F
100
AcDbEntity
  8
0
100
AcDbLine
 10
-102.1650635094657
 20
186.2499999999995
 30
0.0
 11
-101.7677669529711
 21
186.7677669529664
 31
0.0
  0
LINE
  5
110
330
1F
100
AcDbEntity
  8
0
100
AcDbLine
 10
-101.7677669529711
 20
186.7677669529664
 30
0.0
 11
-101.2500000000043
 21
187.1650635094609
 31
0.0
  0
LINE
  5
111
330
1F
100
AcDbEntity
  8
0
100
AcDbLine
 10
-101.2500000000043
 20
187.1650635094609
 30
0.0
 11
-100.6470476127608
 21
187.4148145657219
 31
0.0
  0
LINE
  5
112
330
1F
100
AcDbEntity
  8
0
100
AcDbLine
 10
-100.6470476127608
 20
187.4148145657219
 30
0.0
 11
-100.0000000000045
 21
187.4999999999992
 31
0.0
  0
LINE
  5
113
330
1F
100
AcDbEntity
  8
0
100
AcDbLine
 10
-100.0000000000045
 20
187.4999999999992
 30
0.0
 11
-99.35295238724831
 21
187.4148145657219
 31
0.0
  0
LINE
  5
114
330
1F
100
AcDbEntity
  8
0
100
AcDbLine
 10
-99.35295238724831
 20
187.4148145657219
 30
0.0
 11
-98.75000000000483
 21
187.1650635094609
 31
0.0
  0
LINE
  5
115
330
1F
100
AcDbEntity
  8
0
100
AcDbLine
 10
-98.75000000000483
 20
187.1650635094609
 30
0.0
 11
-98.23223304703798
 21
186.7677669529664
 31
0.0
  0
LINE
  5
116
330
1F
100
AcDbEntity
  8
0
100
AcDbLine
 10
-98.23223304703798
 20
186.7677669529664
 30
0.0
 11
-97.8349364905434
 21
186.2499999999995
 31
0.0
  0
LINE
  5
117
330
1F
100
AcDbEntity
  8
0
100
AcDbLine
 10
-97.8349364905434
 20
186.2499999999995
 30
0.0
 11
-97.58518543428173
 21
185.6470476127553
 31
0.0
  0
LINE
  5
118
330
1F
100
AcDbEntity
  8
0
100
AcDbLine
 10
-97.58518543428173
 20
185.6470476127553
 30
0.0
 11
-97.5000000000044
 21
184.9999999999998
 31
0.0
  0
LINE
  5
119
330
1F
100
AcDbEntity
  8
0
100
AcDbLine
 10
-97.5000000000044
 20
184.9999999999998
 30
0.0
 11
-97.58518543428173
 21
184.3529523872428
 31
0.0
  0
LINE
  5
11A
330
1F
100
AcDbEntity
  8
0
100
AcDbLine
 10
-97.58518543428173
 20
184.3529523872428
 30
0.0
 11
-97.8349364905434
 21
183.7499999999986
 31
0.0
  0
LINE
  5
11B
330
1F
100
AcDbEntity
  8
0
100
AcDbLine
 10
-97.8349364905434
 20
183.7499999999986
 30
0.0
 11
-98.23223304703798
 21
183.2322330470332
 31
0.0
  0
LINE
  5
11C
330
1F
100
AcDbEntity
  8
0
100
AcDbLine
 10
-98.23223304703798
 20
183.2322330470332
 30
0.0
 11
-98.75000000000483
 21
182.8349364905386
 31
0.0
  0
LINE
  5
11D
330
1F
100
AcDbEntity
  8
0
100
AcDbLine
 10
-98.75000000000483
 20
182.8349364905386
 30
0.0
 11
-99.35295238724831
 21
182.5851854342762
 31
0.0
  0
LINE
  5
11E
330
1F
100
AcDbEntity
  8
0
100
AcDbLine
 10
-99.35295238724831
 20
182.5851854342762
 30
0.0
 11
-100.0000000000045
 21
182.4999999999989
 31
0.0
  0
LINE
  5
11F
330
1F
100
AcDbEntity
  8
0
100
AcDbLine
 10
-100.0000000000045
 20
182.4999999999989
 30
0.0
 11
-100.6470476127608
 21
182.5851854342762
 31
0.0
  0
LINE
  5
120
330
1F
100
AcDbEntity
  8
0
100
AcDbLine
 10
-100.6470476127608
 20
182.5851854342762
 30
0.0
 11
-101.2500000000043
 21
182.8349364905386
 31
0.0
  0
LINE
  5
121
330
1F
100
AcDbEntity
  8
0
100
AcDbLine
 10
-101.2500000000043
 20
182.8349364905386
 30
0.0
 11
-101.7677669529711
 21
183.2322330470332
 31
0.0
  0
LINE
  5
122
330
1F
100
AcDbEntity
  8
0
100
AcDbLine
 10
-101.7677669529711
 20
183.2322330470332
 30
0.0
 11
-102.1650635094657
 21
183.7499999999986
 31
0.0
  0
LINE
  5
123
330
1F
100
AcDbEntity
  8
0
100
AcDbLine
 10
-102.1650635094657
 20
183.7499999999986
 30
0.0
 11
-102.4148145657274
 21
184.3529523872428
 31
0.0
  0
LINE
  5
124
330
1F
100
AcDbEntity
  8
0
100
AcDbLine
 10
-102.4148145657274
 20
184.3529523872428
 30
0.0
 11
-102.5000000000047
 21
184.9999999999998
 31
0.0
  0
LINE
  5
125
330
1F
100
AcDbEntity
  8
0
100
AcDbLine
 10
-101.2500000000043
 20
-4.8349364905387
 30
0.0
 11
-100.6470476127608
 21
-4.585185434277752
 31
0.0
  0
LINE
  5
126
330
1F
100
AcDbEntity
  8
0
100
AcDbLine
 10
-100.6470476127608
 20
-4.585185434277752
 30
0.0
 11
-100.0000000000045
 21
-4.50000000000042
 31
0.0
  0
LINE
  5
127
330
1F
100
AcDbEntity
  8
0
100
AcDbLine
 10
-100.0000000000045
 20
-4.50000000000042
 30
0.0
 11
-99.35295238724831
 21
-4.585185434277752
 31
0.0
  0
LINE
  5
128
330
1F
100
AcDbEntity
  8
0
100
AcDbLine
 10
-99.35295238724831
 20
-4.585185434277752
 30
0.0
 11
-98.75000000000483
 21
-4.8349364905387
 31
0.0
  0
LINE
  5
129
330
1F
100
AcDbEntity
  8
0
100
AcDbLine
 10
-98.75000000000483
 20
-4.8349364905387
 30
0.0
 11
-98.23223304703798
 21
-5.232233047033997
 31
0.0
  0
LINE
  5
12A
330
1F
100
AcDbEntity
  8
0
100
AcDbLine
 10
121.1470476127409
 20
-333.5851854342758
 30
0.0
 11
121.7499999999844
 21
-333.8349364905375
 31
0.0
  0
LINE
  5
12B
330
1F
100
AcDbEntity
  8
0
100
AcDbLine
 10
120.4999999999846
 20
-338.4999999999988
 30
0.0
 11
119.852952387228
 21
-338.4148145657215
 31
0.0
  0
LINE
  5
12C
330
1F
100
AcDbEntity
  8
0
100
AcDbLine
 10
119.2499999999846
 20
-338.1650635094598
 30
0.0
 11
118.7322330470181
 21
-337.7677669529645
 31
0.0
  0
LINE
  5
12D
330
1F
100
AcDbEntity
  8
0
100
AcDbLine
 10
118.7322330470181
 20
-337.7677669529645
 30
0.0
 11
118.3349364905235
 21
-337.2499999999984
 31
0.0
  0
LINE
  5
12E
330
1F
100
AcDbEntity
  8
0
100
AcDbLine
 10
118.3349364905235
 20
-337.2499999999984
 30
0.0
 11
118.0851854342618
 21
-336.6470476127549
 31
0.0
  0
LINE
  5
12F
330
1F
100
AcDbEntity
  8
0
100
AcDbLine
 10
118.0851854342618
 20
-336.6470476127549
 30
0.0
 11
117.9999999999845
 21
-335.9999999999986
 31
0.0
  0
LINE
  5
130
330
1F
100
AcDbEntity
  8
0
100
AcDbLine
 10
117.9999999999845
 20
-335.9999999999986
 30
0.0
 11
118.0851854342618
 21
-335.3529523872424
 31
0.0
  0
LINE
  5
131
330
1F
100
AcDbEntity
  8
0
100
AcDbLine
 10
118.0851854342618
 20
-335.3529523872424
 30
0.0
 11
118.3349364905235
 21
-334.7499999999982
 31
0.0
  0
LINE
  5
132
330
1F
100
AcDbEntity
  8
0
100
AcDbLine
 10
118.3349364905235
 20
-334.7499999999982
 30
0.0
 11
118.7322330470181
 21
-334.2322330470321
 31
0.0
  0
LINE
  5
133
330
1F
100
AcDbEntity
  8
0
100
AcDbLine
 10
118.7322330470181
 20
-334.2322330470321
 30
0.0
 11
119.2499999999846
 21
-333.8349364905375
 31
0.0
  0
LINE
  5
134
330
1F
100
AcDbEntity
  8
0
100
AcDbLine
 10
119.2499999999846
 20
-333.8349364905375
 30
0.0
 11
119.852952387228
 21
-333.5851854342758
 31
0.0
  0
LINE
  5
135
330
1F
100
AcDbEntity
  8
0
100
AcDbLine
 10
119.852952387228
 20
-333.5851854342758
 30
0.0
 11
120.4999999999846
 21
-333.4999999999985
 31
0.0
  0
LINE
  5
136
330
1F
100
AcDbEntity
  8
0
100
AcDbLine
 10
19.49999999998451
 20
-333.4999999999985
 30
0.0
 11
20.14704761274076
 21
-333.5851854342758
 31
0.0
  0
LINE
  5
137
330
1F
100
AcDbEntity
  8
0
100
AcDbLine
 10
20.14704761274076
 20
-333.5851854342758
 30
0.0
 11
20.74999999998459
 21
-333.8349364905375
 31
0.0
  0
LINE
  5
138
330
1F
100
AcDbEntity
  8
0
100
AcDbLine
 10
20.74999999998459
 20
-333.8349364905375
 30
0.0
 11
21.26776695295109
 21
-334.2322330470321
 31
0.0
  0
LINE
  5
139
330
1F
100
AcDbEntity
  8
0
100
AcDbLine
 10
21.26776695295109
 20
-334.2322330470321
 30
0.0
 11
21.66506350944566
 21
-334.7499999999982
 31
0.0
  0
LINE
  5
13A
330
1F
100
AcDbEntity
  8
0
100
AcDbLine
 10
21.66506350944566
 20
-334.7499999999982
 30
0.0
 11
21.91481456570733
 21
-335.3529523872424
 31
0.0
  0
LINE
  5
13B
330
1F
100
AcDbEntity
  8
0
100
AcDbLine
 10
21.91481456570733
 20
-335.3529523872424
 30
0.0
 11
21.99999999998466
 21
-335.9999999999986
 31
0.0
  0
LINE
  5
13C
330
1F
100
AcDbEntity
  8
0
100
AcDbLine
 10
21.99999999998466
 20
-335.9999999999986
 30
0.0
 11
21.91481456570733
 21
-336.6470476127549
 31
0.0
  0
LINE
  5
13D
330
1F
100
AcDbEntity
  8
0
100
AcDbLine
 10
21.91481456570733
 20
-336.6470476127549
 30
0.0
 11
21.66506350944566
 21
-337.2499999999984
 31
0.0
  0
LINE
  5
13E
330
1F
100
AcDbEntity
  8
0
100
AcDbLine
 10
21.66506350944566
 20
-337.2499999999984
 30
0.0
 11
21.26776695295109
 21
-337.7677669529645
 31
0.0
  0
LINE
  5
13F
330
1F
100
AcDbEntity
  8
0
100
AcDbLine
 10
21.26776695295109
 20
-337.7677669529645
 30
0.0
 11
20.74999999998459
 21
-338.1650635094598
 31
0.0
  0
LINE
  5
140
330
1F
100
AcDbEntity
  8
0
100
AcDbLine
 10
20.74999999998459
 20
-338.1650635094598
 30
0.0
 11
20.14704761274076
 21
-338.4148145657215
 31
0.0
  0
LINE
  5
141
330
1F
100
AcDbEntity
  8
0
100
AcDbLine
 10
20.14704761274076
 20
-338.4148145657215
 30
0.0
 11
19.49999999998451
 21
-338.4999999999988
 31
0.0
  0
LINE
  5
142
330
1F
100
AcDbEntity
  8
0
100
AcDbLine
 10
19.49999999998451
 20
-338.4999999999988
 30
0.0
 11
18.85295238722827
 21
-338.4148145657215
 31
0.0
  0
LINE
  5
143
330
1F
100
AcDbEntity
  8
0
100
AcDbLine
 10
18.85295238722827
 20
-338.4148145657215
 30
0.0
 11
18.24999999998444
 21
-338.1650635094598
 31
0.0
  0
LINE
  5
144
330
1F
100
AcDbEntity
  8
0
100
AcDbLine
 10
18.24999999998444
 20
-338.1650635094598
 30
0.0
 11
17.73223304701794
 21
-337.7677669529645
 31
0.0
  0
LINE
  5
145
330
1F
100
AcDbEntity
  8
0
100
AcDbLine
 10
17.73223304701794
 20
-337.7677669529645
 30
0.0
 11
17.33493649052336
 21
-337.2499999999984
 31
0.0
  0
LINE
  5
146
330
1F
100
AcDbEntity
  8
0
100
AcDbLine
 10
17.33493649052336
 20
-337.2499999999984
 30
0.0
 11
17.08518543426169
 21
-336.6470476127549
 31
0.0
  0
LINE
  5
147
330
1F
100
AcDbEntity
  8
0
100
AcDbLine
 10
17.08518543426169
 20
-336.6470476127549
 30
0.0
 11
16.99999999998436
 21
-335.9999999999986
 31
0.0
  0
LINE
  5
148
330
1F
100
AcDbEntity
  8
0
100
AcDbLine
 10
16.99999999998436
 20
-335.9999999999986
 30
0.0
 11
17.08518543426169
 21
-335.3529523872424
 31
0.0
  0
LINE
  5
149
330
1F
100
AcDbEntity
  8
0
100
AcDbLine
 10
17.08518543426169
 20
-335.3529523872424
 30
0.0
 11
17.33493649052336
 21
-334.7499999999982
 31
0.0
  0
LINE
  5
14A
330
1F
100
AcDbEntity
  8
0
100
AcDbLine
 10
17.33493649052336
 20
-334.7499999999982
 30
0.0
 11
17.73223304701794
 21
-334.2322330470321
 31
0.0
  0
LINE
  5
14B
330
1F
100
AcDbEntity
  8
0
100
AcDbLine
 10
17.73223304701794
 20
-334.2322330470321
 30
0.0
 11
18.24999999998444
 21
-333.8349364905375
 31
0.0
  0
LINE
  5
14C
330
1F
100
AcDbEntity
  8
0
100
AcDbLine
 10
18.24999999998444
 20
-333.8349364905375
 30
0.0
 11
18.85295238722827
 21
-333.5851854342758
 31
0.0
  0
LINE
  5
14D
330
1F
100
AcDbEntity
  8
0
100
AcDbLine
 10
18.85295238722827
 20
-333.5851854342758
 30
0.0
 11
19.49999999998451
 21
-333.4999999999985
 31
0.0
  0
LINE
  5
14E
330
1F
100
AcDbEntity
  8
0
100
AcDbLine
 10
-39.50000000000387
 20
-333.4999999999978
 30
0.0
 11
-38.85295238724763
 21
-333.5851854342751
 31
0.0
  0
LINE
  5
14F
330
1F
100
AcDbEntity
  8
0
100
AcDbLine
 10
-38.85295238724763
 20
-333.5851854342751
 30
0.0
 11
-38.25000000000416
 21
-333.8349364905368
 31
0.0
  0
LINE
  5
150
330
1F
100
AcDbEntity
  8
0
100
AcDbLine
 10
-150.0000000000044
 20
-344.9999999999988
 30
0.0
 11
150.0000000000043
 21
-344.9999999999988
 31
0.0
  0
LINE
  5
151
330
1F
100
AcDbEntity
  8
0
100
AcDbLine
 10
150.0000000000043
 20
-344.9999999999988
 30
0.0
 11
150.0000000000043
 21
345.000000000001
 31
0.0
  0
LINE
  5
152
330
1F
100
AcDbEntity
  8
0
100
AcDbLine
 10
-150.0000000000044
 20
345.000000000001
 30
0.0
 11
-150.0000000000044
 21
-344.9999999999988
 31
0.0
  0
LINE
  5
153
330
1F
100
AcDbEntity
  8
0
100
AcDbLine
 10
17.73223304701794
 20
334.232233047035
 30
0.0
 11
17.33493649052336
 21
334.7500000000011
 31
0.0
  0
LINE
  5
154
330
1F
100
AcDbEntity
  8
0
100
AcDbLine
 10
17.33493649052336
 20
334.7500000000011
 30
0.0
 11
17.08518543426169
 21
335.3529523872446
 31
0.0
  0
LINE
  5
155
330
1F
100
AcDbEntity
  8
0
100
AcDbLine
 10
17.08518543426169
 20
335.3529523872446
 30
0.0
 11
16.99999999998436
 21
336.0000000000015
 31
0.0
  0
LINE
  5
156
330
1F
100
AcDbEntity
  8
0
100
AcDbLine
 10
16.99999999998436
 20
336.0000000000015
 30
0.0
 11
17.08518543426169
 21
336.6470476127571
 31
0.0
  0
LINE
  5
157
330
1F
100
AcDbEntity
  8
0
100
AcDbLine
 10
17.08518543426169
 20
336.6470476127571
 30
0.0
 11
17.33493649052336
 21
337.2500000000013
 31
0.0
  0
LINE
  5
158
330
1F
100
AcDbEntity
  8
0
100
AcDbLine
 10
17.33493649052336
 20
337.2500000000013
 30
0.0
 11
17.73223304701794
 21
337.7677669529674
 31
0.0
  0
LINE
  5
159
330
1F
100
AcDbEntity
  8
0
100
AcDbLine
 10
17.73223304701794
 20
337.7677669529674
 30
0.0
 11
18.24999999998444
 21
338.1650635094627
 31
0.0
  0
LINE
  5
15A
330
1F
100
AcDbEntity
  8
0
100
AcDbLine
 10
18.24999999998444
 20
338.1650635094627
 30
0.0
 11
18.85295238722827
 21
338.4148145657236
 31
0.0
  0
LINE
  5
15B
330
1F
100
AcDbEntity
  8
0
100
AcDbLine
 10
18.85295238722827
 20
338.4148145657236
 30
0.0
 11
19.49999999998451
 21
338.500000000001
 31
0.0
  0
LINE
  5
15C
330
1F
100
AcDbEntity
  8
0
100
AcDbLine
 10
-38.25000000000416
 20
-333.8349364905368
 30
0.0
 11
-37.73223304703766
 21
-334.2322330470321
 31
0.0
  0
LINE
  5
15D
330
1F
100
AcDbEntity
  8
0
100
AcDbLine
 10
-37.73223304703766
 20
-334.2322330470321
 30
0.0
 11
-37.33493649054309
 21
-334.7499999999982
 31
0.0
  0
LINE
  5
15E
330
1F
100
AcDbEntity
  8
0
100
AcDbLine
 10
-37.33493649054309
 20
-334.7499999999982
 30
0.0
 11
-37.08518543428141
 21
-335.3529523872417
 31
0.0
  0
LINE
  5
15F
330
1F
100
AcDbEntity
  8
0
100
AcDbLine
 10
-37.08518543428141
 20
-335.3529523872417
 30
0.0
 11
-37.00000000000409
 21
-335.999999999998
 31
0.0
  0
LINE
  5
160
330
1F
100
AcDbEntity
  8
0
100
AcDbLine
 10
-37.00000000000409
 20
-335.999999999998
 30
0.0
 11
-37.08518543428141
 21
-336.6470476127542
 31
0.0
  0
LINE
  5
161
330
1F
100
AcDbEntity
  8
0
100
AcDbLine
 10
-37.08518543428141
 20
-336.6470476127542
 30
0.0
 11
-37.33493649054309
 21
-337.2499999999984
 31
0.0
  0
LINE
  5
162
330
1F
100
AcDbEntity
  8
0
100
AcDbLine
 10
-37.33493649054309
 20
-337.2499999999984
 30
0.0
 11
-37.73223304703766
 21
-337.7677669529645
 31
0.0
  0
LINE
  5
163
330
1F
100
AcDbEntity
  8
0
100
AcDbLine
 10
-37.73223304703766
 20
-337.7677669529645
 30
0.0
 11
-38.25000000000416
 21
-338.1650635094591
 31
0.0
  0
LINE
  5
164
330
1F
100
AcDbEntity
  8
0
100
AcDbLine
 10
-38.25000000000416
 20
-338.1650635094591
 30
0.0
 11
-38.85295238724763
 21
-338.4148145657207
 31
0.0
  0
LINE
  5
165
330
1F
100
AcDbEntity
  8
0
100
AcDbLine
 10
-38.85295238724763
 20
-338.4148145657207
 30
0.0
 11
-39.50000000000387
 21
-338.4999999999981
 31
0.0
  0
LINE
  5
166
330
1F
100
AcDbEntity
  8
0
100
AcDbLine
 10
-39.50000000000387
 20
-338.4999999999981
 30
0.0
 11
-40.14704761276048
 21
-338.4148145657207
 31
0.0
  0
LINE
  5
167
330
1F
100
AcDbEntity
  8
0
100
AcDbLine
 10
-40.14704761276048
 20
-338.4148145657207
 30
0.0
 11
-40.75000000000395
 21
-338.1650635094591
 31
0.0
  0
LINE
  5
168
330
1F
100
AcDbEntity
  8
0
100
AcDbLine
 10
-40.75000000000395
 20
-338.1650635094591
 30
0.0
 11
-41.26776695297045
 21
-337.7677669529645
 31
0.0
  0
LINE
  5
169
330
1F
100
AcDbEntity
  8
0
100
AcDbLine
 10
-41.26776695297045
 20
-337.7677669529645
 30
0.0
 11
-41.66506350946503
 21
-337.2499999999984
 31
0.0
  0
LINE
  5
16A
330
1F
100
AcDbEntity
  8
0
100
AcDbLine
 10
-41.66506350946503
 20
-337.2499999999984
 30
0.0
 11
-41.91481456572669
 21
-336.6470476127542
 31
0.0
  0
LINE
  5
16B
330
1F
100
AcDbEntity
  8
0
100
AcDbLine
 10
-41.91481456572669
 20
-336.6470476127542
 30
0.0
 11
-42.00000000000403
 21
-335.999999999998
 31
0.0
  0
LINE
  5
16C
330
1F
100
AcDbEntity
  8
0
100
AcDbLine
 10
-42.00000000000403
 20
-335.999999999998
 30
0.0
 11
-41.91481456572669
 21
-335.3529523872417
 31
0.0
  0
LINE
  5
16D
330
1F
100
AcDbEntity
  8
0
100
AcDbLine
 10
-41.91481456572669
 20
-335.3529523872417
 30
0.0
 11
-41.66506350946503
 21
-334.7499999999982
 31
0.0
  0
LINE
  5
16E
330
1F
100
AcDbEntity
  8
0
100
AcDbLine
 10
-41.66506350946503
 20
-334.7499999999982
 30
0.0
 11
-41.26776695297045
 21
-334.2322330470321
 31
0.0
  0
LINE
  5
16F
330
1F
100
AcDbEntity
  8
0
100
AcDbLine
 10
-41.26776695297045
 20
-334.2322330470321
 30
0.0
 11
-40.75000000000395
 21
-333.8349364905368
 31
0.0
  0
LINE
  5
170
330
1F
100
AcDbEntity
  8
0
100
AcDbLine
 10
-40.75000000000395
 20
-333.8349364905368
 30
0.0
 11
-40.14704761276048
 21
-333.5851854342751
 31
0.0
  0
LINE
  5
171
330
1F
100
AcDbEntity
  8
0
100
AcDbLine
 10
-40.14704761276048
 20
-333.5851854342751
 30
0.0
 11
-39.50000000000387
 21
-333.4999999999978
 31
0.0
  0
LINE
  5
172
330
1F
100
AcDbEntity
  8
0
100
AcDbLine
 10
-143.0000000000041
 20
-335.999999999998
 30
0.0
 11
-142.9148145657268
 21
-335.3529523872417
 31
0.0
  0
LINE
  5
173
330
1F
100
AcDbEntity
  8
0
100
AcDbLine
 10
-142.9148145657268
 20
-335.3529523872417
 30
0.0
 11
-142.6650635094652
 21
-334.7499999999982
 31
0.0
  0
LINE
  5
174
330
1F
100
AcDbEntity
  8
0
100
AcDbLine
 10
-142.6650635094652
 20
-334.7499999999982
 30
0.0
 11
-142.2677669529706
 21
-334.2322330470321
 31
0.0
  0
LINE
  5
175
330
1F
100
AcDbEntity
  8
0
100
AcDbLine
 10
-142.2677669529706
 20
-334.2322330470321
 30
0.0
 11
-141.7500000000041
 21
-333.8349364905368
 31
0.0
  0
LINE
  5
176
330
1F
100
AcDbEntity
  8
0
100
AcDbLine
 10
-141.7500000000041
 20
-333.8349364905368
 30
0.0
 11
-141.1470476127602
 21
-333.5851854342751
 31
0.0
  0
LINE
  5
177
330
1F
100
AcDbEntity
  8
0
100
AcDbLine
 10
-141.1470476127602
 20
-333.5851854342751
 30
0.0
 11
-140.500000000004
 21
-333.4999999999978
 31
0.0
  0
LINE
  5
178
330
1F
100
AcDbEntity
  8
0
100
AcDbLine
 10
-140.500000000004
 20
-333.4999999999978
 30
0.0
 11
-139.8529523872478
 21
-333.5851854342751
 31
0.0
  0
LINE
  5
179
330
1F
100
AcDbEntity
  8
0
100
AcDbLine
 10
-139.8529523872478
 20
-333.5851854342751
 30
0.0
 11
-139.2500000000039
 21
-333.8349364905368
 31
0.0
  0
LINE
  5
17A
330
1F
100
AcDbEntity
  8
0
100
AcDbLine
 10
-139.2500000000039
 20
-333.8349364905368
 30
0.0
 11
-138.7322330470374
 21
-334.2322330470321
 31
0.0
  0
LINE
  5
17B
330
1F
100
AcDbEntity
  8
0
100
AcDbLine
 10
-138.7322330470374
 20
-334.2322330470321
 30
0.0
 11
-138.3349364905428
 21
-334.7499999999982
 31
0.0
  0
LINE
  5
17C
330
1F
100
AcDbEntity
  8
0
100
AcDbLine
 10
-138.3349364905428
 20
-334.7499999999982
 30
0.0
 11
-138.0851854342812
 21
-335.3529523872417
 31
0.0
  0
LINE
  5
17D
330
1F
100
AcDbEntity
  8
0
100
AcDbLine
 10
-138.0851854342812
 20
-335.3529523872417
 30
0.0
 11
-138.0000000000039
 21
-335.999999999998
 31
0.0
  0
LINE
  5
17E
330
1F
100
AcDbEntity
  8
0
100
AcDbLine
 10
-138.0000000000039
 20
-335.999999999998
 30
0.0
 11
-138.0851854342812
 21
-336.6470476127542
 31
0.0
  0
LINE
  5
17F
330
1F
100
AcDbEntity
  8
0
100
AcDbLine
 10
-138.0851854342812
 20
-336.6470476127542
 30
0.0
 11
-138.3349364905428
 21
-337.2499999999984
 31
0.0
  0
LINE
  5
180
330
1F
100
AcDbEntity
  8
0
100
AcDbLine
 10
-138.3349364905428
 20
-337.2499999999984
 30
0.0
 11
-138.7322330470374
 21
-337.7677669529645
 31
0.0
  0
LINE
  5
181
330
1F
100
AcDbEntity
  8
0
100
AcDbLine
 10
-102.4148145657274
 20
-166.352952387244
 30
0.0
 11
-102.1650635094657
 21
-165.7499999999998
 31
0.0
  0
LINE
  5
182
330
1F
100
AcDbEntity
  8
0
100
AcDbLine
 10
-102.1650635094657
 20
-165.7499999999998
 30
0.0
 11
-101.7677669529711
 21
-165.2322330470337
 31
0.0
  0
LINE
  5
183
330
1F
100
AcDbEntity
  8
0
100
AcDbLine
 10
-101.7677669529711
 20
-165.2322330470337
 30
0.0
 11
-101.2500000000043
 21
-164.8349364905391
 31
0.0
  0
LINE
  5
184
330
1F
100
AcDbEntity
  8
0
100
AcDbLine
 10
-101.2500000000043
 20
-164.8349364905391
 30
0.0
 11
-100.6470476127608
 21
-164.5851854342775
 31
0.0
  0
LINE
  5
185
330
1F
100
AcDbEntity
  8
0
100
AcDbLine
 10
-100.6470476127608
 20
-164.5851854342775
 30
0.0
 11
-100.0000000000045
 21
-164.5000000000001
 31
0.0
  0
LINE
  5
186
330
1F
100
AcDbEntity
  8
0
100
AcDbLine
 10
-100.0000000000045
 20
-164.5000000000001
 30
0.0
 11
-99.35295238724831
 21
-164.5851854342775
 31
0.0
  0
LINE
  5
187
330
1F
100
AcDbEntity
  8
0
100
AcDbLine
 10
-101.2500000000043
 20
-132.8349364905385
 30
0.0
 11
-100.6470476127608
 21
-132.5851854342775
 31
0.0
  0
LINE
  5
188
330
1F
100
AcDbEntity
  8
0
100
AcDbLine
 10
-100.6470476127608
 20
-132.5851854342775
 30
0.0
 11
-100.0000000000045
 21
-132.5000000000002
 31
0.0
  0
LINE
  5
189
330
1F
100
AcDbEntity
  8
0
100
AcDbLine
 10
-100.0000000000045
 20
-132.5000000000002
 30
0.0
 11
-99.35295238724831
 21
-132.5851854342775
 31
0.0
  0
LINE
  5
18A
330
1F
100
AcDbEntity
  8
0
100
AcDbLine
 10
-99.35295238724831
 20
-132.5851854342775
 30
0.0
 11
-98.75000000000483
 21
-132.8349364905385
 31
0.0
  0
LINE
  5
18B
330
1F
100
AcDbEntity
  8
0
100
AcDbLine
 10
-98.75000000000483
 20
-132.8349364905385
 30
0.0
 11
-98.23223304703798
 21
-133.2322330470338
 31
0.0
  0
LINE
  5
18C
330
1F
100
AcDbEntity
  8
0
100
AcDbLine
 10
-98.23223304703798
 20
-133.2322330470338
 30
0.0
 11
-97.8349364905434
 21
-133.7499999999999
 31
0.0
  0
LINE
  5
18D
330
1F
100
AcDbEntity
  8
0
100
AcDbLine
 10
-97.8349364905434
 20
-133.7499999999999
 30
0.0
 11
-97.58518543428173
 21
-134.3529523872441
 31
0.0
  0
LINE
  5
18E
330
1F
100
AcDbEntity
  8
0
100
AcDbLine
 10
-97.58518543428173
 20
-134.3529523872441
 30
0.0
 11
-97.5000000000044
 21
-134.9999999999996
 31
0.0
  0
LINE
  5
18F
330
1F
100
AcDbEntity
  8
0
100
AcDbLine
 10
-97.5000000000044
 20
-134.9999999999996
 30
0.0
 11
-97.58518543428173
 21
-135.6470476127566
 31
0.0
  0
LINE
  5
190
330
1F
100
AcDbEntity
  8
0
100
AcDbLine
 10
-97.58518543428173
 20
-135.6470476127566
 30
0.0
 11
-97.8349364905434
 21
-136.2500000000001
 31
0.0
  0
LINE
  5
191
330
1F
100
AcDbEntity
  8
0
100
AcDbLine
 10
-97.8349364905434
 20
-136.2500000000001
 30
0.0
 11
-98.23223304703798
 21
-136.7677669529662
 31
0.0
  0
LINE
  5
192
330
1F
100
AcDbEntity
  8
0
100
AcDbLine
 10
150.0000000000043
 20
345.000000000001
 30
0.0
 11
-150.0000000000044
 21
345.000000000001
 31
0.0
  0
LINE
  5
193
330
1F
100
AcDbEntity
  8
0
100
AcDbLine
 10
-42.00000000000403
 20
336.0000000000015
 30
0.0
 11
-41.91481456572669
 21
336.6470476127578
 31
0.0
  0
LINE
  5
194
330
1F
100
AcDbEntity
  8
0
100
AcDbLine
 10
-41.91481456572669
 20
336.6470476127578
 30
0.0
 11
-41.66506350946503
 21
337.2500000000013
 31
0.0
  0
LINE
  5
195
330
1F
100
AcDbEntity
  8
0
100
AcDbLine
 10
-41.66506350946503
 20
337.2500000000013
 30
0.0
 11
-41.26776695297045
 21
337.7677669529681
 31
0.0
  0
LINE
  5
196
330
1F
100
AcDbEntity
  8
0
100
AcDbLine
 10
-41.26776695297045
 20
337.7677669529681
 30
0.0
 11
-40.75000000000395
 21
338.1650635094627
 31
0.0
  0
LINE
  5
197
330
1F
100
AcDbEntity
  8
0
100
AcDbLine
 10
-40.75000000000395
 20
338.1650635094627
 30
0.0
 11
-40.14704761276048
 21
338.4148145657244
 31
0.0
  0
LINE
  5
198
330
1F
100
AcDbEntity
  8
0
100
AcDbLine
 10
-40.14704761276048
 20
338.4148145657244
 30
0.0
 11
-39.50000000000387
 21
338.5000000000017
 31
0.0
  0
LINE
  5
199
330
1F
100
AcDbEntity
  8
0
100
AcDbLine
 10
-140.500000000004
 20
338.5000000000017
 30
0.0
 11
-139.8529523872478
 21
338.4148145657244
 31
0.0
  0
LINE
  5
19A
330
1F
100
AcDbEntity
  8
0
100
AcDbLine
 10
-139.8529523872478
 20
338.4148145657244
 30
0.0
 11
-139.2500000000039
 21
338.1650635094627
 31
0.0
  0
LINE
  5
19B
330
1F
100
AcDbEntity
  8
0
100
AcDbLine
 10
-139.2500000000039
 20
338.1650635094627
 30
0.0
 11
-138.7322330470374
 21
337.7677669529681
 31
0.0
  0
LINE
  5
19C
330
1F
100
AcDbEntity
  8
0
100
AcDbLine
 10
-138.7322330470374
 20
337.7677669529681
 30
0.0
 11
-138.3349364905428
 21
337.2500000000013
 31
0.0
  0
LINE
  5
19D
330
1F
100
AcDbEntity
  8
0
100
AcDbLine
 10
-138.3349364905428
 20
337.2500000000013
 30
0.0
 11
-138.0851854342812
 21
336.6470476127578
 31
0.0
  0
LINE
  5
19E
330
1F
100
AcDbEntity
  8
0
100
AcDbLine
 10
-138.0851854342812
 20
336.6470476127578
 30
0.0
 11
-138.0000000000039
 21
336.0000000000015
 31
0.0
  0
LINE
  5
19F
330
1F
100
AcDbEntity
  8
0
100
AcDbLine
 10
-138.0000000000039
 20
336.0000000000015
 30
0.0
 11
-138.0851854342812
 21
335.3529523872453
 31
0.0
  0
LINE
  5
1A0
330
1F
100
AcDbEntity
  8
0
100
AcDbLine
 10
-138.0851854342812
 20
335.3529523872453
 30
0.0
 11
-138.3349364905428
 21
334.7500000000018
 31
0.0
  0
LINE
  5
1A1
330
1F
100
AcDbEntity
  8
0
100
AcDbLine
 10
-138.3349364905428
 20
334.7500000000018
 30
0.0
 11
-138.7322330470374
 21
334.232233047035
 31
0.0
  0
LINE
  5
1A2
330
1F
100
AcDbEntity
  8
0
100
AcDbLine
 10
-138.7322330470374
 20
334.232233047035
 30
0.0
 11
-139.2500000000039
 21
333.8349364905404
 31
0.0
  0
LINE
  5
1A3
330
1F
100
AcDbEntity
  8
0
100
AcDbLine
 10
-139.2500000000039
 20
333.8349364905404
 30
0.0
 11
-139.8529523872478
 21
333.5851854342787
 31
0.0
  0
LINE
  5
1A4
330
1F
100
AcDbEntity
  8
0
100
AcDbLine
 10
-139.8529523872478
 20
333.5851854342787
 30
0.0
 11
-140.500000000004
 21
333.5000000000014
 31
0.0
  0
LINE
  5
1A5
330
1F
100
AcDbEntity
  8
0
100
AcDbLine
 10
-140.500000000004
 20
333.5000000000014
 30
0.0
 11
-141.1470476127602
 21
333.5851854342787
 31
0.0
  0
LINE
  5
1A6
330
1F
100
AcDbEntity
  8
0
100
AcDbLine
 10
-141.1470476127602
 20
333.5851854342787
 30
0.0
 11
-141.7500000000041
 21
333.8349364905404
 31
0.0
  0
LINE
  5
1A7
330
1F
100
AcDbEntity
  8
0
100
AcDbLine
 10
-141.7500000000041
 20
333.8349364905404
 30
0.0
 11
-142.2677669529706
 21
334.232233047035
 31
0.0
  0
LINE
  5
1A8
330
1F
100
AcDbEntity
  8
0
100
AcDbLine
 10
-142.2677669529706
 20
334.232233047035
 30
0.0
 11
-142.6650635094652
 21
334.7500000000018
 31
0.0
  0
LINE
  5
1A9
330
1F
100
AcDbEntity
  8
0
100
AcDbLine
 10
-142.6650635094652
 20
334.7500000000018
 30
0.0
 11
-142.9148145657268
 21
335.3529523872453
 31
0.0
  0
LINE
  5
1AA
330
1F
100
AcDbEntity
  8
0
100
AcDbLine
 10
-142.9148145657268
 20
335.3529523872453
 30
0.0
 11
-143.0000000000041
 21
336.0000000000015
 31
0.0
  0
LINE
  5
1AB
330
1F
100
AcDbEntity
  8
0
100
AcDbLine
 10
-143.0000000000041
 20
336.0000000000015
 30
0.0
 11
-142.9148145657268
 21
336.6470476127578
 31
0.0
  0
LINE
  5
1AC
330
1F
100
AcDbEntity
  8
0
100
AcDbLine
 10
-142.9148145657268
 20
336.6470476127578
 30
0.0
 11
-142.6650635094652
 21
337.2500000000013
 31
0.0
  0
LINE
  5
1AD
330
1F
100
AcDbEntity
  8
0
100
AcDbLine
 10
-142.6650635094652
 20
337.2500000000013
 30
0.0
 11
-142.2677669529706
 21
337.7677669529681
 31
0.0
  0
LINE
  5
1AE
330
1F
100
AcDbEntity
  8
0
100
AcDbLine
 10
-142.2677669529706
 20
337.7677669529681
 30
0.0
 11
-141.7500000000041
 21
338.1650635094627
 31
0.0
  0
LINE
  5
1AF
330
1F
100
AcDbEntity
  8
0
100
AcDbLine
 10
-141.7500000000041
 20
338.1650635094627
 30
0.0
 11
-141.1470476127602
 21
338.4148145657244
 31
0.0
  0
LINE
  5
1B0
330
1F
100
AcDbEntity
  8
0
100
AcDbLine
 10
-141.1470476127602
 20
338.4148145657244
 30
0.0
 11
-140.500000000004
 21
338.5000000000017
 31
0.0
  0
LINE
  5
1B1
330
1F
100
AcDbEntity
  8
0
100
AcDbLine
 10
-39.50000000000387
 20
338.5000000000017
 30
0.0
 11
-38.85295238724763
 21
338.4148145657244
 31
0.0
  0
LINE
  5
1B2
330
1F
100
AcDbEntity
  8
0
100
AcDbLine
 10
-38.85295238724763
 20
338.4148145657244
 30
0.0
 11
-38.25000000000416
 21
338.1650635094627
 31
0.0
  0
LINE
  5
1B3
330
1F
100
AcDbEntity
  8
0
100
AcDbLine
 10
-38.25000000000416
 20
338.1650635094627
 30
0.0
 11
-37.73223304703766
 21
337.7677669529681
 31
0.0
  0
LINE
  5
1B4
330
1F
100
AcDbEntity
  8
0
100
AcDbLine
 10
-37.73223304703766
 20
337.7677669529681
 30
0.0
 11
-37.33493649054309
 21
337.2500000000013
 31
0.0
  0
LINE
  5
1B5
330
1F
100
AcDbEntity
  8
0
100
AcDbLine
 10
-37.33493649054309
 20
337.2500000000013
 30
0.0
 11
-37.08518543428141
 21
336.6470476127578
 31
0.0
  0
LINE
  5
1B6
330
1F
100
AcDbEntity
  8
0
100
AcDbLine
 10
-37.08518543428141
 20
336.6470476127578
 30
0.0
 11
-37.00000000000409
 21
336.0000000000015
 31
0.0
  0
LINE
  5
1B7
330
1F
100
AcDbEntity
  8
0
100
AcDbLine
 10
-37.00000000000409
 20
336.0000000000015
 30
0.0
 11
-37.08518543428141
 21
335.3529523872453
 31
0.0
  0
LINE
  5
1B8
330
1F
100
AcDbEntity
  8
0
100
AcDbLine
 10
-37.08518543428141
 20
335.3529523872453
 30
0.0
 11
-37.33493649054309
 21
334.7500000000018
 31
0.0
  0
LINE
  5
1B9
330
1F
100
AcDbEntity
  8
0
100
AcDbLine
 10
-37.33493649054309
 20
334.7500000000018
 30
0.0
 11
-37.73223304703766
 21
334.232233047035
 31
0.0
  0
LINE
  5
1BA
330
1F
100
AcDbEntity
  8
0
100
AcDbLine
 10
-37.73223304703766
 20
334.232233047035
 30
0.0
 11
-38.25000000000416
 21
333.8349364905404
 31
0.0
  0
LINE
  5
1BB
330
1F
100
AcDbEntity
  8
0
100
AcDbLine
 10
-38.25000000000416
 20
333.8349364905404
 30
0.0
 11
-38.85295238724763
 21
333.5851854342787
 31
0.0
  0
LINE
  5
1BC
330
1F
100
AcDbEntity
  8
0
100
AcDbLine
 10
-38.85295238724763
 20
333.5851854342787
 30
0.0
 11
-39.50000000000387
 21
333.5000000000014
 31
0.0
  0
LINE
  5
1BD
330
1F
100
AcDbEntity
  8
0
100
AcDbLine
 10
-39.50000000000387
 20
333.5000000000014
 30
0.0
 11
-40.14704761276048
 21
333.5851854342787
 31
0.0
  0
LINE
  5
1BE
330
1F
100
AcDbEntity
  8
0
100
AcDbLine
 10
-40.14704761276048
 20
333.5851854342787
 30
0.0
 11
-40.75000000000395
 21
333.8349364905404
 31
0.0
  0
LINE
  5
1BF
330
1F
100
AcDbEntity
  8
0
100
AcDbLine
 10
-40.75000000000395
 20
333.8349364905404
 30
0.0
 11
-41.26776695297045
 21
334.232233047035
 31
0.0
  0
LINE
  5
1C0
330
1F
100
AcDbEntity
  8
0
100
AcDbLine
 10
-41.26776695297045
 20
334.232233047035
 30
0.0
 11
-41.66506350946503
 21
334.7500000000018
 31
0.0
  0
LINE
  5
1C1
330
1F
100
AcDbEntity
  8
0
100
AcDbLine
 10
-41.66506350946503
 20
334.7500000000018
 30
0.0
 11
-41.91481456572669
 21
335.3529523872453
 31
0.0
  0
LINE
  5
1C2
330
1F
100
AcDbEntity
  8
0
100
AcDbLine
 10
-41.91481456572669
 20
335.3529523872453
 30
0.0
 11
-42.00000000000403
 21
336.0000000000015
 31
0.0
  0
LINE
  5
1C3
330
1F
100
AcDbEntity
  8
0
100
AcDbLine
 10
19.49999999998451
 20
338.500000000001
 30
0.0
 11
20.14704761274076
 21
338.4148145657236
 31
0.0
  0
LINE
  5
1C4
330
1F
100
AcDbEntity
  8
0
100
AcDbLine
 10
20.14704761274076
 20
338.4148145657236
 30
0.0
 11
20.74999999998459
 21
338.1650635094627
 31
0.0
  0
LINE
  5
1C5
330
1F
100
AcDbEntity
  8
0
100
AcDbLine
 10
20.74999999998459
 20
338.1650635094627
 30
0.0
 11
21.26776695295109
 21
337.7677669529674
 31
0.0
  0
LINE
  5
1C6
330
1F
100
AcDbEntity
  8
0
100
AcDbLine
 10
21.26776695295109
 20
337.7677669529674
 30
0.0
 11
21.66506350944566
 21
337.2500000000013
 31
0.0
  0
LINE
  5
1C7
330
1F
100
AcDbEntity
  8
0
100
AcDbLine
 10
21.66506350944566
 20
337.2500000000013
 30
0.0
 11
21.91481456570733
 21
336.6470476127571
 31
0.0
  0
LINE
  5
1C8
330
1F
100
AcDbEntity
  8
0
100
AcDbLine
 10
21.91481456570733
 20
336.6470476127571
 30
0.0
 11
21.99999999998466
 21
336.0000000000015
 31
0.0
  0
LINE
  5
1C9
330
1F
100
AcDbEntity
  8
0
100
AcDbLine
 10
21.99999999998466
 20
336.0000000000015
 30
0.0
 11
21.91481456570733
 21
335.3529523872446
 31
0.0
  0
LINE
  5
1CA
330
1F
100
AcDbEntity
  8
0
100
AcDbLine
 10
21.91481456570733
 20
335.3529523872446
 30
0.0
 11
21.66506350944566
 21
334.7500000000011
 31
0.0
  0
LINE
  5
1CB
330
1F
100
AcDbEntity
  8
0
100
AcDbLine
 10
21.66506350944566
 20
334.7500000000011
 30
0.0
 11
21.26776695295109
 21
334.232233047035
 31
0.0
  0
LINE
  5
1CC
330
1F
100
AcDbEntity
  8
0
100
AcDbLine
 10
21.26776695295109
 20
334.232233047035
 30
0.0
 11
20.74999999998459
 21
333.8349364905404
 31
0.0
  0
LINE
  5
1CD
330
1F
100
AcDbEntity
  8
0
100
AcDbLine
 10
20.74999999998459
 20
333.8349364905404
 30
0.0
 11
20.14704761274076
 21
333.585185434278
 31
0.0
  0
LINE
  5
1CE
330
1F
100
AcDbEntity
  8
0
100
AcDbLine
 10
20.14704761274076
 20
333.585185434278
 30
0.0
 11
19.49999999998451
 21
333.5000000000007
 31
0.0
  0
LINE
  5
1CF
330
1F
100
AcDbEntity
  8
0
100
AcDbLine
 10
19.49999999998451
 20
333.5000000000007
 30
0.0
 11
18.85295238722827
 21
333.585185434278
 31
0.0
  0
LINE
  5
1D0
330
1F
100
AcDbEntity
  8
0
100
AcDbLine
 10
18.85295238722827
 20
333.585185434278
 30
0.0
 11
18.24999999998444
 21
333.8349364905404
 31
0.0
  0
LINE
  5
1D1
330
1F
100
AcDbEntity
  8
0
100
AcDbLine
 10
18.24999999998444
 20
333.8349364905404
 30
0.0
 11
17.73223304701794
 21
334.232233047035
 31
0.0
  0
LINE
  5
1D2
330
1F
100
AcDbEntity
  8
0
100
AcDbLine
 10
122.2677669529509
 20
-337.7677669529645
 30
0.0
 11
121.7499999999844
 21
-338.1650635094598
 31
0.0
  0
LINE
  5
1D3
330
1F
100
AcDbEntity
  8
0
100
AcDbLine
 10
121.1470476127409
 20
-338.4148145657215
 30
0.0
 11
120.4999999999846
 21
-338.4999999999988
 31
0.0
  0
LINE
  5
1D4
330
1F
100
AcDbEntity
  8
0
100
AcDbLine
 10
122.9148145657071
 20
-336.6470476127549
 30
0.0
 11
122.6650635094454
 21
-337.2499999999984
 31
0.0
  0
LINE
  5
1D5
330
1F
100
AcDbEntity
  8
0
100
AcDbLine
 10
121.7499999999844
 20
-338.1650635094598
 30
0.0
 11
121.1470476127409
 21
-338.4148145657215
 31
0.0
  0
LINE
  5
1D6
330
1F
100
AcDbEntity
  8
0
100
AcDbLine
 10
122.9148145657071
 20
-335.3529523872424
 30
0.0
 11
122.9999999999844
 21
-335.9999999999986
 31
0.0
  0
LINE
  5
1D7
330
1F
100
AcDbEntity
  8
0
100
AcDbLine
 10
122.6650635094454
 20
-337.2499999999984
 30
0.0
 11
122.2677669529509
 21
-337.7677669529645
 31
0.0
  0
LINE
  5
1D8
330
1F
100
AcDbEntity
  8
0
100
AcDbLine
 10
122.2677669529509
 20
-334.2322330470321
 30
0.0
 11
122.6650635094454
 21
-334.7499999999982
 31
0.0
  0
LINE
  5
1D9
330
1F
100
AcDbEntity
  8
0
100
AcDbLine
 10
122.9999999999844
 20
-335.9999999999986
 30
0.0
 11
122.9148145657071
 21
-336.6470476127549
 31
0.0
  0
LINE
  5
1DA
330
1F
100
AcDbEntity
  8
0
100
AcDbLine
 10
122.6650635094454
 20
-334.7499999999982
 30
0.0
 11
122.9148145657071
 21
-335.3529523872424
 31
0.0
  0
LINE
  5
1DB
330
1F
100
AcDbEntity
  8
0
100
AcDbLine
 10
121.7499999999844
 20
-333.8349364905375
 30
0.0
 11
122.2677669529509
 21
-334.2322330470321
 31
0.0
  0
LINE
  5
1DC
330
1F
100
AcDbEntity
  8
0
100
AcDbLine
 10
119.852952387228
 20
-338.4148145657215
 30
0.0
 11
119.2499999999846
 21
-338.1650635094598
 31
0.0
  0
LINE
  5
1DD
330
1F
100
AcDbEntity
  8
0
100
AcDbLine
 10
120.4999999999846
 20
-333.4999999999985
 30
0.0
 11
121.1470476127409
 21
-333.5851854342758
 31
0.0
  0
LINE
  5
1DE
330
1F
100
AcDbEntity
  8
0
100
AcDbLine
 10
102.0000000000044
 20
187.4999999999992
 30
0.0
 11
102.6470476127606
 21
187.4148145657219
 31
0.0
  0
LINE
  5
1DF
330
1F
100
AcDbEntity
  8
0
100
AcDbLine
 10
101.3529523872481
 20
187.4148145657219
 30
0.0
 11
102.0000000000044
 21
187.4999999999992
 31
0.0
  0
LINE
  5
1E0
330
1F
100
AcDbEntity
  8
0
100
AcDbLine
 10
100.7500000000047
 20
187.1650635094609
 30
0.0
 11
101.3529523872481
 21
187.4148145657219
 31
0.0
  0
LINE
  5
1E1
330
1F
100
AcDbEntity
  8
0
100
AcDbLine
 10
100.2322330470378
 20
186.7677669529664
 30
0.0
 11
100.7500000000047
 21
187.1650635094609
 31
0.0
  0
LINE
  5
1E2
330
1F
100
AcDbEntity
  8
0
100
AcDbLine
 10
99.83493649054321
 20
186.2499999999995
 30
0.0
 11
100.2322330470378
 21
186.7677669529664
 31
0.0
  0
LINE
  5
1E3
330
1F
100
AcDbEntity
  8
0
100
AcDbLine
 10
99.58518543428156
 20
185.6470476127553
 30
0.0
 11
99.83493649054321
 21
186.2499999999995
 31
0.0
  0
LINE
  5
1E4
330
1F
100
AcDbEntity
  8
0
100
AcDbLine
 10
100.7500000000047
 20
-4.8349364905387
 30
0.0
 11
101.3529523872481
 21
-4.585185434277752
 31
0.0
  0
LINE
  5
1E5
330
1F
100
AcDbEntity
  8
0
100
AcDbLine
 10
100.2322330470378
 20
-5.232233047033997
 30
0.0
 11
100.7500000000047
 21
-4.8349364905387
 31
0.0
  0
LINE
  5
1E6
330
1F
100
AcDbEntity
  8
0
100
AcDbLine
 10
99.83493649054321
 20
-5.750000000000136
 30
0.0
 11
100.2322330470378
 21
-5.232233047033997
 31
0.0
  0
LINE
  5
1E7
330
1F
100
AcDbEntity
  8
0
100
AcDbLine
 10
99.58518543428156
 20
-6.352952387244329
 30
0.0
 11
99.83493649054321
 21
-5.750000000000136
 31
0.0
  0
LINE
  5
1E8
330
1F
100
AcDbEntity
  8
0
100
AcDbLine
 10
99.50000000000422
 20
-6.999999999999852
 30
0.0
 11
99.58518543428156
 21
-6.352952387244329
 31
0.0
  0
LINE
  5
1E9
330
1F
100
AcDbEntity
  8
0
100
AcDbLine
 10
99.58518543428156
 20
-7.647047612756818
 30
0.0
 11
99.50000000000422
 21
-6.999999999999852
 31
0.0
  0
LINE
  5
1EA
330
1F
100
AcDbEntity
  8
0
100
AcDbLine
 10
99.83493649054321
 20
-8.25000000000029
 30
0.0
 11
99.58518543428156
 21
-7.647047612756818
 31
0.0
  0
LINE
  5
1EB
330
1F
100
AcDbEntity
  8
0
100
AcDbLine
 10
100.2322330470378
 20
-8.767766952966427
 30
0.0
 11
99.83493649054321
 21
-8.25000000000029
 31
0.0
  0
LINE
  5
1EC
330
1F
100
AcDbEntity
  8
0
100
AcDbLine
 10
100.7500000000047
 20
-9.165063509461003
 30
0.0
 11
100.2322330470378
 21
-8.767766952966427
 31
0.0
  0
LINE
  5
1ED
330
1F
100
AcDbEntity
  8
0
100
AcDbLine
 10
101.3529523872481
 20
-9.414814565722674
 30
0.0
 11
100.7500000000047
 21
-9.165063509461003
 31
0.0
  0
LINE
  5
1EE
330
1F
100
AcDbEntity
  8
0
100
AcDbLine
 10
102.0000000000044
 20
-9.500000000000005
 30
0.0
 11
101.3529523872481
 21
-9.414814565722674
 31
0.0
  0
LINE
  5
1EF
330
1F
100
AcDbEntity
  8
0
100
AcDbLine
 10
102.6470476127606
 20
-9.414814565722674
 30
0.0
 11
102.0000000000044
 21
-9.500000000000005
 31
0.0
  0
LINE
  5
1F0
330
1F
100
AcDbEntity
  8
0
100
AcDbLine
 10
103.2500000000041
 20
-9.165063509461003
 30
0.0
 11
102.6470476127606
 21
-9.414814565722674
 31
0.0
  0
LINE
  5
1F1
330
1F
100
AcDbEntity
  8
0
100
AcDbLine
 10
103.7677669529709
 20
-8.767766952966427
 30
0.0
 11
103.2500000000041
 21
-9.165063509461003
 31
0.0
  0
LINE
  5
1F2
330
1F
100
AcDbEntity
  8
0
100
AcDbLine
 10
104.1650635094655
 20
-8.25000000000029
 30
0.0
 11
103.7677669529709
 21
-8.767766952966427
 31
0.0
  0
LINE
  5
1F3
330
1F
100
AcDbEntity
  8
0
100
AcDbLine
 10
104.4148145657272
 20
-7.647047612756818
 30
0.0
 11
104.1650635094655
 21
-8.25000000000029
 31
0.0
  0
LINE
  5
1F4
330
1F
100
AcDbEntity
  8
0
100
AcDbLine
 10
104.5000000000045
 20
-6.999999999999852
 30
0.0
 11
104.4148145657272
 21
-7.647047612756818
 31
0.0
  0
LINE
  5
1F5
330
1F
100
AcDbEntity
  8
0
100
AcDbLine
 10
104.4148145657272
 20
-6.352952387244329
 30
0.0
 11
104.5000000000045
 21
-6.999999999999852
 31
0.0
  0
LINE
  5
1F6
330
1F
100
AcDbEntity
  8
0
100
AcDbLine
 10
104.1650635094655
 20
-5.750000000000136
 30
0.0
 11
104.4148145657272
 21
-6.352952387244329
 31
0.0
  0
LINE
  5
1F7
330
1F
100
AcDbEntity
  8
0
100
AcDbLine
 10
103.7677669529709
 20
-5.232233047033997
 30
0.0
 11
104.1650635094655
 21
-5.750000000000136
 31
0.0
  0
LINE
  5
1F8
330
1F
100
AcDbEntity
  8
0
100
AcDbLine
 10
103.2500000000041
 20
-4.8349364905387
 30
0.0
 11
103.7677669529709
 21
-5.232233047033997
 31
0.0
  0
LINE
  5
1F9
330
1F
100
AcDbEntity
  8
0
100
AcDbLine
 10
102.6470476127606
 20
-4.585185434277752
 30
0.0
 11
103.2500000000041
 21
-4.8349364905387
 31
0.0
  0
LINE
  5
1FA
330
1F
100
AcDbEntity
  8
0
100
AcDbLine
 10
102.0000000000044
 20
-4.50000000000042
 30
0.0
 11
102.6470476127606
 21
-4.585185434277752
 31
0.0
  0
LINE
  5
1FB
330
1F
100
AcDbEntity
  8
0
100
AcDbLine
 10
101.3529523872481
 20
-4.585185434277752
 30
0.0
 11
102.0000000000044
 21
-4.50000000000042
 31
0.0
  0
LINE
  5
1FC
330
1F
100
AcDbEntity
  8
0
100
AcDbLine
 10
100.7500000000047
 20
27.16506350946124
 30
0.0
 11
101.3529523872481
 21
27.41481456572219
 31
0.0
  0
LINE
  5
1FD
330
1F
100
AcDbEntity
  8
0
100
AcDbLine
 10
100.2322330470378
 20
26.76776695296594
 30
0.0
 11
100.7500000000047
 21
27.16506350946124
 31
0.0
  0
LINE
  5
1FE
330
1F
100
AcDbEntity
  8
0
100
AcDbLine
 10
99.83493649054321
 20
26.2499999999998
 30
0.0
 11
100.2322330470378
 21
26.76776695296594
 31
0.0
  0
LINE
  5
1FF
330
1F
100
AcDbEntity
  8
0
100
AcDbLine
 10
99.58518543428156
 20
25.64704761275561
 30
0.0
 11
99.83493649054321
 21
26.2499999999998
 31
0.0
  0
LINE
  5
200
330
1F
100
AcDbEntity
  8
0
100
AcDbLine
 10
99.50000000000422
 20
25.00000000000009
 30
0.0
 11
99.58518543428156
 21
25.64704761275561
 31
0.0
  0
LINE
  5
201
330
1F
100
AcDbEntity
  8
0
100
AcDbLine
 10
99.58518543428156
 20
24.35295238724312
 30
0.0
 11
99.50000000000422
 21
25.00000000000009
 31
0.0
  0
LINE
  5
202
330
1F
100
AcDbEntity
  8
0
100
AcDbLine
 10
99.83493649054321
 20
23.74999999999965
 30
0.0
 11
99.58518543428156
 21
24.35295238724312
 31
0.0
  0
LINE
  5
203
330
1F
100
AcDbEntity
  8
0
100
AcDbLine
 10
100.2322330470378
 20
23.23223304703351
 30
0.0
 11
99.83493649054321
 21
23.74999999999965
 31
0.0
  0
LINE
  5
204
330
1F
100
AcDbEntity
  8
0
100
AcDbLine
 10
100.7500000000047
 20
22.83493649053894
 30
0.0
 11
100.2322330470378
 21
23.23223304703351
 31
0.0
  0
LINE
  5
205
330
1F
100
AcDbEntity
  8
0
100
AcDbLine
 10
101.3529523872481
 20
22.58518543427727
 30
0.0
 11
100.7500000000047
 21
22.83493649053894
 31
0.0
  0
LINE
  5
206
330
1F
100
AcDbEntity
  8
0
100
AcDbLine
 10
102.0000000000044
 20
22.49999999999994
 30
0.0
 11
101.3529523872481
 21
22.58518543427727
 31
0.0
  0
LINE
  5
207
330
1F
100
AcDbEntity
  8
0
100
AcDbLine
 10
102.6470476127606
 20
22.58518543427727
 30
0.0
 11
102.0000000000044
 21
22.49999999999994
 31
0.0
  0
LINE
  5
208
330
1F
100
AcDbEntity
  8
0
100
AcDbLine
 10
103.2500000000041
 20
22.83493649053894
 30
0.0
 11
102.6470476127606
 21
22.58518543427727
 31
0.0
  0
LINE
  5
209
330
1F
100
AcDbEntity
  8
0
100
AcDbLine
 10
103.7677669529709
 20
23.23223304703351
 30
0.0
 11
103.2500000000041
 21
22.83493649053894
 31
0.0
  0
LINE
  5
20A
330
1F
100
AcDbEntity
  8
0
100
AcDbLine
 10
104.1650635094655
 20
23.74999999999965
 30
0.0
 11
103.7677669529709
 21
23.23223304703351
 31
0.0
  0
LINE
  5
20B
330
1F
100
AcDbEntity
  8
0
100
AcDbLine
 10
104.4148145657272
 20
24.35295238724312
 30
0.0
 11
104.1650635094655
 21
23.74999999999965
 31
0.0
  0
LINE
  5
20C
330
1F
100
AcDbEntity
  8
0
100
AcDbLine
 10
104.5000000000045
 20
25.00000000000009
 30
0.0
 11
104.4148145657272
 21
24.35295238724312
 31
0.0
  0
LINE
  5
20D
330
1F
100
AcDbEntity
  8
0
100
AcDbLine
 10
104.4148145657272
 20
25.64704761275561
 30
0.0
 11
104.5000000000045
 21
25.00000000000009
 31
0.0
  0
LINE
  5
20E
330
1F
100
AcDbEntity
  8
0
100
AcDbLine
 10
104.1650635094655
 20
26.2499999999998
 30
0.0
 11
104.4148145657272
 21
25.64704761275561
 31
0.0
  0
LINE
  5
20F
330
1F
100
AcDbEntity
  8
0
100
AcDbLine
 10
103.7677669529709
 20
26.76776695296594
 30
0.0
 11
104.1650635094655
 21
26.2499999999998
 31
0.0
  0
LINE
  5
210
330
1F
100
AcDbEntity
  8
0
100
AcDbLine
 10
103.2500000000041
 20
27.16506350946124
 30
0.0
 11
103.7677669529709
 21
26.76776695296594
 31
0.0
  0
LINE
  5
211
330
1F
100
AcDbEntity
  8
0
100
AcDbLine
 10
102.6470476127606
 20
27.41481456572219
 30
0.0
 11
103.2500000000041
 21
27.16506350946124
 31
0.0
  0
LINE
  5
212
330
1F
100
AcDbEntity
  8
0
100
AcDbLine
 10
102.0000000000044
 20
27.49999999999952
 30
0.0
 11
102.6470476127606
 21
27.41481456572219
 31
0.0
  0
LINE
  5
213
330
1F
100
AcDbEntity
  8
0
100
AcDbLine
 10
101.3529523872481
 20
27.41481456572219
 30
0.0
 11
102.0000000000044
 21
27.49999999999952
 31
0.0
  0
LINE
  5
214
330
1F
100
AcDbEntity
  8
0
100
AcDbLine
 10
100.7500000000047
 20
59.16506350946118
 30
0.0
 11
101.3529523872481
 21
59.41481456572213
 31
0.0
  0
LINE
  5
215
330
1F
100
AcDbEntity
  8
0
100
AcDbLine
 10
100.2322330470378
 20
58.76776695296589
 30
0.0
 11
100.7500000000047
 21
59.16506350946118
 31
0.0
  0
LINE
  5
216
330
1F
100
AcDbEntity
  8
0
100
AcDbLine
 10
99.83493649054321
 20
58.24999999999974
 30
0.0
 11
100.2322330470378
 21
58.76776695296589
 31
0.0
  0
LINE
  5
217
330
1F
100
AcDbEntity
  8
0
100
AcDbLine
 10
99.58518543428156
 20
57.64704761275556
 30
0.0
 11
99.83493649054321
 21
58.24999999999974
 31
0.0
  0
LINE
  5
218
330
1F
100
AcDbEntity
  8
0
100
AcDbLine
 10
99.50000000000422
 20
57.00000000000003
 30
0.0
 11
99.58518543428156
 21
57.64704761275556
 31
0.0
  0
LINE
  5
219
330
1F
100
AcDbEntity
  8
0
100
AcDbLine
 10
99.58518543428156
 20
56.35295238724306
 30
0.0
 11
99.50000000000422
 21
57.00000000000003
 31
0.0
  0
LINE
  5
21A
330
1F
100
AcDbEntity
  8
0
100
AcDbLine
 10
99.83493649054321
 20
55.74999999999959
 30
0.0
 11
99.58518543428156
 21
56.35295238724306
 31
0.0
  0
LINE
  5
21B
330
1F
100
AcDbEntity
  8
0
100
AcDbLine
 10
100.2322330470378
 20
55.23223304703345
 30
0.0
 11
99.83493649054321
 21
55.74999999999959
 31
0.0
  0
LINE
  5
21C
330
1F
100
AcDbEntity
  8
0
100
AcDbLine
 10
100.7500000000047
 20
54.83493649053888
 30
0.0
 11
100.2322330470378
 21
55.23223304703345
 31
0.0
  0
LINE
  5
21D
330
1F
100
AcDbEntity
  8
0
100
AcDbLine
 10
101.3529523872481
 20
54.58518543427721
 30
0.0
 11
100.7500000000047
 21
54.83493649053888
 31
0.0
  0
LINE
  5
21E
330
1F
100
AcDbEntity
  8
0
100
AcDbLine
 10
102.0000000000044
 20
54.49999999999988
 30
0.0
 11
101.3529523872481
 21
54.58518543427721
 31
0.0
  0
LINE
  5
21F
330
1F
100
AcDbEntity
  8
0
100
AcDbLine
 10
102.6470476127606
 20
54.58518543427721
 30
0.0
 11
102.0000000000044
 21
54.49999999999988
 31
0.0
  0
LINE
  5
220
330
1F
100
AcDbEntity
  8
0
100
AcDbLine
 10
103.2500000000041
 20
54.83493649053888
 30
0.0
 11
102.6470476127606
 21
54.58518543427721
 31
0.0
  0
LINE
  5
221
330
1F
100
AcDbEntity
  8
0
100
AcDbLine
 10
103.7677669529709
 20
55.23223304703345
 30
0.0
 11
103.2500000000041
 21
54.83493649053888
 31
0.0
  0
LINE
  5
222
330
1F
100
AcDbEntity
  8
0
100
AcDbLine
 10
104.1650635094655
 20
55.74999999999959
 30
0.0
 11
103.7677669529709
 21
55.23223304703345
 31
0.0
  0
LINE
  5
223
330
1F
100
AcDbEntity
  8
0
100
AcDbLine
 10
104.4148145657272
 20
56.35295238724306
 30
0.0
 11
104.1650635094655
 21
55.74999999999959
 31
0.0
  0
LINE
  5
224
330
1F
100
AcDbEntity
  8
0
100
AcDbLine
 10
104.5000000000045
 20
57.00000000000003
 30
0.0
 11
104.4148145657272
 21
56.35295238724306
 31
0.0
  0
LINE
  5
225
330
1F
100
AcDbEntity
  8
0
100
AcDbLine
 10
104.4148145657272
 20
57.64704761275556
 30
0.0
 11
104.5000000000045
 21
57.00000000000003
 31
0.0
  0
LINE
  5
226
330
1F
100
AcDbEntity
  8
0
100
AcDbLine
 10
104.1650635094655
 20
58.24999999999974
 30
0.0
 11
104.4148145657272
 21
57.64704761275556
 31
0.0
  0
LINE
  5
227
330
1F
100
AcDbEntity
  8
0
100
AcDbLine
 10
103.7677669529709
 20
58.76776695296589
 30
0.0
 11
104.1650635094655
 21
58.24999999999974
 31
0.0
  0
LINE
  5
228
330
1F
100
AcDbEntity
  8
0
100
AcDbLine
 10
103.2500000000041
 20
59.16506350946118
 30
0.0
 11
103.7677669529709
 21
58.76776695296589
 31
0.0
  0
LINE
  5
229
330
1F
100
AcDbEntity
  8
0
100
AcDbLine
 10
102.6470476127606
 20
59.41481456572213
 30
0.0
 11
103.2500000000041
 21
59.16506350946118
 31
0.0
  0
LINE
  5
22A
330
1F
100
AcDbEntity
  8
0
100
AcDbLine
 10
102.0000000000044
 20
59.49999999999946
 30
0.0
 11
102.6470476127606
 21
59.41481456572213
 31
0.0
  0
LINE
  5
22B
330
1F
100
AcDbEntity
  8
0
100
AcDbLine
 10
101.3529523872481
 20
59.41481456572213
 30
0.0
 11
102.0000000000044
 21
59.49999999999946
 31
0.0
  0
LINE
  5
22C
330
1F
100
AcDbEntity
  8
0
100
AcDbLine
 10
99.83493649054321
 20
90.24999999999969
 30
0.0
 11
100.2322330470378
 21
90.7677669529651
 31
0.0
  0
LINE
  5
22D
330
1F
100
AcDbEntity
  8
0
100
AcDbLine
 10
99.58518543428156
 20
89.6470476127555
 30
0.0
 11
99.83493649054321
 21
90.24999999999969
 31
0.0
  0
LINE
  5
22E
330
1F
100
AcDbEntity
  8
0
100
AcDbLine
 10
99.50000000000422
 20
88.99999999999997
 30
0.0
 11
99.58518543428156
 21
89.6470476127555
 31
0.0
  0
LINE
  5
22F
330
1F
100
AcDbEntity
  8
0
100
AcDbLine
 10
99.58518543428156
 20
88.35295238724301
 30
0.0
 11
99.50000000000422
 21
88.99999999999997
 31
0.0
  0
LINE
  5
230
330
1F
100
AcDbEntity
  8
0
100
AcDbLine
 10
99.83493649054321
 20
87.7499999999988
 30
0.0
 11
99.58518543428156
 21
88.35295238724301
 31
0.0
  0
LINE
  5
231
330
1F
100
AcDbEntity
  8
0
100
AcDbLine
 10
100.2322330470378
 20
87.23223304703339
 30
0.0
 11
99.83493649054321
 21
87.7499999999988
 31
0.0
  0
LINE
  5
232
330
1F
100
AcDbEntity
  8
0
100
AcDbLine
 10
100.7500000000047
 20
86.83493649053882
 30
0.0
 11
100.2322330470378
 21
87.23223304703339
 31
0.0
  0
LINE
  5
233
330
1F
100
AcDbEntity
  8
0
100
AcDbLine
 10
101.3529523872481
 20
86.58518543427643
 30
0.0
 11
100.7500000000047
 21
86.83493649053882
 31
0.0
  0
LINE
  5
234
330
1F
100
AcDbEntity
  8
0
100
AcDbLine
 10
102.0000000000044
 20
86.49999999999909
 30
0.0
 11
101.3529523872481
 21
86.58518543427643
 31
0.0
  0
LINE
  5
235
330
1F
100
AcDbEntity
  8
0
100
AcDbLine
 10
102.6470476127606
 20
86.58518543427643
 30
0.0
 11
102.0000000000044
 21
86.49999999999909
 31
0.0
  0
LINE
  5
236
330
1F
100
AcDbEntity
  8
0
100
AcDbLine
 10
103.2500000000041
 20
86.83493649053882
 30
0.0
 11
102.6470476127606
 21
86.58518543427643
 31
0.0
  0
LINE
  5
237
330
1F
100
AcDbEntity
  8
0
100
AcDbLine
 10
103.7677669529709
 20
87.23223304703339
 30
0.0
 11
103.2500000000041
 21
86.83493649053882
 31
0.0
  0
LINE
  5
238
330
1F
100
AcDbEntity
  8
0
100
AcDbLine
 10
104.1650635094655
 20
87.7499999999988
 30
0.0
 11
103.7677669529709
 21
87.23223304703339
 31
0.0
  0
LINE
  5
239
330
1F
100
AcDbEntity
  8
0
100
AcDbLine
 10
104.4148145657272
 20
88.35295238724301
 30
0.0
 11
104.1650635094655
 21
87.7499999999988
 31
0.0
  0
LINE
  5
23A
330
1F
100
AcDbEntity
  8
0
100
AcDbLine
 10
104.5000000000045
 20
88.99999999999997
 30
0.0
 11
104.4148145657272
 21
88.35295238724301
 31
0.0
  0
LINE
  5
23B
330
1F
100
AcDbEntity
  8
0
100
AcDbLine
 10
104.1650635094655
 20
-40.25000000000023
 30
0.0
 11
103.7677669529709
 21
-40.76776695296637
 31
0.0
  0
LINE
  5
23C
330
1F
100
AcDbEntity
  8
0
100
AcDbLine
 10
104.4148145657272
 20
-39.64704761275676
 30
0.0
 11
104.1650635094655
 21
-40.25000000000023
 31
0.0
  0
LINE
  5
23D
330
1F
100
AcDbEntity
  8
0
100
AcDbLine
 10
104.1650635094655
 20
-37.75000000000008
 30
0.0
 11
104.4148145657272
 21
-38.35295238724427
 31
0.0
  0
LINE
  5
23E
330
1F
100
AcDbEntity
  8
0
100
AcDbLine
 10
103.7677669529709
 20
-37.23223304703394
 30
0.0
 11
104.1650635094655
 21
-37.75000000000008
 31
0.0
  0
LINE
  5
23F
330
1F
100
AcDbEntity
  8
0
100
AcDbLine
 10
103.2500000000041
 20
-36.83493649053865
 30
0.0
 11
103.7677669529709
 21
-37.23223304703394
 31
0.0
  0
LINE
  5
240
330
1F
100
AcDbEntity
  8
0
100
AcDbLine
 10
104.4148145657272
 20
-38.35295238724427
 30
0.0
 11
104.5000000000045
 21
-38.99999999999979
 31
0.0
  0
LINE
  5
241
330
1F
100
AcDbEntity
  8
0
100
AcDbLine
 10
104.5000000000045
 20
-38.99999999999979
 30
0.0
 11
104.4148145657272
 21
-39.64704761275676
 31
0.0
  0
LINE
  5
242
330
1F
100
AcDbEntity
  8
0
100
AcDbLine
 10
100.7500000000047
 20
219.1650635094609
 30
0.0
 11
101.3529523872481
 21
219.4148145657218
 31
0.0
  0
LINE
  5
243
330
1F
100
AcDbEntity
  8
0
100
AcDbLine
 10
100.2322330470378
 20
218.7677669529663
 30
0.0
 11
100.7500000000047
 21
219.1650635094609
 31
0.0
  0
LINE
  5
244
330
1F
100
AcDbEntity
  8
0
100
AcDbLine
 10
99.83493649054321
 20
218.2499999999995
 30
0.0
 11
100.2322330470378
 21
218.7677669529663
 31
0.0
  0
LINE
  5
245
330
1F
100
AcDbEntity
  8
0
100
AcDbLine
 10
99.58518543428156
 20
217.6470476127553
 30
0.0
 11
99.83493649054321
 21
218.2499999999995
 31
0.0
  0
LINE
  5
246
330
1F
100
AcDbEntity
  8
0
100
AcDbLine
 10
99.50000000000422
 20
216.9999999999997
 30
0.0
 11
99.58518543428156
 21
217.6470476127553
 31
0.0
  0
LINE
  5
247
330
1F
100
AcDbEntity
  8
0
100
AcDbLine
 10
99.58518543428156
 20
216.3529523872428
 30
0.0
 11
99.50000000000422
 21
216.9999999999997
 31
0.0
  0
LINE
  5
248
330
1F
100
AcDbEntity
  8
0
100
AcDbLine
 10
99.83493649054321
 20
215.7499999999986
 30
0.0
 11
99.58518543428156
 21
216.3529523872428
 31
0.0
  0
LINE
  5
249
330
1F
100
AcDbEntity
  8
0
100
AcDbLine
 10
100.2322330470378
 20
215.2322330470332
 30
0.0
 11
99.83493649054321
 21
215.7499999999986
 31
0.0
  0
LINE
  5
24A
330
1F
100
AcDbEntity
  8
0
100
AcDbLine
 10
100.7500000000047
 20
214.8349364905386
 30
0.0
 11
100.2322330470378
 21
215.2322330470332
 31
0.0
  0
LINE
  5
24B
330
1F
100
AcDbEntity
  8
0
100
AcDbLine
 10
101.3529523872481
 20
214.5851854342762
 30
0.0
 11
100.7500000000047
 21
214.8349364905386
 31
0.0
  0
LINE
  5
24C
330
1F
100
AcDbEntity
  8
0
100
AcDbLine
 10
102.0000000000044
 20
214.4999999999989
 30
0.0
 11
101.3529523872481
 21
214.5851854342762
 31
0.0
  0
LINE
  5
24D
330
1F
100
AcDbEntity
  8
0
100
AcDbLine
 10
102.6470476127606
 20
214.5851854342762
 30
0.0
 11
102.0000000000044
 21
214.4999999999989
 31
0.0
  0
LINE
  5
24E
330
1F
100
AcDbEntity
  8
0
100
AcDbLine
 10
103.2500000000041
 20
214.8349364905386
 30
0.0
 11
102.6470476127606
 21
214.5851854342762
 31
0.0
  0
LINE
  5
24F
330
1F
100
AcDbEntity
  8
0
100
AcDbLine
 10
103.7677669529709
 20
215.2322330470332
 30
0.0
 11
103.2500000000041
 21
214.8349364905386
 31
0.0
  0
LINE
  5
250
330
1F
100
AcDbEntity
  8
0
100
AcDbLine
 10
104.1650635094655
 20
215.7499999999986
 30
0.0
 11
103.7677669529709
 21
215.2322330470332
 31
0.0
  0
LINE
  5
251
330
1F
100
AcDbEntity
  8
0
100
AcDbLine
 10
104.4148145657272
 20
216.3529523872428
 30
0.0
 11
104.1650635094655
 21
215.7499999999986
 31
0.0
  0
LINE
  5
252
330
1F
100
AcDbEntity
  8
0
100
AcDbLine
 10
104.5000000000045
 20
216.9999999999997
 30
0.0
 11
104.4148145657272
 21
216.3529523872428
 31
0.0
  0
LINE
  5
253
330
1F
100
AcDbEntity
  8
0
100
AcDbLine
 10
104.4148145657272
 20
217.6470476127553
 30
0.0
 11
104.5000000000045
 21
216.9999999999997
 31
0.0
  0
LINE
  5
254
330
1F
100
AcDbEntity
  8
0
100
AcDbLine
 10
104.1650635094655
 20
218.2499999999995
 30
0.0
 11
104.4148145657272
 21
217.6470476127553
 31
0.0
  0
LINE
  5
255
330
1F
100
AcDbEntity
  8
0
100
AcDbLine
 10
103.7677669529709
 20
218.7677669529663
 30
0.0
 11
104.1650635094655
 21
218.2499999999995
 31
0.0
  0
LINE
  5
256
330
1F
100
AcDbEntity
  8
0
100
AcDbLine
 10
103.2500000000041
 20
219.1650635094609
 30
0.0
 11
103.7677669529709
 21
218.7677669529663
 31
0.0
  0
LINE
  5
257
330
1F
100
AcDbEntity
  8
0
100
AcDbLine
 10
102.6470476127606
 20
219.4148145657218
 30
0.0
 11
103.2500000000041
 21
219.1650635094609
 31
0.0
  0
LINE
  5
258
330
1F
100
AcDbEntity
  8
0
100
AcDbLine
 10
102.0000000000044
 20
219.4999999999992
 30
0.0
 11
102.6470476127606
 21
219.4148145657218
 31
0.0
  0
LINE
  5
259
330
1F
100
AcDbEntity
  8
0
100
AcDbLine
 10
101.3529523872481
 20
219.4148145657218
 30
0.0
 11
102.0000000000044
 21
219.4999999999992
 31
0.0
  0
LINE
  5
25A
330
1F
100
AcDbEntity
  8
0
100
AcDbLine
 10
121.7499999999844
 20
338.1650635094627
 30
0.0
 11
122.2677669529509
 21
337.7677669529674
 31
0.0
  0
LINE
  5
25B
330
1F
100
AcDbEntity
  8
0
100
AcDbLine
 10
122.2677669529509
 20
337.7677669529674
 30
0.0
 11
122.6650635094454
 21
337.2500000000013
 31
0.0
  0
LINE
  5
25C
330
1F
100
AcDbEntity
  8
0
100
AcDbLine
 10
122.6650635094454
 20
337.2500000000013
 30
0.0
 11
122.9148145657071
 21
336.6470476127571
 31
0.0
  0
LINE
  5
25D
330
1F
100
AcDbEntity
  8
0
100
AcDbLine
 10
122.9148145657071
 20
336.6470476127571
 30
0.0
 11
122.9999999999844
 21
336.0000000000015
 31
0.0
  0
LINE
  5
25E
330
1F
100
AcDbEntity
  8
0
100
AcDbLine
 10
122.9999999999844
 20
336.0000000000015
 30
0.0
 11
122.9148145657071
 21
335.3529523872446
 31
0.0
  0
LINE
  5
25F
330
1F
100
AcDbEntity
  8
0
100
AcDbLine
 10
122.9148145657071
 20
335.3529523872446
 30
0.0
 11
122.6650635094454
 21
334.7500000000011
 31
0.0
  0
LINE
  5
260
330
1F
100
AcDbEntity
  8
0
100
AcDbLine
 10
122.6650635094454
 20
334.7500000000011
 30
0.0
 11
122.2677669529509
 21
334.232233047035
 31
0.0
  0
LINE
  5
261
330
1F
100
AcDbEntity
  8
0
100
AcDbLine
 10
122.2677669529509
 20
334.232233047035
 30
0.0
 11
121.7499999999844
 21
333.8349364905404
 31
0.0
  0
LINE
  5
262
330
1F
100
AcDbEntity
  8
0
100
AcDbLine
 10
121.7499999999844
 20
333.8349364905404
 30
0.0
 11
121.1470476127409
 21
333.585185434278
 31
0.0
  0
LINE
  5
263
330
1F
100
AcDbEntity
  8
0
100
AcDbLine
 10
121.1470476127409
 20
333.585185434278
 30
0.0
 11
120.4999999999846
 21
333.5000000000007
 31
0.0
  0
LINE
  5
264
330
1F
100
AcDbEntity
  8
0
100
AcDbLine
 10
120.4999999999846
 20
333.5000000000007
 30
0.0
 11
119.852952387228
 21
333.585185434278
 31
0.0
  0
LINE
  5
265
330
1F
100
AcDbEntity
  8
0
100
AcDbLine
 10
119.852952387228
 20
333.585185434278
 30
0.0
 11
119.2499999999846
 21
333.8349364905404
 31
0.0
  0
LINE
  5
266
330
1F
100
AcDbEntity
  8
0
100
AcDbLine
 10
119.2499999999846
 20
333.8349364905404
 30
0.0
 11
118.7322330470181
 21
334.232233047035
 31
0.0
  0
LINE
  5
267
330
1F
100
AcDbEntity
  8
0
100
AcDbLine
 10
118.7322330470181
 20
334.232233047035
 30
0.0
 11
118.3349364905235
 21
334.7500000000011
 31
0.0
  0
LINE
  5
268
330
1F
100
AcDbEntity
  8
0
100
AcDbLine
 10
118.3349364905235
 20
334.7500000000011
 30
0.0
 11
118.0851854342618
 21
335.3529523872446
 31
0.0
  0
LINE
  5
269
330
1F
100
AcDbEntity
  8
0
100
AcDbLine
 10
118.0851854342618
 20
335.3529523872446
 30
0.0
 11
117.9999999999845
 21
336.0000000000015
 31
0.0
  0
LINE
  5
26A
330
1F
100
AcDbEntity
  8
0
100
AcDbLine
 10
117.9999999999845
 20
336.0000000000015
 30
0.0
 11
118.0851854342618
 21
336.6470476127571
 31
0.0
  0
LINE
  5
26B
330
1F
100
AcDbEntity
  8
0
100
AcDbLine
 10
118.0851854342618
 20
336.6470476127571
 30
0.0
 11
118.3349364905235
 21
337.2500000000013
 31
0.0
  0
LINE
  5
26C
330
1F
100
AcDbEntity
  8
0
100
AcDbLine
 10
118.3349364905235
 20
337.2500000000013
 30
0.0
 11
118.7322330470181
 21
337.7677669529674
 31
0.0
  0
LINE
  5
26D
330
1F
100
AcDbEntity
  8
0
100
AcDbLine
 10
118.7322330470181
 20
337.7677669529674
 30
0.0
 11
119.2499999999846
 21
338.1650635094627
 31
0.0
  0
LINE
  5
26E
330
1F
100
AcDbEntity
  8
0
100
AcDbLine
 10
119.2499999999846
 20
338.1650635094627
 30
0.0
 11
119.852952387228
 21
338.4148145657236
 31
0.0
  0
LINE
  5
26F
330
1F
100
AcDbEntity
  8
0
100
AcDbLine
 10
119.852952387228
 20
338.4148145657236
 30
0.0
 11
120.4999999999846
 21
338.500000000001
 31
0.0
  0
LINE
  5
270
330
1F
100
AcDbEntity
  8
0
100
AcDbLine
 10
120.4999999999846
 20
338.500000000001
 30
0.0
 11
121.1470476127409
 21
338.4148145657236
 31
0.0
  0
LINE
  5
271
330
1F
100
AcDbEntity
  8
0
100
AcDbLine
 10
121.1470476127409
 20
338.4148145657236
 30
0.0
 11
121.7499999999844
 21
338.1650635094627
 31
0.0
  0
LINE
  5
272
330
1F
100
AcDbEntity
  8
0
100
AcDbLine
 10
-97.5000000000044
 20
25.00000000000009
 30
0.0
 11
-97.58518543428173
 21
24.35295238724312
 31
0.0
  0
LINE
  5
273
330
1F
100
AcDbEntity
  8
0
100
AcDbLine
 10
-97.58518543428173
 20
24.35295238724312
 30
0.0
 11
-97.8349364905434
 21
23.74999999999965
 31
0.0
  0
LINE
  5
274
330
1F
100
AcDbEntity
  8
0
100
AcDbLine
 10
-97.8349364905434
 20
23.74999999999965
 30
0.0
 11
-98.23223304703798
 21
23.23223304703351
 31
0.0
  0
LINE
  5
275
330
1F
100
AcDbEntity
  8
0
100
AcDbLine
 10
-98.23223304703798
 20
23.23223304703351
 30
0.0
 11
-98.75000000000483
 21
22.83493649053894
 31
0.0
  0
LINE
  5
276
330
1F
100
AcDbEntity
  8
0
100
AcDbLine
 10
-98.75000000000483
 20
22.83493649053894
 30
0.0
 11
-99.35295238724831
 21
22.58518543427727
 31
0.0
  0
LINE
  5
277
330
1F
100
AcDbEntity
  8
0
100
AcDbLine
 10
-99.35295238724831
 20
22.58518543427727
 30
0.0
 11
-100.0000000000045
 21
22.49999999999994
 31
0.0
  0
LINE
  5
278
330
1F
100
AcDbEntity
  8
0
100
AcDbLine
 10
-100.0000000000045
 20
22.49999999999994
 30
0.0
 11
-100.6470476127608
 21
22.58518543427727
 31
0.0
  0
LINE
  5
279
330
1F
100
AcDbEntity
  8
0
100
AcDbLine
 10
-100.6470476127608
 20
22.58518543427727
 30
0.0
 11
-101.2500000000043
 21
22.83493649053894
 31
0.0
  0
LINE
  5
27A
330
1F
100
AcDbEntity
  8
0
100
AcDbLine
 10
-101.2500000000043
 20
22.83493649053894
 30
0.0
 11
-101.7677669529711
 21
23.23223304703351
 31
0.0
  0
LINE
  5
27B
330
1F
100
AcDbEntity
  8
0
100
AcDbLine
 10
-101.7677669529711
 20
23.23223304703351
 30
0.0
 11
-102.1650635094657
 21
23.74999999999965
 31
0.0
  0
LINE
  5
27C
330
1F
100
AcDbEntity
  8
0
100
AcDbLine
 10
-102.1650635094657
 20
23.74999999999965
 30
0.0
 11
-102.4148145657274
 21
24.35295238724312
 31
0.0
  0
LINE
  5
27D
330
1F
100
AcDbEntity
  8
0
100
AcDbLine
 10
-102.4148145657274
 20
24.35295238724312
 30
0.0
 11
-102.5000000000047
 21
25.00000000000009
 31
0.0
  0
LINE
  5
27E
330
1F
100
AcDbEntity
  8
0
100
AcDbLine
 10
-102.5000000000047
 20
25.00000000000009
 30
0.0
 11
-102.4148145657274
 21
25.64704761275561
 31
0.0
  0
LINE
  5
27F
330
1F
100
AcDbEntity
  8
0
100
AcDbLine
 10
-102.4148145657274
 20
25.64704761275561
 30
0.0
 11
-102.1650635094657
 21
26.2499999999998
 31
0.0
  0
LINE
  5
280
330
1F
100
AcDbEntity
  8
0
100
AcDbLine
 10
-102.1650635094657
 20
26.2499999999998
 30
0.0
 11
-101.7677669529711
 21
26.76776695296594
 31
0.0
  0
LINE
  5
281
330
1F
100
AcDbEntity
  8
0
100
AcDbLine
 10
-101.7677669529711
 20
26.76776695296594
 30
0.0
 11
-101.2500000000043
 21
27.16506350946124
 31
0.0
  0
LINE
  5
282
330
1F
100
AcDbEntity
  8
0
100
AcDbLine
 10
-101.2500000000043
 20
59.16506350946118
 30
0.0
 11
-100.6470476127608
 21
59.41481456572213
 31
0.0
  0
LINE
  5
283
330
1F
100
AcDbEntity
  8
0
100
AcDbLine
 10
-100.6470476127608
 20
59.41481456572213
 30
0.0
 11
-100.0000000000045
 21
59.49999999999946
 31
0.0
  0
LINE
  5
284
330
1F
100
AcDbEntity
  8
0
100
AcDbLine
 10
-100.0000000000045
 20
59.49999999999946
 30
0.0
 11
-99.35295238724831
 21
59.41481456572213
 31
0.0
  0
LINE
  5
285
330
1F
100
AcDbEntity
  8
0
100
AcDbLine
 10
-99.35295238724831
 20
59.41481456572213
 30
0.0
 11
-98.75000000000483
 21
59.16506350946118
 31
0.0
  0
LINE
  5
286
330
1F
100
AcDbEntity
  8
0
100
AcDbLine
 10
-98.75000000000483
 20
59.16506350946118
 30
0.0
 11
-98.23223304703798
 21
58.76776695296589
 31
0.0
  0
LINE
  5
287
330
1F
100
AcDbEntity
  8
0
100
AcDbLine
 10
-98.23223304703798
 20
58.76776695296589
 30
0.0
 11
-97.8349364905434
 21
58.24999999999974
 31
0.0
  0
LINE
  5
288
330
1F
100
AcDbEntity
  8
0
100
AcDbLine
 10
-97.8349364905434
 20
58.24999999999974
 30
0.0
 11
-97.58518543428173
 21
57.64704761275556
 31
0.0
  0
LINE
  5
289
330
1F
100
AcDbEntity
  8
0
100
AcDbLine
 10
-97.58518543428173
 20
57.64704761275556
 30
0.0
 11
-97.5000000000044
 21
57.00000000000003
 31
0.0
  0
LINE
  5
28A
330
1F
100
AcDbEntity
  8
0
100
AcDbLine
 10
-97.5000000000044
 20
57.00000000000003
 30
0.0
 11
-97.58518543428173
 21
56.35295238724306
 31
0.0
  0
LINE
  5
28B
330
1F
100
AcDbEntity
  8
0
100
AcDbLine
 10
-97.58518543428173
 20
56.35295238724306
 30
0.0
 11
-97.8349364905434
 21
55.74999999999959
 31
0.0
  0
LINE
  5
28C
330
1F
100
AcDbEntity
  8
0
100
AcDbLine
 10
-97.8349364905434
 20
55.74999999999959
 30
0.0
 11
-98.23223304703798
 21
55.23223304703345
 31
0.0
  0
LINE
  5
28D
330
1F
100
AcDbEntity
  8
0
100
AcDbLine
 10
-98.23223304703798
 20
55.23223304703345
 30
0.0
 11
-98.75000000000483
 21
54.83493649053888
 31
0.0
  0
LINE
  5
28E
330
1F
100
AcDbEntity
  8
0
100
AcDbLine
 10
-98.75000000000483
 20
54.83493649053888
 30
0.0
 11
-99.35295238724831
 21
54.58518543427721
 31
0.0
  0
LINE
  5
28F
330
1F
100
AcDbEntity
  8
0
100
AcDbLine
 10
-99.35295238724831
 20
54.58518543427721
 30
0.0
 11
-100.0000000000045
 21
54.49999999999988
 31
0.0
  0
LINE
  5
290
330
1F
100
AcDbEntity
  8
0
100
AcDbLine
 10
-100.0000000000045
 20
54.49999999999988
 30
0.0
 11
-100.6470476127608
 21
54.58518543427721
 31
0.0
  0
LINE
  5
291
330
1F
100
AcDbEntity
  8
0
100
AcDbLine
 10
-100.6470476127608
 20
54.58518543427721
 30
0.0
 11
-101.2500000000043
 21
54.83493649053888
 31
0.0
  0
LINE
  5
292
330
1F
100
AcDbEntity
  8
0
100
AcDbLine
 10
-101.2500000000043
 20
54.83493649053888
 30
0.0
 11
-101.7677669529711
 21
55.23223304703345
 31
0.0
  0
LINE
  5
293
330
1F
100
AcDbEntity
  8
0
100
AcDbLine
 10
-101.7677669529711
 20
55.23223304703345
 30
0.0
 11
-102.1650635094657
 21
55.74999999999959
 31
0.0
  0
LINE
  5
294
330
1F
100
AcDbEntity
  8
0
100
AcDbLine
 10
-102.1650635094657
 20
55.74999999999959
 30
0.0
 11
-102.4148145657274
 21
56.35295238724306
 31
0.0
  0
LINE
  5
295
330
1F
100
AcDbEntity
  8
0
100
AcDbLine
 10
-102.4148145657274
 20
56.35295238724306
 30
0.0
 11
-102.5000000000047
 21
57.00000000000003
 31
0.0
  0
LINE
  5
296
330
1F
100
AcDbEntity
  8
0
100
AcDbLine
 10
-102.5000000000047
 20
57.00000000000003
 30
0.0
 11
-102.4148145657274
 21
57.64704761275556
 31
0.0
  0
LINE
  5
297
330
1F
100
AcDbEntity
  8
0
100
AcDbLine
 10
-102.4148145657274
 20
57.64704761275556
 30
0.0
 11
-102.1650635094657
 21
58.24999999999974
 31
0.0
  0
LINE
  5
298
330
1F
100
AcDbEntity
  8
0
100
AcDbLine
 10
-102.1650635094657
 20
58.24999999999974
 30
0.0
 11
-101.7677669529711
 21
58.76776695296589
 31
0.0
  0
LINE
  5
299
330
1F
100
AcDbEntity
  8
0
100
AcDbLine
 10
-101.7677669529711
 20
58.76776695296589
 30
0.0
 11
-101.2500000000043
 21
59.16506350946118
 31
0.0
  0
LINE
  5
29A
330
1F
100
AcDbEntity
  8
0
100
AcDbLine
 10
-102.1650635094657
 20
90.24999999999969
 30
0.0
 11
-101.7677669529711
 21
90.7677669529651
 31
0.0
  0
LINE
  5
29B
330
1F
100
AcDbEntity
  8
0
100
AcDbLine
 10
-101.7677669529711
 20
90.7677669529651
 30
0.0
 11
-101.2500000000043
 21
91.16506350946112
 31
0.0
  0
LINE
  5
29C
330
1F
100
AcDbEntity
  8
0
100
AcDbLine
 10
-101.2500000000043
 20
91.16506350946112
 30
0.0
 11
-100.6470476127608
 21
91.41481456572207
 31
0.0
  0
LINE
  5
29D
330
1F
100
AcDbEntity
  8
0
100
AcDbLine
 10
-100.6470476127608
 20
91.41481456572207
 30
0.0
 11
-100.0000000000045
 21
91.4999999999994
 31
0.0
  0
LINE
  5
29E
330
1F
100
AcDbEntity
  8
0
100
AcDbLine
 10
-100.0000000000045
 20
91.4999999999994
 30
0.0
 11
-99.35295238724831
 21
91.41481456572207
 31
0.0
  0
LINE
  5
29F
330
1F
100
AcDbEntity
  8
0
100
AcDbLine
 10
-99.35295238724831
 20
91.41481456572207
 30
0.0
 11
-98.75000000000483
 21
91.16506350946112
 31
0.0
  0
LINE
  5
2A0
330
1F
100
AcDbEntity
  8
0
100
AcDbLine
 10
-98.75000000000483
 20
91.16506350946112
 30
0.0
 11
-98.23223304703798
 21
90.7677669529651
 31
0.0
  0
LINE
  5
2A1
330
1F
100
AcDbEntity
  8
0
100
AcDbLine
 10
-98.23223304703798
 20
90.7677669529651
 30
0.0
 11
-97.8349364905434
 21
90.24999999999969
 31
0.0
  0
LINE
  5
2A2
330
1F
100
AcDbEntity
  8
0
100
AcDbLine
 10
-97.8349364905434
 20
90.24999999999969
 30
0.0
 11
-97.58518543428173
 21
89.6470476127555
 31
0.0
  0
LINE
  5
2A3
330
1F
100
AcDbEntity
  8
0
100
AcDbLine
 10
-97.58518543428173
 20
89.6470476127555
 30
0.0
 11
-97.5000000000044
 21
88.99999999999997
 31
0.0
  0
LINE
  5
2A4
330
1F
100
AcDbEntity
  8
0
100
AcDbLine
 10
-97.5000000000044
 20
88.99999999999997
 30
0.0
 11
-97.58518543428173
 21
88.35295238724301
 31
0.0
  0
LINE
  5
2A5
330
1F
100
AcDbEntity
  8
0
100
AcDbLine
 10
-97.58518543428173
 20
88.35295238724301
 30
0.0
 11
-97.8349364905434
 21
87.7499999999988
 31
0.0
  0
LINE
  5
2A6
330
1F
100
AcDbEntity
  8
0
100
AcDbLine
 10
-97.8349364905434
 20
87.7499999999988
 30
0.0
 11
-98.23223304703798
 21
87.23223304703339
 31
0.0
  0
LINE
  5
2A7
330
1F
100
AcDbEntity
  8
0
100
AcDbLine
 10
-98.23223304703798
 20
87.23223304703339
 30
0.0
 11
-98.75000000000483
 21
86.83493649053882
 31
0.0
  0
LINE
  5
2A8
330
1F
100
AcDbEntity
  8
0
100
AcDbLine
 10
-98.75000000000483
 20
86.83493649053882
 30
0.0
 11
-99.35295238724831
 21
86.58518543427643
 31
0.0
  0
LINE
  5
2A9
330
1F
100
AcDbEntity
  8
0
100
AcDbLine
 10
-99.35295238724831
 20
86.58518543427643
 30
0.0
 11
-100.0000000000045
 21
86.49999999999909
 31
0.0
  0
LINE
  5
2AA
330
1F
100
AcDbEntity
  8
0
100
AcDbLine
 10
-100.0000000000045
 20
86.49999999999909
 30
0.0
 11
-100.6470476127608
 21
86.58518543427643
 31
0.0
  0
LINE
  5
2AB
330
1F
100
AcDbEntity
  8
0
100
AcDbLine
 10
-100.6470476127608
 20
86.58518543427643
 30
0.0
 11
-101.2500000000043
 21
86.83493649053882
 31
0.0
  0
LINE
  5
2AC
330
1F
100
AcDbEntity
  8
0
100
AcDbLine
 10
-101.2500000000043
 20
86.83493649053882
 30
0.0
 11
-101.7677669529711
 21
87.23223304703339
 31
0.0
  0
LINE
  5
2AD
330
1F
100
AcDbEntity
  8
0
100
AcDbLine
 10
-101.7677669529711
 20
87.23223304703339
 30
0.0
 11
-102.1650635094657
 21
87.7499999999988
 31
0.0
  0
LINE
  5
2AE
330
1F
100
AcDbEntity
  8
0
100
AcDbLine
 10
-102.1650635094657
 20
87.7499999999988
 30
0.0
 11
-102.4148145657274
 21
88.35295238724301
 31
0.0
  0
LINE
  5
2AF
330
1F
100
AcDbEntity
  8
0
100
AcDbLine
 10
-102.4148145657274
 20
88.35295238724301
 30
0.0
 11
-102.5000000000047
 21
88.99999999999997
 31
0.0
  0
LINE
  5
2B0
330
1F
100
AcDbEntity
  8
0
100
AcDbLine
 10
-102.5000000000047
 20
88.99999999999997
 30
0.0
 11
-102.4148145657274
 21
89.6470476127555
 31
0.0
  0
LINE
  5
2B1
330
1F
100
AcDbEntity
  8
0
100
AcDbLine
 10
-102.4148145657274
 20
89.6470476127555
 30
0.0
 11
-102.1650635094657
 21
90.24999999999969
 31
0.0
  0
LINE
  5
2B2
330
1F
100
AcDbEntity
  8
0
100
AcDbLine
 10
-101.2500000000043
 20
123.1650635094611
 30
0.0
 11
-100.6470476127608
 21
123.414814565722
 31
0.0
  0
LINE
  5
2B3
330
1F
100
AcDbEntity
  8
0
100
AcDbLine
 10
-100.6470476127608
 20
123.414814565722
 30
0.0
 11
-100.0000000000045
 21
123.4999999999993
 31
0.0
  0
LINE
  5
2B4
330
1F
100
AcDbEntity
  8
0
100
AcDbLine
 10
104.4148145657272
 20
89.6470476127555
 30
0.0
 11
104.5000000000045
 21
88.99999999999997
 31
0.0
  0
LINE
  5
2B5
330
1F
100
AcDbEntity
  8
0
100
AcDbLine
 10
104.1650635094655
 20
90.24999999999969
 30
0.0
 11
104.4148145657272
 21
89.6470476127555
 31
0.0
  0
LINE
  5
2B6
330
1F
100
AcDbEntity
  8
0
100
AcDbLine
 10
103.7677669529709
 20
90.7677669529651
 30
0.0
 11
104.1650635094655
 21
90.24999999999969
 31
0.0
  0
LINE
  5
2B7
330
1F
100
AcDbEntity
  8
0
100
AcDbLine
 10
103.2500000000041
 20
91.16506350946112
 30
0.0
 11
103.7677669529709
 21
90.7677669529651
 31
0.0
  0
LINE
  5
2B8
330
1F
100
AcDbEntity
  8
0
100
AcDbLine
 10
102.6470476127606
 20
91.41481456572207
 30
0.0
 11
103.2500000000041
 21
91.16506350946112
 31
0.0
  0
LINE
  5
2B9
330
1F
100
AcDbEntity
  8
0
100
AcDbLine
 10
102.0000000000044
 20
91.4999999999994
 30
0.0
 11
102.6470476127606
 21
91.41481456572207
 31
0.0
  0
LINE
  5
2BA
330
1F
100
AcDbEntity
  8
0
100
AcDbLine
 10
101.3529523872481
 20
91.41481456572207
 30
0.0
 11
102.0000000000044
 21
91.4999999999994
 31
0.0
  0
LINE
  5
2BB
330
1F
100
AcDbEntity
  8
0
100
AcDbLine
 10
100.7500000000047
 20
91.16506350946112
 30
0.0
 11
101.3529523872481
 21
91.41481456572207
 31
0.0
  0
LINE
  5
2BC
330
1F
100
AcDbEntity
  8
0
100
AcDbLine
 10
100.2322330470378
 20
90.7677669529651
 30
0.0
 11
100.7500000000047
 21
91.16506350946112
 31
0.0
  0
LINE
  5
2BD
330
1F
100
AcDbEntity
  8
0
100
AcDbLine
 10
100.7500000000047
 20
123.1650635094611
 30
0.0
 11
101.3529523872481
 21
123.414814565722
 31
0.0
  0
LINE
  5
2BE
330
1F
100
AcDbEntity
  8
0
100
AcDbLine
 10
100.2322330470378
 20
122.767766952965
 30
0.0
 11
100.7500000000047
 21
123.1650635094611
 31
0.0
  0
LINE
  5
2BF
330
1F
100
AcDbEntity
  8
0
100
AcDbLine
 10
99.83493649054321
 20
122.2499999999996
 30
0.0
 11
100.2322330470378
 21
122.767766952965
 31
0.0
  0
LINE
  5
2C0
330
1F
100
AcDbEntity
  8
0
100
AcDbLine
 10
99.58518543428156
 20
121.6470476127554
 30
0.0
 11
99.83493649054321
 21
122.2499999999996
 31
0.0
  0
LINE
  5
2C1
330
1F
100
AcDbEntity
  8
0
100
AcDbLine
 10
99.50000000000422
 20
120.9999999999999
 30
0.0
 11
99.58518543428156
 21
121.6470476127554
 31
0.0
  0
LINE
  5
2C2
330
1F
100
AcDbEntity
  8
0
100
AcDbLine
 10
99.58518543428156
 20
120.352952387243
 30
0.0
 11
99.50000000000422
 21
120.9999999999999
 31
0.0
  0
LINE
  5
2C3
330
1F
100
AcDbEntity
  8
0
100
AcDbLine
 10
99.83493649054321
 20
119.7499999999987
 30
0.0
 11
99.58518543428156
 21
120.352952387243
 31
0.0
  0
LINE
  5
2C4
330
1F
100
AcDbEntity
  8
0
100
AcDbLine
 10
100.2322330470378
 20
119.2322330470333
 30
0.0
 11
99.83493649054321
 21
119.7499999999987
 31
0.0
  0
LINE
  5
2C5
330
1F
100
AcDbEntity
  8
0
100
AcDbLine
 10
100.7500000000047
 20
118.8349364905388
 30
0.0
 11
100.2322330470378
 21
119.2322330470333
 31
0.0
  0
LINE
  5
2C6
330
1F
100
AcDbEntity
  8
0
100
AcDbLine
 10
101.3529523872481
 20
118.5851854342764
 30
0.0
 11
100.7500000000047
 21
118.8349364905388
 31
0.0
  0
LINE
  5
2C7
330
1F
100
AcDbEntity
  8
0
100
AcDbLine
 10
102.0000000000044
 20
118.499999999999
 30
0.0
 11
101.3529523872481
 21
118.5851854342764
 31
0.0
  0
LINE
  5
2C8
330
1F
100
AcDbEntity
  8
0
100
AcDbLine
 10
102.6470476127606
 20
118.5851854342764
 30
0.0
 11
102.0000000000044
 21
118.499999999999
 31
0.0
  0
LINE
  5
2C9
330
1F
100
AcDbEntity
  8
0
100
AcDbLine
 10
103.2500000000041
 20
118.8349364905388
 30
0.0
 11
102.6470476127606
 21
118.5851854342764
 31
0.0
  0
LINE
  5
2CA
330
1F
100
AcDbEntity
  8
0
100
AcDbLine
 10
103.7677669529709
 20
119.2322330470333
 30
0.0
 11
103.2500000000041
 21
118.8349364905388
 31
0.0
  0
LINE
  5
2CB
330
1F
100
AcDbEntity
  8
0
100
AcDbLine
 10
104.1650635094655
 20
119.7499999999987
 30
0.0
 11
103.7677669529709
 21
119.2322330470333
 31
0.0
  0
LINE
  5
2CC
330
1F
100
AcDbEntity
  8
0
100
AcDbLine
 10
104.4148145657272
 20
120.352952387243
 30
0.0
 11
104.1650635094655
 21
119.7499999999987
 31
0.0
  0
LINE
  5
2CD
330
1F
100
AcDbEntity
  8
0
100
AcDbLine
 10
104.5000000000045
 20
120.9999999999999
 30
0.0
 11
104.4148145657272
 21
120.352952387243
 31
0.0
  0
LINE
  5
2CE
330
1F
100
AcDbEntity
  8
0
100
AcDbLine
 10
104.4148145657272
 20
121.6470476127554
 30
0.0
 11
104.5000000000045
 21
120.9999999999999
 31
0.0
  0
LINE
  5
2CF
330
1F
100
AcDbEntity
  8
0
100
AcDbLine
 10
104.1650635094655
 20
122.2499999999996
 30
0.0
 11
104.4148145657272
 21
121.6470476127554
 31
0.0
  0
LINE
  5
2D0
330
1F
100
AcDbEntity
  8
0
100
AcDbLine
 10
103.7677669529709
 20
122.767766952965
 30
0.0
 11
104.1650635094655
 21
122.2499999999996
 31
0.0
  0
LINE
  5
2D1
330
1F
100
AcDbEntity
  8
0
100
AcDbLine
 10
103.2500000000041
 20
123.1650635094611
 30
0.0
 11
103.7677669529709
 21
122.767766952965
 31
0.0
  0
LINE
  5
2D2
330
1F
100
AcDbEntity
  8
0
100
AcDbLine
 10
102.6470476127606
 20
123.414814565722
 30
0.0
 11
103.2500000000041
 21
123.1650635094611
 31
0.0
  0
LINE
  5
2D3
330
1F
100
AcDbEntity
  8
0
100
AcDbLine
 10
102.0000000000044
 20
123.4999999999993
 30
0.0
 11
102.6470476127606
 21
123.414814565722
 31
0.0
  0
LINE
  5
2D4
330
1F
100
AcDbEntity
  8
0
100
AcDbLine
 10
101.3529523872481
 20
123.414814565722
 30
0.0
 11
102.0000000000044
 21
123.4999999999993
 31
0.0
  0
LINE
  5
2D5
330
1F
100
AcDbEntity
  8
0
100
AcDbLine
 10
100.7500000000047
 20
155.165063509461
 30
0.0
 11
101.3529523872481
 21
155.4148145657219
 31
0.0
  0
LINE
  5
2D6
330
1F
100
AcDbEntity
  8
0
100
AcDbLine
 10
100.2322330470378
 20
154.7677669529664
 30
0.0
 11
100.7500000000047
 21
155.165063509461
 31
0.0
  0
LINE
  5
2D7
330
1F
100
AcDbEntity
  8
0
100
AcDbLine
 10
99.83493649054321
 20
154.2499999999996
 30
0.0
 11
100.2322330470378
 21
154.7677669529664
 31
0.0
  0
LINE
  5
2D8
330
1F
100
AcDbEntity
  8
0
100
AcDbLine
 10
99.58518543428156
 20
153.6470476127554
 30
0.0
 11
99.83493649054321
 21
154.2499999999996
 31
0.0
  0
LINE
  5
2D9
330
1F
100
AcDbEntity
  8
0
100
AcDbLine
 10
99.50000000000422
 20
152.9999999999999
 30
0.0
 11
99.58518543428156
 21
153.6470476127554
 31
0.0
  0
LINE
  5
2DA
330
1F
100
AcDbEntity
  8
0
100
AcDbLine
 10
99.58518543428156
 20
152.3529523872429
 30
0.0
 11
99.50000000000422
 21
152.9999999999999
 31
0.0
  0
LINE
  5
2DB
330
1F
100
AcDbEntity
  8
0
100
AcDbLine
 10
99.83493649054321
 20
151.7499999999987
 30
0.0
 11
99.58518543428156
 21
152.3529523872429
 31
0.0
  0
LINE
  5
2DC
330
1F
100
AcDbEntity
  8
0
100
AcDbLine
 10
100.2322330470378
 20
151.2322330470333
 30
0.0
 11
99.83493649054321
 21
151.7499999999987
 31
0.0
  0
LINE
  5
2DD
330
1F
100
AcDbEntity
  8
0
100
AcDbLine
 10
100.7500000000047
 20
150.8349364905387
 30
0.0
 11
100.2322330470378
 21
151.2322330470333
 31
0.0
  0
LINE
  5
2DE
330
1F
100
AcDbEntity
  8
0
100
AcDbLine
 10
101.3529523872481
 20
150.5851854342763
 30
0.0
 11
100.7500000000047
 21
150.8349364905387
 31
0.0
  0
LINE
  5
2DF
330
1F
100
AcDbEntity
  8
0
100
AcDbLine
 10
102.0000000000044
 20
150.499999999999
 30
0.0
 11
101.3529523872481
 21
150.5851854342763
 31
0.0
  0
LINE
  5
2E0
330
1F
100
AcDbEntity
  8
0
100
AcDbLine
 10
102.6470476127606
 20
150.5851854342763
 30
0.0
 11
102.0000000000044
 21
150.499999999999
 31
0.0
  0
LINE
  5
2E1
330
1F
100
AcDbEntity
  8
0
100
AcDbLine
 10
103.2500000000041
 20
150.8349364905387
 30
0.0
 11
102.6470476127606
 21
150.5851854342763
 31
0.0
  0
LINE
  5
2E2
330
1F
100
AcDbEntity
  8
0
100
AcDbLine
 10
103.7677669529709
 20
151.2322330470333
 30
0.0
 11
103.2500000000041
 21
150.8349364905387
 31
0.0
  0
LINE
  5
2E3
330
1F
100
AcDbEntity
  8
0
100
AcDbLine
 10
104.1650635094655
 20
151.7499999999987
 30
0.0
 11
103.7677669529709
 21
151.2322330470333
 31
0.0
  0
LINE
  5
2E4
330
1F
100
AcDbEntity
  8
0
100
AcDbLine
 10
104.4148145657272
 20
152.3529523872429
 30
0.0
 11
104.1650635094655
 21
151.7499999999987
 31
0.0
  0
LINE
  5
2E5
330
1F
100
AcDbEntity
  8
0
100
AcDbLine
 10
104.5000000000045
 20
152.9999999999999
 30
0.0
 11
104.4148145657272
 21
152.3529523872429
 31
0.0
  0
LINE
  5
2E6
330
1F
100
AcDbEntity
  8
0
100
AcDbLine
 10
104.4148145657272
 20
153.6470476127554
 30
0.0
 11
104.5000000000045
 21
152.9999999999999
 31
0.0
  0
LINE
  5
2E7
330
1F
100
AcDbEntity
  8
0
100
AcDbLine
 10
104.1650635094655
 20
154.2499999999996
 30
0.0
 11
104.4148145657272
 21
153.6470476127554
 31
0.0
  0
LINE
  5
2E8
330
1F
100
AcDbEntity
  8
0
100
AcDbLine
 10
103.7677669529709
 20
154.7677669529664
 30
0.0
 11
104.1650635094655
 21
154.2499999999996
 31
0.0
  0
LINE
  5
2E9
330
1F
100
AcDbEntity
  8
0
100
AcDbLine
 10
103.2500000000041
 20
155.165063509461
 30
0.0
 11
103.7677669529709
 21
154.7677669529664
 31
0.0
  0
LINE
  5
2EA
330
1F
100
AcDbEntity
  8
0
100
AcDbLine
 10
102.6470476127606
 20
155.4148145657219
 30
0.0
 11
103.2500000000041
 21
155.165063509461
 31
0.0
  0
LINE
  5
2EB
330
1F
100
AcDbEntity
  8
0
100
AcDbLine
 10
102.0000000000044
 20
155.4999999999993
 30
0.0
 11
102.6470476127606
 21
155.4148145657219
 31
0.0
  0
LINE
  5
2EC
330
1F
100
AcDbEntity
  8
0
100
AcDbLine
 10
101.3529523872481
 20
155.4148145657219
 30
0.0
 11
102.0000000000044
 21
155.4999999999993
 31
0.0
  0
LINE
  5
2ED
330
1F
100
AcDbEntity
  8
0
100
AcDbLine
 10
103.2500000000041
 20
-68.83493649053858
 30
0.0
 11
103.7677669529709
 21
-69.23223304703389
 31
0.0
  0
LINE
  5
2EE
330
1F
100
AcDbEntity
  8
0
100
AcDbLine
 10
102.6470476127606
 20
-68.58518543427763
 30
0.0
 11
103.2500000000041
 21
-68.83493649053858
 31
0.0
  0
LINE
  5
2EF
330
1F
100
AcDbEntity
  8
0
100
AcDbLine
 10
102.0000000000044
 20
-68.5000000000003
 30
0.0
 11
102.6470476127606
 21
-68.58518543427763
 31
0.0
  0
LINE
  5
2F0
330
1F
100
AcDbEntity
  8
0
100
AcDbLine
 10
101.3529523872481
 20
-68.58518543427763
 30
0.0
 11
102.0000000000044
 21
-68.5000000000003
 31
0.0
  0
LINE
  5
2F1
330
1F
100
AcDbEntity
  8
0
100
AcDbLine
 10
100.7500000000047
 20
-68.83493649053858
 30
0.0
 11
101.3529523872481
 21
-68.58518543427763
 31
0.0
  0
LINE
  5
2F2
330
1F
100
AcDbEntity
  8
0
100
AcDbLine
 10
100.2322330470378
 20
-69.23223304703389
 30
0.0
 11
100.7500000000047
 21
-68.83493649053858
 31
0.0
  0
LINE
  5
2F3
330
1F
100
AcDbEntity
  8
0
100
AcDbLine
 10
99.83493649054321
 20
-69.75000000000001
 30
0.0
 11
100.2322330470378
 21
-69.23223304703389
 31
0.0
  0
LINE
  5
2F4
330
1F
100
AcDbEntity
  8
0
100
AcDbLine
 10
99.58518543428156
 20
-70.35295238724422
 30
0.0
 11
99.83493649054321
 21
-69.75000000000001
 31
0.0
  0
LINE
  5
2F5
330
1F
100
AcDbEntity
  8
0
100
AcDbLine
 10
99.50000000000422
 20
-70.99999999999973
 30
0.0
 11
99.58518543428156
 21
-70.35295238724422
 31
0.0
  0
LINE
  5
2F6
330
1F
100
AcDbEntity
  8
0
100
AcDbLine
 10
99.58518543428156
 20
-71.64704761275671
 30
0.0
 11
99.50000000000422
 21
-70.99999999999973
 31
0.0
  0
LINE
  5
2F7
330
1F
100
AcDbEntity
  8
0
100
AcDbLine
 10
99.83493649054321
 20
-72.25000000000017
 30
0.0
 11
99.58518543428156
 21
-71.64704761275671
 31
0.0
  0
LINE
  5
2F8
330
1F
100
AcDbEntity
  8
0
100
AcDbLine
 10
100.2322330470378
 20
-72.76776695296631
 30
0.0
 11
99.83493649054321
 21
-72.25000000000017
 31
0.0
  0
LINE
  5
2F9
330
1F
100
AcDbEntity
  8
0
100
AcDbLine
 10
100.7500000000047
 20
-73.1650635094609
 30
0.0
 11
100.2322330470378
 21
-72.76776695296631
 31
0.0
  0
LINE
  5
2FA
330
1F
100
AcDbEntity
  8
0
100
AcDbLine
 10
101.3529523872481
 20
-73.41481456572255
 30
0.0
 11
100.7500000000047
 21
-73.1650635094609
 31
0.0
  0
LINE
  5
2FB
330
1F
100
AcDbEntity
  8
0
100
AcDbLine
 10
102.0000000000044
 20
-73.49999999999989
 30
0.0
 11
101.3529523872481
 21
-73.41481456572255
 31
0.0
  0
LINE
  5
2FC
330
1F
100
AcDbEntity
  8
0
100
AcDbLine
 10
102.6470476127606
 20
-73.41481456572255
 30
0.0
 11
102.0000000000044
 21
-73.49999999999989
 31
0.0
  0
LINE
  5
2FD
330
1F
100
AcDbEntity
  8
0
100
AcDbLine
 10
103.2500000000041
 20
-73.1650635094609
 30
0.0
 11
102.6470476127606
 21
-73.41481456572255
 31
0.0
  0
LINE
  5
2FE
330
1F
100
AcDbEntity
  8
0
100
AcDbLine
 10
103.7677669529709
 20
-72.76776695296631
 30
0.0
 11
103.2500000000041
 21
-73.1650635094609
 31
0.0
  0
LINE
  5
2FF
330
1F
100
AcDbEntity
  8
0
100
AcDbLine
 10
104.1650635094655
 20
-72.25000000000017
 30
0.0
 11
103.7677669529709
 21
-72.76776695296631
 31
0.0
  0
LINE
  5
300
330
1F
100
AcDbEntity
  8
0
100
AcDbLine
 10
104.4148145657272
 20
-71.64704761275671
 30
0.0
 11
104.1650635094655
 21
-72.25000000000017
 31
0.0
  0
LINE
  5
301
330
1F
100
AcDbEntity
  8
0
100
AcDbLine
 10
104.5000000000045
 20
-70.99999999999973
 30
0.0
 11
104.4148145657272
 21
-71.64704761275671
 31
0.0
  0
LINE
  5
302
330
1F
100
AcDbEntity
  8
0
100
AcDbLine
 10
104.4148145657272
 20
-70.35295238724422
 30
0.0
 11
104.5000000000045
 21
-70.99999999999973
 31
0.0
  0
LINE
  5
303
330
1F
100
AcDbEntity
  8
0
100
AcDbLine
 10
104.1650635094655
 20
-69.75000000000001
 30
0.0
 11
104.4148145657272
 21
-70.35295238724422
 31
0.0
  0
LINE
  5
304
330
1F
100
AcDbEntity
  8
0
100
AcDbLine
 10
103.7677669529709
 20
-69.23223304703389
 30
0.0
 11
104.1650635094655
 21
-69.75000000000001
 31
0.0
  0
LINE
  5
305
330
1F
100
AcDbEntity
  8
0
100
AcDbLine
 10
100.7500000000047
 20
-36.83493649053865
 30
0.0
 11
101.3529523872481
 21
-36.5851854342777
 31
0.0
  0
LINE
  5
306
330
1F
100
AcDbEntity
  8
0
100
AcDbLine
 10
100.2322330470378
 20
-37.23223304703394
 30
0.0
 11
100.7500000000047
 21
-36.83493649053865
 31
0.0
  0
LINE
  5
307
330
1F
100
AcDbEntity
  8
0
100
AcDbLine
 10
99.83493649054321
 20
-37.75000000000008
 30
0.0
 11
100.2322330470378
 21
-37.23223304703394
 31
0.0
  0
LINE
  5
308
330
1F
100
AcDbEntity
  8
0
100
AcDbLine
 10
99.58518543428156
 20
-38.35295238724427
 30
0.0
 11
99.83493649054321
 21
-37.75000000000008
 31
0.0
  0
LINE
  5
309
330
1F
100
AcDbEntity
  8
0
100
AcDbLine
 10
99.50000000000422
 20
-38.99999999999979
 30
0.0
 11
99.58518543428156
 21
-38.35295238724427
 31
0.0
  0
LINE
  5
30A
330
1F
100
AcDbEntity
  8
0
100
AcDbLine
 10
99.58518543428156
 20
-39.64704761275676
 30
0.0
 11
99.50000000000422
 21
-38.99999999999979
 31
0.0
  0
LINE
  5
30B
330
1F
100
AcDbEntity
  8
0
100
AcDbLine
 10
99.83493649054321
 20
-40.25000000000023
 30
0.0
 11
99.58518543428156
 21
-39.64704761275676
 31
0.0
  0
LINE
  5
30C
330
1F
100
AcDbEntity
  8
0
100
AcDbLine
 10
100.2322330470378
 20
-40.76776695296637
 30
0.0
 11
99.83493649054321
 21
-40.25000000000023
 31
0.0
  0
LINE
  5
30D
330
1F
100
AcDbEntity
  8
0
100
AcDbLine
 10
100.7500000000047
 20
-41.16506350946094
 30
0.0
 11
100.2322330470378
 21
-40.76776695296637
 31
0.0
  0
LINE
  5
30E
330
1F
100
AcDbEntity
  8
0
100
AcDbLine
 10
101.3529523872481
 20
-41.41481456572262
 30
0.0
 11
100.7500000000047
 21
-41.16506350946094
 31
0.0
  0
LINE
  5
30F
330
1F
100
AcDbEntity
  8
0
100
AcDbLine
 10
102.0000000000044
 20
-41.49999999999994
 30
0.0
 11
101.3529523872481
 21
-41.41481456572262
 31
0.0
  0
LINE
  5
310
330
1F
100
AcDbEntity
  8
0
100
AcDbLine
 10
102.6470476127606
 20
-41.41481456572262
 30
0.0
 11
102.0000000000044
 21
-41.49999999999994
 31
0.0
  0
LINE
  5
311
330
1F
100
AcDbEntity
  8
0
100
AcDbLine
 10
103.2500000000041
 20
-41.16506350946094
 30
0.0
 11
102.6470476127606
 21
-41.41481456572262
 31
0.0
  0
LINE
  5
312
330
1F
100
AcDbEntity
  8
0
100
AcDbLine
 10
103.7677669529709
 20
-40.76776695296637
 30
0.0
 11
103.2500000000041
 21
-41.16506350946094
 31
0.0
  0
LINE
  5
313
330
1F
100
AcDbEntity
  8
0
100
AcDbLine
 10
102.6470476127606
 20
-36.5851854342777
 30
0.0
 11
103.2500000000041
 21
-36.83493649053865
 31
0.0
  0
LINE
  5
314
330
1F
100
AcDbEntity
  8
0
100
AcDbLine
 10
102.0000000000044
 20
-36.50000000000036
 30
0.0
 11
102.6470476127606
 21
-36.5851854342777
 31
0.0
  0
LINE
  5
315
330
1F
100
AcDbEntity
  8
0
100
AcDbLine
 10
101.3529523872481
 20
-36.5851854342777
 30
0.0
 11
102.0000000000044
 21
-36.50000000000036
 31
0.0
  0
LINE
  5
316
330
1F
100
AcDbEntity
  8
0
100
AcDbLine
 10
102.6470476127606
 20
-164.5851854342775
 30
0.0
 11
103.2500000000041
 21
-164.8349364905391
 31
0.0
  0
LINE
  5
317
330
1F
100
AcDbEntity
  8
0
100
AcDbLine
 10
102.0000000000044
 20
-164.5000000000001
 30
0.0
 11
102.6470476127606
 21
-164.5851854342775
 31
0.0
  0
LINE
  5
318
330
1F
100
AcDbEntity
  8
0
100
AcDbLine
 10
101.3529523872481
 20
-164.5851854342775
 30
0.0
 11
102.0000000000044
 21
-164.5000000000001
 31
0.0
  0
LINE
  5
319
330
1F
100
AcDbEntity
  8
0
100
AcDbLine
 10
100.7500000000047
 20
-164.8349364905391
 30
0.0
 11
101.3529523872481
 21
-164.5851854342775
 31
0.0
  0
LINE
  5
31A
330
1F
100
AcDbEntity
  8
0
100
AcDbLine
 10
100.2322330470378
 20
-165.2322330470337
 30
0.0
 11
100.7500000000047
 21
-164.8349364905391
 31
0.0
  0
LINE
  5
31B
330
1F
100
AcDbEntity
  8
0
100
AcDbLine
 10
99.83493649054321
 20
-165.7499999999998
 30
0.0
 11
100.2322330470378
 21
-165.2322330470337
 31
0.0
  0
LINE
  5
31C
330
1F
100
AcDbEntity
  8
0
100
AcDbLine
 10
99.58518543428156
 20
-166.352952387244
 30
0.0
 11
99.83493649054321
 21
-165.7499999999998
 31
0.0
  0
LINE
  5
31D
330
1F
100
AcDbEntity
  8
0
100
AcDbLine
 10
99.50000000000422
 20
-167.0000000000003
 30
0.0
 11
99.58518543428156
 21
-166.352952387244
 31
0.0
  0
LINE
  5
31E
330
1F
100
AcDbEntity
  8
0
100
AcDbLine
 10
99.58518543428156
 20
-167.6470476127565
 30
0.0
 11
99.50000000000422
 21
-167.0000000000003
 31
0.0
  0
LINE
  5
31F
330
1F
100
AcDbEntity
  8
0
100
AcDbLine
 10
99.83493649054321
 20
-168.25
 30
0.0
 11
99.58518543428156
 21
-167.6470476127565
 31
0.0
  0
LINE
  5
320
330
1F
100
AcDbEntity
  8
0
100
AcDbLine
 10
100.2322330470378
 20
-168.7677669529661
 30
0.0
 11
99.83493649054321
 21
-168.25
 31
0.0
  0
LINE
  5
321
330
1F
100
AcDbEntity
  8
0
100
AcDbLine
 10
100.7500000000047
 20
-169.1650635094614
 30
0.0
 11
100.2322330470378
 21
-168.7677669529661
 31
0.0
  0
LINE
  5
322
330
1F
100
AcDbEntity
  8
0
100
AcDbLine
 10
101.3529523872481
 20
-169.4148145657231
 30
0.0
 11
100.7500000000047
 21
-169.1650635094614
 31
0.0
  0
LINE
  5
323
330
1F
100
AcDbEntity
  8
0
100
AcDbLine
 10
102.0000000000044
 20
-169.5000000000004
 30
0.0
 11
101.3529523872481
 21
-169.4148145657231
 31
0.0
  0
LINE
  5
324
330
1F
100
AcDbEntity
  8
0
100
AcDbLine
 10
102.6470476127606
 20
-169.4148145657231
 30
0.0
 11
102.0000000000044
 21
-169.5000000000004
 31
0.0
  0
LINE
  5
325
330
1F
100
AcDbEntity
  8
0
100
AcDbLine
 10
103.2500000000041
 20
-169.1650635094614
 30
0.0
 11
102.6470476127606
 21
-169.4148145657231
 31
0.0
  0
LINE
  5
326
330
1F
100
AcDbEntity
  8
0
100
AcDbLine
 10
103.7677669529709
 20
-168.7677669529661
 30
0.0
 11
103.2500000000041
 21
-169.1650635094614
 31
0.0
  0
LINE
  5
327
330
1F
100
AcDbEntity
  8
0
100
AcDbLine
 10
104.1650635094655
 20
-168.25
 30
0.0
 11
103.7677669529709
 21
-168.7677669529661
 31
0.0
  0
LINE
  5
328
330
1F
100
AcDbEntity
  8
0
100
AcDbLine
 10
104.4148145657272
 20
-167.6470476127565
 30
0.0
 11
104.1650635094655
 21
-168.25
 31
0.0
  0
LINE
  5
329
330
1F
100
AcDbEntity
  8
0
100
AcDbLine
 10
104.5000000000045
 20
-167.0000000000003
 30
0.0
 11
104.4148145657272
 21
-167.6470476127565
 31
0.0
  0
LINE
  5
32A
330
1F
100
AcDbEntity
  8
0
100
AcDbLine
 10
104.4148145657272
 20
-166.352952387244
 30
0.0
 11
104.5000000000045
 21
-167.0000000000003
 31
0.0
  0
LINE
  5
32B
330
1F
100
AcDbEntity
  8
0
100
AcDbLine
 10
104.1650635094655
 20
-165.7499999999998
 30
0.0
 11
104.4148145657272
 21
-166.352952387244
 31
0.0
  0
LINE
  5
32C
330
1F
100
AcDbEntity
  8
0
100
AcDbLine
 10
103.7677669529709
 20
-165.2322330470337
 30
0.0
 11
104.1650635094655
 21
-165.7499999999998
 31
0.0
  0
LINE
  5
32D
330
1F
100
AcDbEntity
  8
0
100
AcDbLine
 10
103.2500000000041
 20
-164.8349364905391
 30
0.0
 11
103.7677669529709
 21
-165.2322330470337
 31
0.0
  0
LINE
  5
32E
330
1F
100
AcDbEntity
  8
0
100
AcDbLine
 10
100.7500000000047
 20
-132.8349364905385
 30
0.0
 11
101.3529523872481
 21
-132.5851854342775
 31
0.0
  0
LINE
  5
32F
330
1F
100
AcDbEntity
  8
0
100
AcDbLine
 10
100.2322330470378
 20
-133.2322330470338
 30
0.0
 11
100.7500000000047
 21
-132.8349364905385
 31
0.0
  0
LINE
  5
330
330
1F
100
AcDbEntity
  8
0
100
AcDbLine
 10
99.83493649054321
 20
-133.7499999999999
 30
0.0
 11
100.2322330470378
 21
-133.2322330470338
 31
0.0
  0
LINE
  5
331
330
1F
100
AcDbEntity
  8
0
100
AcDbLine
 10
99.58518543428156
 20
-134.3529523872441
 30
0.0
 11
99.83493649054321
 21
-133.7499999999999
 31
0.0
  0
LINE
  5
332
330
1F
100
AcDbEntity
  8
0
100
AcDbLine
 10
99.50000000000422
 20
-134.9999999999996
 30
0.0
 11
99.58518543428156
 21
-134.3529523872441
 31
0.0
  0
LINE
  5
333
330
1F
100
AcDbEntity
  8
0
100
AcDbLine
 10
99.58518543428156
 20
-135.6470476127566
 30
0.0
 11
99.50000000000422
 21
-134.9999999999996
 31
0.0
  0
LINE
  5
334
330
1F
100
AcDbEntity
  8
0
100
AcDbLine
 10
99.83493649054321
 20
-136.2500000000001
 30
0.0
 11
99.58518543428156
 21
-135.6470476127566
 31
0.0
  0
LINE
  5
335
330
1F
100
AcDbEntity
  8
0
100
AcDbLine
 10
100.2322330470378
 20
-136.7677669529662
 30
0.0
 11
99.83493649054321
 21
-136.2500000000001
 31
0.0
  0
LINE
  5
336
330
1F
100
AcDbEntity
  8
0
100
AcDbLine
 10
100.7500000000047
 20
-137.1650635094608
 30
0.0
 11
100.2322330470378
 21
-136.7677669529662
 31
0.0
  0
LINE
  5
337
330
1F
100
AcDbEntity
  8
0
100
AcDbLine
 10
101.3529523872481
 20
-137.4148145657225
 30
0.0
 11
100.7500000000047
 21
-137.1650635094608
 31
0.0
  0
LINE
  5
338
330
1F
100
AcDbEntity
  8
0
100
AcDbLine
 10
102.0000000000044
 20
-137.4999999999998
 30
0.0
 11
101.3529523872481
 21
-137.4148145657225
 31
0.0
  0
LINE
  5
339
330
1F
100
AcDbEntity
  8
0
100
AcDbLine
 10
102.6470476127606
 20
-137.4148145657225
 30
0.0
 11
102.0000000000044
 21
-137.4999999999998
 31
0.0
  0
LINE
  5
33A
330
1F
100
AcDbEntity
  8
0
100
AcDbLine
 10
103.2500000000041
 20
-137.1650635094608
 30
0.0
 11
102.6470476127606
 21
-137.4148145657225
 31
0.0
  0
LINE
  5
33B
330
1F
100
AcDbEntity
  8
0
100
AcDbLine
 10
103.7677669529709
 20
-136.7677669529662
 30
0.0
 11
103.2500000000041
 21
-137.1650635094608
 31
0.0
  0
LINE
  5
33C
330
1F
100
AcDbEntity
  8
0
100
AcDbLine
 10
104.1650635094655
 20
-136.2500000000001
 30
0.0
 11
103.7677669529709
 21
-136.7677669529662
 31
0.0
  0
LINE
  5
33D
330
1F
100
AcDbEntity
  8
0
100
AcDbLine
 10
104.4148145657272
 20
-135.6470476127566
 30
0.0
 11
104.1650635094655
 21
-136.2500000000001
 31
0.0
  0
LINE
  5
33E
330
1F
100
AcDbEntity
  8
0
100
AcDbLine
 10
104.5000000000045
 20
-134.9999999999996
 30
0.0
 11
104.4148145657272
 21
-135.6470476127566
 31
0.0
  0
LINE
  5
33F
330
1F
100
AcDbEntity
  8
0
100
AcDbLine
 10
104.4148145657272
 20
-134.3529523872441
 30
0.0
 11
104.5000000000045
 21
-134.9999999999996
 31
0.0
  0
LINE
  5
340
330
1F
100
AcDbEntity
  8
0
100
AcDbLine
 10
104.1650635094655
 20
-133.7499999999999
 30
0.0
 11
104.4148145657272
 21
-134.3529523872441
 31
0.0
  0
LINE
  5
341
330
1F
100
AcDbEntity
  8
0
100
AcDbLine
 10
103.7677669529709
 20
-133.2322330470338
 30
0.0
 11
104.1650635094655
 21
-133.7499999999999
 31
0.0
  0
LINE
  5
342
330
1F
100
AcDbEntity
  8
0
100
AcDbLine
 10
103.2500000000041
 20
-132.8349364905385
 30
0.0
 11
103.7677669529709
 21
-133.2322330470338
 31
0.0
  0
LINE
  5
343
330
1F
100
AcDbEntity
  8
0
100
AcDbLine
 10
102.6470476127606
 20
-132.5851854342775
 30
0.0
 11
103.2500000000041
 21
-132.8349364905385
 31
0.0
  0
LINE
  5
344
330
1F
100
AcDbEntity
  8
0
100
AcDbLine
 10
102.0000000000044
 20
-132.5000000000002
 30
0.0
 11
102.6470476127606
 21
-132.5851854342775
 31
0.0
  0
LINE
  5
345
330
1F
100
AcDbEntity
  8
0
100
AcDbLine
 10
101.3529523872481
 20
-132.5851854342775
 30
0.0
 11
102.0000000000044
 21
-132.5000000000002
 31
0.0
  0
LINE
  5
346
330
1F
100
AcDbEntity
  8
0
100
AcDbLine
 10
100.7500000000047
 20
-100.8349364905385
 30
0.0
 11
101.3529523872481
 21
-100.5851854342776
 31
0.0
  0
LINE
  5
347
330
1F
100
AcDbEntity
  8
0
100
AcDbLine
 10
100.2322330470378
 20
-101.2322330470338
 30
0.0
 11
100.7500000000047
 21
-100.8349364905385
 31
0.0
  0
LINE
  5
348
330
1F
100
AcDbEntity
  8
0
100
AcDbLine
 10
99.83493649054321
 20
-101.75
 30
0.0
 11
100.2322330470378
 21
-101.2322330470338
 31
0.0
  0
LINE
  5
349
330
1F
100
AcDbEntity
  8
0
100
AcDbLine
 10
99.58518543428156
 20
-102.3529523872442
 30
0.0
 11
99.83493649054321
 21
-101.75
 31
0.0
  0
LINE
  5
34A
330
1F
100
AcDbEntity
  8
0
100
AcDbLine
 10
99.50000000000422
 20
-102.9999999999997
 30
0.0
 11
99.58518543428156
 21
-102.3529523872442
 31
0.0
  0
LINE
  5
34B
330
1F
100
AcDbEntity
  8
0
100
AcDbLine
 10
99.58518543428156
 20
-103.6470476127566
 30
0.0
 11
99.50000000000422
 21
-102.9999999999997
 31
0.0
  0
LINE
  5
34C
330
1F
100
AcDbEntity
  8
0
100
AcDbLine
 10
99.83493649054321
 20
-104.2500000000001
 30
0.0
 11
99.58518543428156
 21
-103.6470476127566
 31
0.0
  0
LINE
  5
34D
330
1F
100
AcDbEntity
  8
0
100
AcDbLine
 10
100.2322330470378
 20
-104.7677669529663
 30
0.0
 11
99.83493649054321
 21
-104.2500000000001
 31
0.0
  0
LINE
  5
34E
330
1F
100
AcDbEntity
  8
0
100
AcDbLine
 10
100.7500000000047
 20
-105.1650635094608
 30
0.0
 11
100.2322330470378
 21
-104.7677669529663
 31
0.0
  0
LINE
  5
34F
330
1F
100
AcDbEntity
  8
0
100
AcDbLine
 10
101.3529523872481
 20
-105.4148145657225
 30
0.0
 11
100.7500000000047
 21
-105.1650635094608
 31
0.0
  0
LINE
  5
350
330
1F
100
AcDbEntity
  8
0
100
AcDbLine
 10
102.0000000000044
 20
-105.4999999999998
 30
0.0
 11
101.3529523872481
 21
-105.4148145657225
 31
0.0
  0
LINE
  5
351
330
1F
100
AcDbEntity
  8
0
100
AcDbLine
 10
102.6470476127606
 20
-105.4148145657225
 30
0.0
 11
102.0000000000044
 21
-105.4999999999998
 31
0.0
  0
LINE
  5
352
330
1F
100
AcDbEntity
  8
0
100
AcDbLine
 10
103.2500000000041
 20
-105.1650635094608
 30
0.0
 11
102.6470476127606
 21
-105.4148145657225
 31
0.0
  0
LINE
  5
353
330
1F
100
AcDbEntity
  8
0
100
AcDbLine
 10
103.7677669529709
 20
-104.7677669529663
 30
0.0
 11
103.2500000000041
 21
-105.1650635094608
 31
0.0
  0
LINE
  5
354
330
1F
100
AcDbEntity
  8
0
100
AcDbLine
 10
104.1650635094655
 20
-104.2500000000001
 30
0.0
 11
103.7677669529709
 21
-104.7677669529663
 31
0.0
  0
LINE
  5
355
330
1F
100
AcDbEntity
  8
0
100
AcDbLine
 10
104.4148145657272
 20
-103.6470476127566
 30
0.0
 11
104.1650635094655
 21
-104.2500000000001
 31
0.0
  0
LINE
  5
356
330
1F
100
AcDbEntity
  8
0
100
AcDbLine
 10
104.5000000000045
 20
-102.9999999999997
 30
0.0
 11
104.4148145657272
 21
-103.6470476127566
 31
0.0
  0
LINE
  5
357
330
1F
100
AcDbEntity
  8
0
100
AcDbLine
 10
104.4148145657272
 20
-102.3529523872442
 30
0.0
 11
104.5000000000045
 21
-102.9999999999997
 31
0.0
  0
LINE
  5
358
330
1F
100
AcDbEntity
  8
0
100
AcDbLine
 10
104.1650635094655
 20
-101.75
 30
0.0
 11
104.4148145657272
 21
-102.3529523872442
 31
0.0
  0
LINE
  5
359
330
1F
100
AcDbEntity
  8
0
100
AcDbLine
 10
103.7677669529709
 20
-101.2322330470338
 30
0.0
 11
104.1650635094655
 21
-101.75
 31
0.0
  0
LINE
  5
35A
330
1F
100
AcDbEntity
  8
0
100
AcDbLine
 10
103.2500000000041
 20
-100.8349364905385
 30
0.0
 11
103.7677669529709
 21
-101.2322330470338
 31
0.0
  0
LINE
  5
35B
330
1F
100
AcDbEntity
  8
0
100
AcDbLine
 10
102.6470476127606
 20
-100.5851854342776
 30
0.0
 11
103.2500000000041
 21
-100.8349364905385
 31
0.0
  0
LINE
  5
35C
330
1F
100
AcDbEntity
  8
0
100
AcDbLine
 10
102.0000000000044
 20
-100.5000000000002
 30
0.0
 11
102.6470476127606
 21
-100.5851854342776
 31
0.0
  0
LINE
  5
35D
330
1F
100
AcDbEntity
  8
0
100
AcDbLine
 10
101.3529523872481
 20
-100.5851854342776
 30
0.0
 11
102.0000000000044
 21
-100.5000000000002
 31
0.0
  0
LINE
  5
35E
330
1F
100
AcDbEntity
  8
0
100
AcDbLine
 10
99.50000000000422
 20
184.9999999999998
 30
0.0
 11
99.58518543428156
 21
185.6470476127553
 31
0.0
  0
LINE
  5
35F
330
1F
100
AcDbEntity
  8
0
100
AcDbLine
 10
99.58518543428156
 20
184.3529523872428
 30
0.0
 11
99.50000000000422
 21
184.9999999999998
 31
0.0
  0
LINE
  5
360
330
1F
100
AcDbEntity
  8
0
100
AcDbLine
 10
99.83493649054321
 20
183.7499999999986
 30
0.0
 11
99.58518543428156
 21
184.3529523872428
 31
0.0
  0
LINE
  5
361
330
1F
100
AcDbEntity
  8
0
100
AcDbLine
 10
100.2322330470378
 20
183.2322330470332
 30
0.0
 11
99.83493649054321
 21
183.7499999999986
 31
0.0
  0
LINE
  5
362
330
1F
100
AcDbEntity
  8
0
100
AcDbLine
 10
100.7500000000047
 20
182.8349364905386
 30
0.0
 11
100.2322330470378
 21
183.2322330470332
 31
0.0
  0
LINE
  5
363
330
1F
100
AcDbEntity
  8
0
100
AcDbLine
 10
101.3529523872481
 20
182.5851854342762
 30
0.0
 11
100.7500000000047
 21
182.8349364905386
 31
0.0
  0
LINE
  5
364
330
1F
100
AcDbEntity
  8
0
100
AcDbLine
 10
102.0000000000044
 20
182.4999999999989
 30
0.0
 11
101.3529523872481
 21
182.5851854342762
 31
0.0
  0
LINE
  5
365
330
1F
100
AcDbEntity
  8
0
100
AcDbLine
 10
102.6470476127606
 20
182.5851854342762
 30
0.0
 11
102.0000000000044
 21
182.4999999999989
 31
0.0
  0
LINE
  5
366
330
1F
100
AcDbEntity
  8
0
100
AcDbLine
 10
103.2500000000041
 20
182.8349364905386
 30
0.0
 11
102.6470476127606
 21
182.5851854342762
 31
0.0
  0
LINE
  5
367
330
1F
100
AcDbEntity
  8
0
100
AcDbLine
 10
103.7677669529709
 20
183.2322330470332
 30
0.0
 11
103.2500000000041
 21
182.8349364905386
 31
0.0
  0
LINE
  5
368
330
1F
100
AcDbEntity
  8
0
100
AcDbLine
 10
104.1650635094655
 20
183.7499999999986
 30
0.0
 11
103.7677669529709
 21
183.2322330470332
 31
0.0
  0
LINE
  5
369
330
1F
100
AcDbEntity
  8
0
100
AcDbLine
 10
104.4148145657272
 20
184.3529523872428
 30
0.0
 11
104.1650635094655
 21
183.7499999999986
 31
0.0
  0
LINE
  5
36A
330
1F
100
AcDbEntity
  8
0
100
AcDbLine
 10
104.5000000000045
 20
184.9999999999998
 30
0.0
 11
104.4148145657272
 21
184.3529523872428
 31
0.0
  0
LINE
  5
36B
330
1F
100
AcDbEntity
  8
0
100
AcDbLine
 10
104.4148145657272
 20
185.6470476127553
 30
0.0
 11
104.5000000000045
 21
184.9999999999998
 31
0.0
  0
LINE
  5
36C
330
1F
100
AcDbEntity
  8
0
100
AcDbLine
 10
104.1650635094655
 20
186.2499999999995
 30
0.0
 11
104.4148145657272
 21
185.6470476127553
 31
0.0
  0
LINE
  5
36D
330
1F
100
AcDbEntity
  8
0
100
AcDbLine
 10
103.7677669529709
 20
186.7677669529664
 30
0.0
 11
104.1650635094655
 21
186.2499999999995
 31
0.0
  0
LINE
  5
36E
330
1F
100
AcDbEntity
  8
0
100
AcDbLine
 10
103.2500000000041
 20
187.1650635094609
 30
0.0
 11
103.7677669529709
 21
186.7677669529664
 31
0.0
  0
LINE
  5
36F
330
1F
100
AcDbEntity
  8
0
100
AcDbLine
 10
102.6470476127606
 20
187.4148145657219
 30
0.0
 11
103.2500000000041
 21
187.1650635094609
 31
0.0
  0
LINE
  5
370
330
1F
100
AcDbEntity
  8
0
100
AcDbLine
 10
-138.7322330470374
 20
-337.7677669529645
 30
0.0
 11
-139.2500000000039
 21
-338.1650635094591
 31
0.0
  0
LINE
  5
371
330
1F
100
AcDbEntity
  8
0
100
AcDbLine
 10
-139.2500000000039
 20
-338.1650635094591
 30
0.0
 11
-139.8529523872478
 21
-338.4148145657207
 31
0.0
  0
LINE
  5
372
330
1F
100
AcDbEntity
  8
0
100
AcDbLine
 10
-139.8529523872478
 20
-338.4148145657207
 30
0.0
 11
-140.500000000004
 21
-338.4999999999981
 31
0.0
  0
LINE
  5
373
330
1F
100
AcDbEntity
  8
0
100
AcDbLine
 10
-140.500000000004
 20
-338.4999999999981
 30
0.0
 11
-141.1470476127602
 21
-338.4148145657207
 31
0.0
  0
LINE
  5
374
330
1F
100
AcDbEntity
  8
0
100
AcDbLine
 10
-141.1470476127602
 20
-338.4148145657207
 30
0.0
 11
-141.7500000000041
 21
-338.1650635094591
 31
0.0
  0
LINE
  5
375
330
1F
100
AcDbEntity
  8
0
100
AcDbLine
 10
-141.7500000000041
 20
-338.1650635094591
 30
0.0
 11
-142.2677669529706
 21
-337.7677669529645
 31
0.0
  0
LINE
  5
376
330
1F
100
AcDbEntity
  8
0
100
AcDbLine
 10
-142.2677669529706
 20
-337.7677669529645
 30
0.0
 11
-142.6650635094652
 21
-337.2499999999984
 31
0.0
  0
LINE
  5
377
330
1F
100
AcDbEntity
  8
0
100
AcDbLine
 10
-142.6650635094652
 20
-337.2499999999984
 30
0.0
 11
-142.9148145657268
 21
-336.6470476127542
 31
0.0
  0
LINE
  5
378
330
1F
100
AcDbEntity
  8
0
100
AcDbLine
 10
-142.9148145657268
 20
-336.6470476127542
 30
0.0
 11
-143.0000000000041
 21
-335.999999999998
 31
0.0
  0
LINE
  5
379
330
1F
100
AcDbEntity
  8
0
100
AcDbLine
 10
-101.7677669529711
 20
154.7677669529664
 30
0.0
 11
-101.2500000000043
 21
155.165063509461
 31
0.0
  0
LINE
  5
37A
330
1F
100
AcDbEntity
  8
0
100
AcDbLine
 10
-102.1650635094657
 20
154.2499999999996
 30
0.0
 11
-101.7677669529711
 21
154.7677669529664
 31
0.0
  0
LINE
  5
37B
330
1F
100
AcDbEntity
  8
0
100
AcDbLine
 10
-102.4148145657274
 20
153.6470476127554
 30
0.0
 11
-102.1650635094657
 21
154.2499999999996
 31
0.0
  0
LINE
  5
37C
330
1F
100
AcDbEntity
  8
0
100
AcDbLine
 10
-102.5000000000047
 20
152.9999999999999
 30
0.0
 11
-102.4148145657274
 21
153.6470476127554
 31
0.0
  0
LINE
  5
37D
330
1F
100
AcDbEntity
  8
0
100
AcDbLine
 10
-102.4148145657274
 20
152.3529523872429
 30
0.0
 11
-102.5000000000047
 21
152.9999999999999
 31
0.0
  0
LINE
  5
37E
330
1F
100
AcDbEntity
  8
0
100
AcDbLine
 10
-102.1650635094657
 20
151.7499999999987
 30
0.0
 11
-102.4148145657274
 21
152.3529523872429
 31
0.0
  0
LINE
  5
37F
330
1F
100
AcDbEntity
  8
0
100
AcDbLine
 10
-101.7677669529711
 20
151.2322330470333
 30
0.0
 11
-102.1650635094657
 21
151.7499999999987
 31
0.0
  0
LINE
  5
380
330
1F
100
AcDbEntity
  8
0
100
AcDbLine
 10
-101.2500000000043
 20
150.8349364905387
 30
0.0
 11
-101.7677669529711
 21
151.2322330470333
 31
0.0
  0
LINE
  5
381
330
1F
100
AcDbEntity
  8
0
100
AcDbLine
 10
-100.6470476127608
 20
150.5851854342763
 30
0.0
 11
-101.2500000000043
 21
150.8349364905387
 31
0.0
  0
LINE
  5
382
330
1F
100
AcDbEntity
  8
0
100
AcDbLine
 10
-100.0000000000045
 20
150.499999999999
 30
0.0
 11
-100.6470476127608
 21
150.5851854342763
 31
0.0
  0
LINE
  5
383
330
1F
100
AcDbEntity
  8
0
100
AcDbLine
 10
-99.35295238724831
 20
150.5851854342763
 30
0.0
 11
-100.0000000000045
 21
150.499999999999
 31
0.0
  0
LINE
  5
384
330
1F
100
AcDbEntity
  8
0
100
AcDbLine
 10
-98.75000000000483
 20
150.8349364905387
 30
0.0
 11
-99.35295238724831
 21
150.5851854342763
 31
0.0
  0
LINE
  5
385
330
1F
100
AcDbEntity
  8
0
100
AcDbLine
 10
-98.23223304703798
 20
151.2322330470333
 30
0.0
 11
-98.75000000000483
 21
150.8349364905387
 31
0.0
  0
LINE
  5
386
330
1F
100
AcDbEntity
  8
0
100
AcDbLine
 10
-97.8349364905434
 20
151.7499999999987
 30
0.0
 11
-98.23223304703798
 21
151.2322330470333
 31
0.0
  0
LINE
  5
387
330
1F
100
AcDbEntity
  8
0
100
AcDbLine
 10
-97.58518543428173
 20
152.3529523872429
 30
0.0
 11
-97.8349364905434
 21
151.7499999999987
 31
0.0
  0
LINE
  5
388
330
1F
100
AcDbEntity
  8
0
100
AcDbLine
 10
-97.5000000000044
 20
152.9999999999999
 30
0.0
 11
-97.58518543428173
 21
152.3529523872429
 31
0.0
  0
LINE
  5
389
330
1F
100
AcDbEntity
  8
0
100
AcDbLine
 10
-97.58518543428173
 20
153.6470476127554
 30
0.0
 11
-97.5000000000044
 21
152.9999999999999
 31
0.0
  0
LINE
  5
38A
330
1F
100
AcDbEntity
  8
0
100
AcDbLine
 10
-97.8349364905434
 20
154.2499999999996
 30
0.0
 11
-97.58518543428173
 21
153.6470476127554
 31
0.0
  0
LINE
  5
38B
330
1F
100
AcDbEntity
  8
0
100
AcDbLine
 10
-98.23223304703798
 20
154.7677669529664
 30
0.0
 11
-97.8349364905434
 21
154.2499999999996
 31
0.0
  0
LINE
  5
38C
330
1F
100
AcDbEntity
  8
0
100
AcDbLine
 10
-101.2500000000043
 20
219.1650635094609
 30
0.0
 11
-100.6470476127608
 21
219.4148145657218
 31
0.0
  0
LINE
  5
38D
330
1F
100
AcDbEntity
  8
0
100
AcDbLine
 10
-101.7677669529711
 20
218.7677669529663
 30
0.0
 11
-101.2500000000043
 21
219.1650635094609
 31
0.0
  0
LINE
  5
38E
330
1F
100
AcDbEntity
  8
0
100
AcDbLine
 10
-102.1650635094657
 20
218.2499999999995
 30
0.0
 11
-101.7677669529711
 21
218.7677669529663
 31
0.0
  0
LINE
  5
38F
330
1F
100
AcDbEntity
  8
0
100
AcDbLine
 10
-102.4148145657274
 20
217.6470476127553
 30
0.0
 11
-102.1650635094657
 21
218.2499999999995
 31
0.0
  0
LINE
  5
390
330
1F
100
AcDbEntity
  8
0
100
AcDbLine
 10
-102.5000000000047
 20
216.9999999999997
 30
0.0
 11
-102.4148145657274
 21
217.6470476127553
 31
0.0
  0
LINE
  5
391
330
1F
100
AcDbEntity
  8
0
100
AcDbLine
 10
-102.4148145657274
 20
216.3529523872428
 30
0.0
 11
-102.5000000000047
 21
216.9999999999997
 31
0.0
  0
LINE
  5
392
330
1F
100
AcDbEntity
  8
0
100
AcDbLine
 10
-102.1650635094657
 20
215.7499999999986
 30
0.0
 11
-102.4148145657274
 21
216.3529523872428
 31
0.0
  0
LINE
  5
393
330
1F
100
AcDbEntity
  8
0
100
AcDbLine
 10
-101.7677669529711
 20
215.2322330470332
 30
0.0
 11
-102.1650635094657
 21
215.7499999999986
 31
0.0
  0
LINE
  5
394
330
1F
100
AcDbEntity
  8
0
100
AcDbLine
 10
-101.2500000000043
 20
214.8349364905386
 30
0.0
 11
-101.7677669529711
 21
215.2322330470332
 31
0.0
  0
LINE
  5
395
330
1F
100
AcDbEntity
  8
0
100
AcDbLine
 10
-100.6470476127608
 20
214.5851854342762
 30
0.0
 11
-101.2500000000043
 21
214.8349364905386
 31
0.0
  0
LINE
  5
396
330
1F
100
AcDbEntity
  8
0
100
AcDbLine
 10
-100.0000000000045
 20
214.4999999999989
 30
0.0
 11
-100.6470476127608
 21
214.5851854342762
 31
0.0
  0
LINE
  5
397
330
1F
100
AcDbEntity
  8
0
100
AcDbLine
 10
-99.35295238724831
 20
214.5851854342762
 30
0.0
 11
-100.0000000000045
 21
214.4999999999989
 31
0.0
  0
LINE
  5
398
330
1F
100
AcDbEntity
  8
0
100
AcDbLine
 10
-98.75000000000483
 20
214.8349364905386
 30
0.0
 11
-99.35295238724831
 21
214.5851854342762
 31
0.0
  0
LINE
  5
399
330
1F
100
AcDbEntity
  8
0
100
AcDbLine
 10
-98.23223304703798
 20
215.2322330470332
 30
0.0
 11
-98.75000000000483
 21
214.8349364905386
 31
0.0
  0
LINE
  5
39A
330
1F
100
AcDbEntity
  8
0
100
AcDbLine
 10
-97.8349364905434
 20
215.7499999999986
 30
0.0
 11
-98.23223304703798
 21
215.2322330470332
 31
0.0
  0
LINE
  5
39B
330
1F
100
AcDbEntity
  8
0
100
AcDbLine
 10
-97.58518543428173
 20
216.3529523872428
 30
0.0
 11
-97.8349364905434
 21
215.7499999999986
 31
0.0
  0
LINE
  5
39C
330
1F
100
AcDbEntity
  8
0
100
AcDbLine
 10
-97.5000000000044
 20
216.9999999999997
 30
0.0
 11
-97.58518543428173
 21
216.3529523872428
 31
0.0
  0
LINE
  5
39D
330
1F
100
AcDbEntity
  8
0
100
AcDbLine
 10
-97.58518543428173
 20
217.6470476127553
 30
0.0
 11
-97.5000000000044
 21
216.9999999999997
 31
0.0
  0
LINE
  5
39E
330
1F
100
AcDbEntity
  8
0
100
AcDbLine
 10
-97.8349364905434
 20
218.2499999999995
 30
0.0
 11
-97.58518543428173
 21
217.6470476127553
 31
0.0
  0
LINE
  5
39F
330
1F
100
AcDbEntity
  8
0
100
AcDbLine
 10
-98.23223304703798
 20
218.7677669529663
 30
0.0
 11
-97.8349364905434
 21
218.2499999999995
 31
0.0
  0
LINE
  5
3A0
330
1F
100
AcDbEntity
  8
0
100
AcDbLine
 10
-98.75000000000483
 20
219.1650635094609
 30
0.0
 11
-98.23223304703798
 21
218.7677669529663
 31
0.0
  0
LINE
  5
3A1
330
1F
100
AcDbEntity
  8
0
100
AcDbLine
 10
-99.35295238724831
 20
219.4148145657218
 30
0.0
 11
-98.75000000000483
 21
219.1650635094609
 31
0.0
  0
LINE
  5
3A2
330
1F
100
AcDbEntity
  8
0
100
AcDbLine
 10
-100.0000000000045
 20
219.4999999999992
 30
0.0
 11
-99.35295238724831
 21
219.4148145657218
 31
0.0
  0
LINE
  5
3A3
330
1F
100
AcDbEntity
  8
0
100
AcDbLine
 10
-100.6470476127608
 20
219.4148145657218
 30
0.0
 11
-100.0000000000045
 21
219.4999999999992
 31
0.0
  0
ENDSEC
  0
SECTION
  2
OBJECTS
  0
DICTIONARY
  5
C
330
0
100
AcDbDictionary
  3
ACAD_GROUP
350
D
  3
ACAD_LAYOUT
350
1A
  3
ACAD_MATERIAL
350
43
  3
ACAD_MLEADERSTYLE
350
6B
  3
ACAD_MLINESTYLE
350
17
  3
ACAD_PLOTSETTINGS
350
19
  3
ACAD_SCALELIST
350
47
  3
ACAD_VISUALSTYLE
350
2A
  3
ACDBHEADERROUNDTRIPXREC
350
3A4
  3
ACDBVARIABLEDICTIONARY
350
3C5
  0
DICTIONARY
  5
3CC
330
8
100
AcDbDictionary
280
     1
  3
ACAD_XREC_ROUNDTRIP
360
3CD
  0
DICTIONARY
  5
D
102
{ACAD_REACTORS
330
C
102
}
330
C
100
AcDbDictionary
  0
DICTIONARY
  5
1A
102
{ACAD_REACTORS
330
C
102
}
330
C
100
AcDbDictionary
  0
DICTIONARY
  5
43
102
{ACAD_REACTORS
330
C
102
}
330
C
100
AcDbDictionary
  3
BYBLOCK
350
45
  3
BYLAYER
350
44
  3
GLOBAL
350
46
  0
DICTIONARY
  5
6B
102
{ACAD_REACTORS
330
C
102
}
330
C
100
AcDbDictionary
  3
STANDARD
350
6C
  0
DICTIONARY
  5
17
102
{ACAD_REACTORS
330
C
102
}
330
C
100
AcDbDictionary
  3
STANDARD
350
18
  0
DICTIONARY
  5
19
102
{ACAD_REACTORS
330
C
102
}
330
C
100
AcDbDictionary
  0
DICTIONARY
  5
47
102
{ACAD_REACTORS
330
C
102
}
330
C
100
AcDbDictionary
  3
A0
350
48
  3
A1
350
49
  3
A2
350
4A
  3
A3
350
4B
  3
A4
350
4C
  3
A5
350
4D
  3
A6
350
4E
  3
A7
350
4F
  3
A8
350
50
  3
A9
350
51
  3
B0
350
52
  3
B1
350
53
  3
B2
350
54
  3
B3
350
55
  3
B4
350
56
  3
B5
350
57
  3
B6
350
58
  3
B7
350
59
  3
B8
350
5A
  3
B9
350
5B
  3
C0
350
5C
  3
C1
350
5D
  3
C2
350
5E
  3
C3
350
5F
  3
C4
350
60
  3
C5
350
61
  3
C6
350
62
  3
C7
350
63
  3
C8
350
64
  3
C9
350
65
  3
D0
350
66
  3
D1
350
67
  3
D2
350
68
  0
DICTIONARY
  5
2A
102
{ACAD_REACTORS
330
C
102
}
330
C
100
AcDbDictionary
  3
2DWIREFRAME
350
2F
  3
BASIC
350
32
  3
BRIGHTEN
350
36
  3
COLORCHANGE
350
3A
  3
CONCEPTUAL
350
34
  3
DIM
350
35
  3
EDGECOLOROFF
350
3D
  3
FACEPATTERN
350
39
  3
FLAT
350
2B
  3
FLATWITHEDGES
350
2C
  3
GOURAUD
350
2D
  3
GOURAUDWITHEDGES
350
2E
  3
HIDDEN
350
31
  3
JITTEROFF
350
3B
  3
LINEPATTERN
350
38
  3
OVERHANGOFF
350
3C
  3
REALISTIC
350
33
  3
SHADED
350
42
  3
SHADED_WITH_EDGES
350
41
  3
SHADES_OF_GRAY
350
3E
  3
SKETCHY
350
3F
  3
THICKEN
350
37
  3
WIREFRAME
350
30
  3
X-RAY
350
40
  0
DICTIONARY
  5
3A4
102
{ACAD_REACTORS
330
C
102
}
330
C
100
AcDbDictionary
  3
CEPSNID
350
3AE
  3
CEPSNTYPE
350
3AD
  3
DIMSTYLEDATA
350
3C4
  3
FINGERPRINTGUID
350
3AF
  3
HYPERLINKBASE
350
3A7
  3
INSUNITS
350
3AC
  3
LAYOUTDICT
350
3A9
  3
LWETCUNION
350
3AB
  3
PLOTSETDICT
350
3AA
  3
PSVPSCALE
350
3B1
  3
PUCSBASE
350
3B4
  3
PUCSORGBACK
350
3BA
  3
PUCSORGBOTTOM
350
3B6
  3
PUCSORGFRONT
350
3B9
  3
PUCSORGLEFT
350
3B7
  3
PUCSORGRIGHT
350
3B8
  3
PUCSORGTOP
350
3B5
  3
PUCSORTHOREF
350
3B2
  3
PUCSORTHOVIEW
350
3B3
  3
STYLESHEET
350
3A8
  3
TSTACKALIGN
350
3A5
  3
TSTACKSIZE
350
3A6
  3
UCSBASE
350
3BD
  3
UCSORGBACK
350
3C3
  3
UCSORGBOTTOM
350
3BF
  3
UCSORGFRONT
350
3C2
  3
UCSORGLEFT
350
3C0
  3
UCSORGRIGHT
350
3C1
  3
UCSORGTOP
350
3BE
  3
UCSORTHOREF
350
3BB
  3
UCSORTHOVIEW
350
3BC
  3
VERSIONGUID
350
3B0
  0
DICTIONARY
  5
3C5
102
{ACAD_REACTORS
330
C
102
}
330
C
100
AcDbDictionary
  3
CANNOSCALE
350
3CE
  3
CMLEADERSTYLE
350
3C7
  3
CTABLESTYLE
350
3C6
  3
DIMASSOC
350
3CA
  3
HIDETEXT
350
3CB
  3
MSLTSCALE
350
3CF
  0
XRECORD
  5
3CD
102
{ACAD_REACTORS
330
3CC
102
}
330
3CC
100
AcDbXrecord
102
VTR_0.000_0.000_1.000_1.000_VISUALSTYLE
340
2F
102
VTR_0.000_0.000_1.000_1.000_GRIDDISPLAY
 70
     3
102
VTR_0.000_0.000_1.000_1.000_GRIDMAJOR
 70
     5
102
VTR_0.000_0.000_1.000_1.000_DEFAULTLIGHTING
280
     1
102
VTR_0.000_0.000_1.000_1.000_DEFAULTLIGHTINGTYPE
 70
     1
102
VTR_0.000_0.000_1.000_1.000_BRIGHTNESS
141
0.0
102
VTR_0.000_0.000_1.000_1.000_CONTRAST
142
0.0
  0
MATERIAL
  5
45
102
{ACAD_REACTORS
330
43
102
}
102
{ACAD_XDICTIONARY
360
3D2
102
}
330
43
100
AcDbMaterial
  1
BYBLOCK
  0
MATERIAL
  5
44
102
{ACAD_REACTORS
330
43
102
}
102
{ACAD_XDICTIONARY
360
3D0
102
}
330
43
100
AcDbMaterial
  1
BYLAYER
  0
MATERIAL
  5
46
102
{ACAD_REACTORS
330
43
102
}
102
{ACAD_XDICTIONARY
360
3D4
102
}
330
43
100
AcDbMaterial
  1
GLOBAL
  0
ACAD_PROXY_OBJECT
  5
6C
102
{ACAD_REACTORS
330
6B
102
}
330
6B
100
AcDbProxyObject
 90
      499
 91
      505
 93
      610
310
40901902A4063FBFFFFFE056BD1B81E855B9FC0AD7A3703D0AD73F4214DD185B99185C9900AD7A3703D0AC73F90141901A02B5E8DC0F42B1CFC02B5E8DC0F42B1CFE5764000000000000300FC0
340
14
340
0
340
11
340
0
 94
        0
1001
ACAD_MLEADERVER
1070
     2
  0
MLINESTYLE
  5
18
102
{ACAD_REACTORS
330
17
102
}
330
17
100
AcDbMlineStyle
  2
Standard
 70
     0
  3

 62
   256
 51
90.0
 52
90.0
 71
     2
 49
0.5
 62
   256
  6
BYLAYER
 49
-0.5
 62
   256
  6
BYLAYER
  0
ACAD_PROXY_OBJECT
  5
48
102
{ACAD_REACTORS
330
47
102
}
330
47
100
AcDbProxyObject
 90
      499
 91
      503
 93
       41
310
903313A31580
  0
ACAD_PROXY_OBJECT
  5
49
102
{ACAD_REACTORS
330
47
102
}
330
47
100
AcDbProxyObject
 90
      499
 91
      503
 93
      105
310
903313A324000000000000004000
  0
ACAD_PROXY_OBJECT
  5
4A
102
{ACAD_REACTORS
330
47
102
}
330
47
100
AcDbProxyObject
 90
      499
 91
      503
 93
      105
310
903313A344000000000000104000
  0
ACAD_PROXY_OBJECT
  5
4B
102
{ACAD_REACTORS
330
47
102
}
330
47
100
AcDbProxyObject
 90
      499
 91
      503
 93
      105
310
903313A354000000000000144000
  0
ACAD_PROXY_OBJECT
  5
4C
102
{ACAD_REACTORS
330
47
102
}
330
47
100
AcDbProxyObject
 90
      499
 91
      503
 93
      105
310
903313A384000000000000204000
  0
ACAD_PROXY_OBJECT
  5
4D
102
{ACAD_REACTORS
330
47
102
}
330
47
100
AcDbProxyObject
 90
      499
 91
      503
 93
      113
310
904313A31304000000000000244000
  0
ACAD_PROXY_OBJECT
  5
4E
102
{ACAD_REACTORS
330
47
102
}
330
47
100
AcDbProxyObject
 90
      499
 91
      503
 93
      113
310
904313A31364000000000000304000
  0
ACAD_PROXY_OBJECT
  5
4F
102
{ACAD_REACTORS
330
47
102
}
330
47
100
AcDbProxyObject
 90
      499
 91
      503
 93
      113
310
904313A32304000000000000344000
  0
ACAD_PROXY_OBJECT
  5
50
102
{ACAD_REACTORS
330
47
102
}
330
47
100
AcDbProxyObject
 90
      499
 91
      503
 93
      113
310
904313A333040000000000003E4000
  0
ACAD_PROXY_OBJECT
  5
51
102
{ACAD_REACTORS
330
47
102
}
330
47
100
AcDbProxyObject
 90
      499
 91
      503
 93
      113
310
904313A34304000000000000444000
  0
ACAD_PROXY_OBJECT
  5
52
102
{ACAD_REACTORS
330
47
102
}
330
47
100
AcDbProxyObject
 90
      499
 91
      503
 93
      113
310
904313A35304000000000000494000
  0
ACAD_PROXY_OBJECT
  5
53
102
{ACAD_REACTORS
330
47
102
}
330
47
100
AcDbProxyObject
 90
      499
 91
      503
 93
      121
310
905313A3130304000000000000594000
  0
ACAD_PROXY_OBJECT
  5
54
102
{ACAD_REACTORS
330
47
102
}
330
47
100
AcDbProxyObject
 90
      499
 91
      503
 93
      105
310
903323A310000000000000010100
  0
ACAD_PROXY_OBJECT
  5
55
102
{ACAD_REACTORS
330
47
102
}
330
47
100
AcDbProxyObject
 90
      499
 91
      503
 93
      105
310
903343A310000000000000410100
  0
ACAD_PROXY_OBJECT
  5
56
102
{ACAD_REACTORS
330
47
102
}
330
47
100
AcDbProxyObject
 90
      499
 91
      503
 93
      105
310
903383A310000000000000810100
  0
ACAD_PROXY_OBJECT
  5
57
102
{ACAD_REACTORS
330
47
102
}
330
47
100
AcDbProxyObject
 90
      499
 91
      503
 93
      113
310
90431303A310000000000000910100
  0
ACAD_PROXY_OBJECT
  5
58
102
{ACAD_REACTORS
330
47
102
}
330
47
100
AcDbProxyObject
 90
      499
 91
      503
 93
      121
310
9053130303A310000000000001650100
  0
ACAD_PROXY_OBJECT
  5
59
102
{ACAD_REACTORS
330
47
102
}
330
47
100
AcDbProxyObject
 90
      499
 91
      503
 93
      257
310
90E312F31323822203D2031272D3022000000000000200FC000000000000284000
  0
ACAD_PROXY_OBJECT
  5
5A
102
{ACAD_REACTORS
330
47
102
}
330
47
100
AcDbProxyObject
 90
      499
 91
      503
 93
      249
310
90D312F363422203D2031272D3022000000000000240FC000000000000284000
  0
ACAD_PROXY_OBJECT
  5
5B
102
{ACAD_REACTORS
330
47
102
}
330
47
100
AcDbProxyObject
 90
      499
 91
      503
 93
      249
310
90D312F333222203D2031272D3022000000000000280FC000000000000284000
  0
ACAD_PROXY_OBJECT
  5
5C
102
{ACAD_REACTORS
330
47
102
}
330
47
100
AcDbProxyObject
 90
      499
 91
      503
 93
      249
310
90D312F313622203D2031272D30220000000000002C0FC000000000000284000
  0
ACAD_PROXY_OBJECT
  5
5D
102
{ACAD_REACTORS
330
47
102
}
330
47
100
AcDbProxyObject
 90
      499
 91
      503
 93
      249
310
90D332F333222203D2031272D30220000000000002E0FC000000000000284000
  0
ACAD_PROXY_OBJECT
  5
5E
102
{ACAD_REACTORS
330
47
102
}
330
47
100
AcDbProxyObject
 90
      499
 91
      503
 93
      241
310
90C312F3822203D2031272D3022000000000000300FC000000000000284000
  0
ACAD_PROXY_OBJECT
  5
5F
102
{ACAD_REACTORS
330
47
102
}
330
47
100
AcDbProxyObject
 90
      499
 91
      503
 93
      249
310
90D332F313622203D2031272D3022000000000000320FC000000000000284000
  0
ACAD_PROXY_OBJECT
  5
60
102
{ACAD_REACTORS
330
47
102
}
330
47
100
AcDbProxyObject
 90
      499
 91
      503
 93
      241
310
90C312F3422203D2031272D3022000000000000340FC000000000000284000
  0
ACAD_PROXY_OBJECT
  5
61
102
{ACAD_REACTORS
330
47
102
}
330
47
100
AcDbProxyObject
 90
      499
 91
      503
 93
      241
310
90C332F3822203D2031272D3022000000000000360FC000000000000284000
  0
ACAD_PROXY_OBJECT
  5
62
102
{ACAD_REACTORS
330
47
102
}
330
47
100
AcDbProxyObject
 90
      499
 91
      503
 93
      241
310
90C312F3222203D2031272D3022000000000000380FC000000000000284000
  0
ACAD_PROXY_OBJECT
  5
63
102
{ACAD_REACTORS
330
47
102
}
330
47
100
AcDbProxyObject
 90
      499
 91
      503
 93
      241
310
90C332F3422203D2031272D30220000000000003A0FC000000000000284000
  0
ACAD_PROXY_OBJECT
  5
64
102
{ACAD_REACTORS
330
47
102
}
330
47
100
AcDbProxyObject
 90
      499
 91
      503
 93
      161
310
90A3122203D2031272D30224000000000000284000
  0
ACAD_PROXY_OBJECT
  5
65
102
{ACAD_REACTORS
330
47
102
}
330
47
100
AcDbProxyObject
 90
      499
 91
      503
 93
      257
310
90E312D312F3222203D2031272D30220000000000003E0FC000000000000284000
  0
ACAD_PROXY_OBJECT
  5
66
102
{ACAD_REACTORS
330
47
102
}
330
47
100
AcDbProxyObject
 90
      499
 91
      503
 93
      225
310
90A3322203D2031272D302200000000000002100000000000000284000
  0
ACAD_PROXY_OBJECT
  5
67
102
{ACAD_REACTORS
330
47
102
}
330
47
100
AcDbProxyObject
 90
      499
 91
      503
 93
      225
310
90A3622203D2031272D302200000000000006100000000000000284000
  0
ACAD_PROXY_OBJECT
  5
68
102
{ACAD_REACTORS
330
47
102
}
330
47
100
AcDbProxyObject
 90
      499
 91
      503
 93
      249
310
90D31272D3022203D2031272D30220000000000000A100000000000000284000
  0
ACAD_PROXY_OBJECT
  5
2F
102
{ACAD_REACTORS
330
2A
102
}
330
2A
100
AcDbProxyObject
 90
      499
 91
      501
 93
      436
310
42CC9915DA5C99599C985B595049028333333333333E33F0000000000000F90107901411070040501600405405064090741402480A0340
1001
ACAD
1000
AcDbSavedByObjectVersion
1070
     0
  0
ACAD_PROXY_OBJECT
  5
32
102
{ACAD_REACTORS
330
2A
102
}
330
2A
100
AcDbProxyObject
 90
      499
 91
      501
 93
      388
310
4150985CDA58D07406404333333333333E33F0000000000000F90107A41107004050150841D405064090741402480A0350
1001
ACAD
1000
AcDbSavedByObjectVersion
1070
     0
  0
ACAD_PROXY_OBJECT
  5
36
102
{ACAD_REACTORS
330
2A
102
}
330
2A
100
AcDbProxyObject
 90
      499
 91
      501
 93
      428
310
42109C9A59DA1D195B90C409028333333333333E33F0000000000000F9010790141107004050150841D405064090741402480A029950
1001
ACAD
1000
AcDbSavedByObjectVersion
1070
     0
  0
ACAD_PROXY_OBJECT
  5
3A
102
{ACAD_REACTORS
330
2A
102
}
330
2A
100
AcDbProxyObject
 90
      499
 91
      501
 93
      452
310
42D0DBDB1BDC90DA185B99D95104090240C333333333333E33F0000000000000F90108901411070040501508421405064090741402480A0350
1001
ACAD
1000
AcDbSavedByObjectVersion
1070
     0
  0
ACAD_PROXY_OBJECT
  5
34
102
{ACAD_REACTORS
330
2A
102
}
330
2A
100
AcDbProxyObject
 90
      499
 91
      501
 93
      500
310
4290DBDB98D95C1D1D585B10940D028333333333333E33F0000000000000F90107902409070040501000000000018199010841D405064090740C02480A0340
1001
ACAD
1000
AcDbSavedByObjectVersion
1070
     0
  0
ACAD_PROXY_OBJECT
  5
35
102
{ACAD_REACTORS
330
2A
102
}
330
2A
100
AcDbProxyObject
 90
      499
 91
      501
 93
      412
310
40D11A5B50B409028333333333333E33F0000000000000F9010790141107004050150841D405064090741402480A02677FFFFFD0
1001
ACAD
1000
AcDbSavedByObjectVersion
1070
     0
  0
ACAD_PROXY_OBJECT
  5
3D
102
{ACAD_REACTORS
330
2A
102
}
330
2A
100
AcDbProxyObject
 90
      499
 91
      501
 93
      452
310
43115919D950DBDB1BDC93D999916409028333333333333E33F0000000000000F9010790141107004050150841D405064090741402480A0350
1001
ACAD
1000
AcDbSavedByObjectVersion
1070
     0
  0
ACAD_PROXY_OBJECT
  5
39
102
{ACAD_REACTORS
330
2A
102
}
330
2A
100
AcDbProxyObject
 90
      499
 91
      501
 93
      444
310
42D19858D95C185D1D195C9B90F409028333333333333E33F0000000000000F9010790141107004050150841D405064090741402480A0350
1001
ACAD
1000
AcDbSavedByObjectVersion
1070
     0
  0
ACAD_PROXY_OBJECT
  5
2B
102
{ACAD_REACTORS
330
2A
102
}
330
2A
100
AcDbProxyObject
 90
      499
 91
      501
 93
      380
310
41119B185D240901404333333333333E33F0000000000000F9010740A907004050150841D405064090741402480A1B50
1001
ACAD
1000
AcDbSavedByObjectVersion
1070
     0
  0
ACAD_PROXY_OBJECT
  5
2C
102
{ACAD_REACTORS
330
2A
102
}
330
2A
100
AcDbProxyObject
 90
      499
 91
      501
 93
      468
310
43519B185D15DA5D1A115919D95CD0140901404333333333333E33F0000000000000F90107409019070040501600405405064090741402480A1B50
1001
ACAD
1000
AcDbSavedByObjectVersion
1070
     0
  0
ACAD_PROXY_OBJECT
  5
2D
102
{ACAD_REACTORS
330
2A
102
}
330
2A
100
AcDbProxyObject
 90
      499
 91
      501
 93
      404
310
41D1DBDD5C985D5910240902404333333333333E33F0000000000000F9010740A9070040501641D405064090741402480A1B50
1001
ACAD
1000
AcDbSavedByObjectVersion
1070
     0
  0
ACAD_PROXY_OBJECT
  5
2E
102
{ACAD_REACTORS
330
2A
102
}
330
2A
100
AcDbProxyObject
 90
      499
 91
      501
 93
      492
310
4411DBDD5C985D5915DA5D1A115919D95CD0340902404333333333333E33F0000000000000F90107409019070040501600405405064090741402480A1B50
1001
ACAD
1000
AcDbSavedByObjectVersion
1070
     0
  0
ACAD_PROXY_OBJECT
  5
31
102
{ACAD_REACTORS
330
2A
102
}
330
2A
100
AcDbProxyObject
 90
      499
 91
      501
 93
      476
310
41921A5919195B90640502408333333333333E33F0000000000000F901079024090700405020000000000001110200405405064090740C02480A0340
1001
ACAD
1000
AcDbSavedByObjectVersion
1070
     0
  0
ACAD_PROXY_OBJECT
  5
3B
102
{ACAD_REACTORS
330
2A
102
}
330
2A
100
AcDbProxyObject
 90
      499
 91
      501
 93
      428
310
42529A5D1D195C93D999914409028333333333333E33F0000000000000F9010790141107004050150A41D405064090741402480A0350
1001
ACAD
1000
AcDbSavedByObjectVersion
1070
     0
  0
ACAD_PROXY_OBJECT
  5
38
102
{ACAD_REACTORS
330
2A
102
}
330
2A
100
AcDbProxyObject
 90
      499
 91
      501
 93
      444
310
42D31A5B995C185D1D195C9B90E409028333333333333E33F0000000000000F9010790141107004050750841D405064090741402483A0350
1001
ACAD
1000
AcDbSavedByObjectVersion
1070
     0
  0
ACAD_PROXY_OBJECT
  5
3C
102
{ACAD_REACTORS
330
2A
102
}
330
2A
100
AcDbProxyObject
 90
      499
 91
      501
 93
      444
310
42D3DD995C9A185B99D3D999915409028333333333333E33F0000000000000F9010790141107004050150941D405064090741402480A0350
1001
ACAD
1000
AcDbSavedByObjectVersion
1070
     0
  0
ACAD_PROXY_OBJECT
  5
33
102
{ACAD_REACTORS
330
2A
102
}
330
2A
100
AcDbProxyObject
 90
      499
 91
      501
 93
      428
310
425499585B1A5CDD1A58D08409038333333333333E33F0000000000000F9010740A907004050150800405405064090740C02480A1B40
1001
ACAD
1000
AcDbSavedByObjectVersion
1070
     0
  0
ACAD_PROXY_OBJECT
  5
42
102
{ACAD_REACTORS
330
2A
102
}
330
2A
100
AcDbProxyObject
 90
      499
 91
      501
 93
      420
310
4194DA1859195911B40902404333333333333E33F0000000000000F9010740A41107004050150800405405064090840C02480A0B40
1001
ACAD
1000
AcDbSavedByObjectVersion
1070
     0
  0
ACAD_PROXY_OBJECT
  5
41
102
{ACAD_REACTORS
330
2A
102
}
330
2A
100
AcDbProxyObject
 90
      499
 91
      501
 93
      516
310
4454DA18591959081DDA5D1A08195919D95CD1A40902404333333333333E33F0000000000000F901074090142907004050250800405405064090740C02480A0B40
1001
ACAD
1000
AcDbSavedByObjectVersion
1070
     0
  0
ACAD_PROXY_OBJECT
  5
3E
102
{ACAD_REACTORS
330
2A
102
}
330
2A
100
AcDbProxyObject
 90
      499
 91
      501
 93
      532
310
4394DA1859195CC81BD98811DC985E5174090240C333333333333E33F0000000000000F901079024090741D01000000000000111010841D405064090740C02480A0340
1001
ACAD
1000
AcDbSavedByObjectVersion
1070
     0
  0
ACAD_PROXY_OBJECT
  5
3F
102
{ACAD_REACTORS
330
2A
102
}
330
2A
100
AcDbProxyObject
 90
      499
 91
      501
 93
      476
310
41D4DAD95D18DA1E51840502408333333333333E33F0000000000000F901079024090741D01000000000000111010B41D405064090741802480A0340
1001
ACAD
1000
AcDbSavedByObjectVersion
1070
     0
  0
ACAD_PROXY_OBJECT
  5
37
102
{ACAD_REACTORS
330
2A
102
}
330
2A
100
AcDbProxyObject
 90
      499
 91
      501
 93
      412
310
41D51A1A58DAD95B90D409028333333333333E33F0000000000000F9010790141107004050150C41D405064090741402480A0350
1001
ACAD
1000
AcDbSavedByObjectVersion
1070
     0
  0
ACAD_PROXY_OBJECT
  5
30
102
{ACAD_REACTORS
330
2A
102
}
330
2A
100
AcDbProxyObject
 90
      499
 91
      501
 93
      420
310
4255DA5C99599C985B595059028333333333333E33F0000000000000F90107901411070040501600405405064090740C02480A0340
1001
ACAD
1000
AcDbSavedByObjectVersion
1070
     0
  0
ACAD_PROXY_OBJECT
  5
40
102
{ACAD_REACTORS
330
2A
102
}
330
2A
100
AcDbProxyObject
 90
      499
 91
      501
 93
      404
310
41560B54985E51940902404000000000000E03F0000000000000F9010740501907004050150841D405064090740C02480A1B40
1001
ACAD
1000
AcDbSavedByObjectVersion
1070
     0
  0
XRECORD
  5
3AE
102
{ACAD_REACTORS
330
3A4
102
}
330
3A4
100
AcDbXrecord
340
0
  0
XRECORD
  5
3AD
102
{ACAD_REACTORS
330
3A4
102
}
330
3A4
100
AcDbXrecord
 90
        0
  0
XRECORD
  5
3C4
102
{ACAD_REACTORS
330
3A4
102
}
330
3A4
100
AcDbXrecord
1000
DSTYLE
1002
{
1070
   171
 70
     2
1070
   143
 40
25.4
1070
   274
 70
     2
1070
    41
 40
0.18
1070
   141
 40
0.09
1070
   271
 70
     4
1070
    43
 40
0.38
1070
   278
 70
    46
1070
    44
 40
0.18
1070
    42
 40
0.0625
1070
   147
 40
0.09
1070
    77
 70
     0
1070
   272
 70
     4
1070
    73
 70
     1
1070
   172
 70
     0
1070
    74
 70
     1
1070
   283
 70
     1
1070
   340
340
11
1070
   140
 40
0.18
1070
   284
 70
     0
1070
    78
 70
     0
1002
}
  0
XRECORD
  5
3AF
102
{ACAD_REACTORS
330
3A4
102
}
330
3A4
100
AcDbXrecord
  1
{4ccc6529-1dfa-2c43-81a6-c1717da3312e}
  0
XRECORD
  5
3A7
102
{ACAD_REACTORS
330
3A4
102
}
330
3A4
100
AcDbXrecord
  1

  0
XRECORD
  5
3AC
102
{ACAD_REACTORS
330
3A4
102
}
330
3A4
100
AcDbXrecord
 90
        4
  0
XRECORD
  5
3A9
102
{ACAD_REACTORS
330
3A4
102
}
330
3A4
100
AcDbXrecord
340
1A
  0
XRECORD
  5
3AB
102
{ACAD_REACTORS
330
3A4
102
}
330
3A4
100
AcDbXrecord
 90
    10781
  0
XRECORD
  5
3AA
102
{ACAD_REACTORS
330
3A4
102
}
330
3A4
100
AcDbXrecord
340
19
  0
XRECORD
  5
3B1
102
{ACAD_REACTORS
330
3A4
102
}
330
3A4
100
AcDbXrecord
 40
0.0
  0
XRECORD
  5
3B4
102
{ACAD_REACTORS
330
3A4
102
}
330
3A4
100
AcDbXrecord
340
0
  0
XRECORD
  5
3BA
102
{ACAD_REACTORS
330
3A4
102
}
330
3A4
100
AcDbXrecord
 10
0.0
 20
0.0
 30
0.0
  0
XRECORD
  5
3B6
102
{ACAD_REACTORS
330
3A4
102
}
330
3A4
100
AcDbXrecord
 10
0.0
 20
0.0
 30
0.0
  0
XRECORD
  5
3B9
102
{ACAD_REACTORS
330
3A4
102
}
330
3A4
100
AcDbXrecord
 10
0.0
 20
0.0
 30
0.0
  0
XRECORD
  5
3B7
102
{ACAD_REACTORS
330
3A4
102
}
330
3A4
100
AcDbXrecord
 10
0.0
 20
0.0
 30
0.0
  0
XRECORD
  5
3B8
102
{ACAD_REACTORS
330
3A4
102
}
330
3A4
100
AcDbXrecord
 10
0.0
 20
0.0
 30
0.0
  0
XRECORD
  5
3B5
102
{ACAD_REACTORS
330
3A4
102
}
330
3A4
100
AcDbXrecord
 10
0.0
 20
0.0
 30
0.0
  0
XRECORD
  5
3B2
102
{ACAD_REACTORS
330
3A4
102
}
330
3A4
100
AcDbXrecord
340
0
  0
XRECORD
  5
3B3
102
{ACAD_REACTORS
330
3A4
102
}
330
3A4
100
AcDbXrecord
 70
     0
  0
XRECORD
  5
3A8
102
{ACAD_REACTORS
330
3A4
102
}
330
3A4
100
AcDbXrecord
  1

  0
XRECORD
  5
3A5
102
{ACAD_REACTORS
330
3A4
102
}
330
3A4
100
AcDbXrecord
 90
        1
  0
XRECORD
  5
3A6
102
{ACAD_REACTORS
330
3A4
102
}
330
3A4
100
AcDbXrecord
 90
       70
  0
XRECORD
  5
3BD
102
{ACAD_REACTORS
330
3A4
102
}
330
3A4
100
AcDbXrecord
340
0
  0
XRECORD
  5
3C3
102
{ACAD_REACTORS
330
3A4
102
}
330
3A4
100
AcDbXrecord
 10
0.0
 20
0.0
 30
0.0
  0
XRECORD
  5
3BF
102
{ACAD_REACTORS
330
3A4
102
}
330
3A4
100
AcDbXrecord
 10
0.0
 20
0.0
 30
0.0
  0
XRECORD
  5
3C2
102
{ACAD_REACTORS
330
3A4
102
}
330
3A4
100
AcDbXrecord
 10
0.0
 20
0.0
 30
0.0
  0
XRECORD
  5
3C0
102
{ACAD_REACTORS
330
3A4
102
}
330
3A4
100
AcDbXrecord
 10
0.0
 20
0.0
 30
0.0
  0
XRECORD
  5
3C1
102
{ACAD_REACTORS
330
3A4
102
}
330
3A4
100
AcDbXrecord
 10
0.0
 20
0.0
 30
0.0
  0
XRECORD
  5
3BE
102
{ACAD_REACTORS
330
3A4
102
}
330
3A4
100
AcDbXrecord
 10
0.0
 20
0.0
 30
0.0
  0
XRECORD
  5
3BB
102
{ACAD_REACTORS
330
3A4
102
}
330
3A4
100
AcDbXrecord
340
0
  0
XRECORD
  5
3BC
102
{ACAD_REACTORS
330
3A4
102
}
330
3A4
100
AcDbXrecord
 70
     0
  0
XRECORD
  5
3B0
102
{ACAD_REACTORS
330
3A4
102
}
330
3A4
100
AcDbXrecord
  1
{FAEB1C32-E019-11D5-929B-00C0DF256EC4}
  0
DICTIONARYVAR
  5
3CE
102
{ACAD_REACTORS
330
3C5
102
}
330
3C5
100
DictionaryVariables
280
     0
  1
1:1
  0
DICTIONARYVAR
  5
3C7
102
{ACAD_REACTORS
330
3C5
102
}
330
3C5
100
DictionaryVariables
280
     0
  1
Standard
  0
DICTIONARYVAR
  5
3C6
102
{ACAD_REACTORS
330
3C5
102
}
330
3C5
100
DictionaryVariables
280
     0
  1
Standard
  0
DICTIONARYVAR
  5
3CA
102
{ACAD_REACTORS
330
3C5
102
}
330
3C5
100
DictionaryVariables
280
     0
  1
2
  0
DICTIONARYVAR
  5
3CB
102
{ACAD_REACTORS
330
3C5
102
}
330
3C5
100
DictionaryVariables
280
     0
  1
1
  0
DICTIONARYVAR
  5
3CF
102
{ACAD_REACTORS
330
3C5
102
}
330
3C5
100
DictionaryVariables
280
     0
  1
1
  0
DICTIONARY
  5
3D2
330
45
100
AcDbDictionary
280
     1
  3
ACAD_XREC_ROUNDTRIP
360
3D3
  0
DICTIONARY
  5
3D0
330
44
100
AcDbDictionary
280
     1
  3
ACAD_XREC_ROUNDTRIP
360
3D1
  0
DICTIONARY
  5
3D4
330
46
100
AcDbDictionary
280
     1
  3
ACAD_XREC_ROUNDTRIP
360
3D5
  0
XRECORD
  5
3D3
102
{ACAD_REACTORS
330
3D2
102
}
330
3D2
100
AcDbXrecord
102
MATERIAL
148
0.0
149
0.0
149
0.0
 93
        0
 94
      127
282
     0
 72
     1
 77
     1
171
     1
175
     1
179
     1
273
     0
  0
XRECORD
  5
3D1
102
{ACAD_REACTORS
330
3D0
102
}
330
3D0
100
AcDbXrecord
102
MATERIAL
148
0.0
149
0.0
149
0.0
 93
        0
 94
      127
282
     0
 72
     1
 77
     1
171
     1
175
     1
179
     1
273
     0
  0
XRECORD
  5
3D5
102
{ACAD_REACTORS
330
3D4
102
}
330
3D4
100
AcDbXrecord
102
MATERIAL
148
0.0
149
0.0
149
0.0
 93
        0
 94
      127
282
     0
 72
     1
 77
     1
171
     1
175
     1
179
     1
273
     0
  0
ENDSEC
  0
EOF
