 999
Imperial - Created with Simple DXF 20180722
 999
Bits=0
 0
SECTION
 2
HEADER
 0
ENDSEC
 999
********************************
 0
SECTION
 2
BLOCKS
 0
BLOCK
 8
Layer0
 2
Component#1
 70
64
 10
0
 20
0
 30
0
 0
CIRCLE
 8
Layer0
 10
0.5313
 20
0.5313
 30
0
 39
0
 40
0.5312
 999
********************************
 0
SEQEND
 0
ENDBLK
 999
********************************
 0
BLOCK
 8
Layer0
 2
t1
 70
64
 10
0
 20
0
 30
0
 0
POLYLINE
 8
Layer0
 70
1
 10
12
 20
6.375
 30
0
 39
0
 66
1
 0
VERTEX
 8
Layer0
 10
12
 20
6.375
 30
0
 0
VERTEX
 8
Layer0
 10
12
 20
3.125
 30
0
 0
VERTEX
 8
Layer0
 10
3.25
 20
3.125
 30
0
 0
VERTEX
 8
Layer0
 10
3.25
 20
0
 30
0
 0
VERTEX
 8
Layer0
 10
0
 20
0
 30
0
 0
VERTEX
 8
Layer0
 10
0
 20
9.5
 30
0
 0
VERTEX
 8
Layer0
 10
3.25
 20
9.5
 30
0
 0
VERTEX
 8
Layer0
 10
3.25
 20
6.375
 30
0
 0
SEQEND
 999
********************************
 0
SEQEND
 0
ENDBLK
 999
********************************
 0
ENDSEC
 999
********************************
 0
SECTION
 2
ENTITIES
 0
INSERT
 8
Layer0
 2
Component#1
 10
9.9688
 20
4.2187
 30
0
 0
INSERT
 8
Layer0
 2
Component#1
 10
1.0938
 20
4.2187
 30
0
 0
INSERT
 8
Layer0
 2
Component#1
 10
1.0938
 20
7.2812
 30
0
 0
INSERT
 8
Layer0
 2
Component#1
 10
6.9063
 20
4.2187
 30
0
 0
INSERT
 8
Layer0
 2
Component#1
 10
1.0938
 20
1.1562
 30
0
 0
INSERT
 8
Layer0
 2
Component#1
 10
13.5937
 20
6.7188
 30
0
 0
INSERT
 8
Layer0
 2
Component#1
 10
4.7187
 20
9.7813
 30
0
 0
INSERT
 8
Layer0
 2
Component#1
 10
7.7812
 20
9.7813
 30
0
 0
INSERT
 8
Layer0
 2
Component#1
 10
9.9688
 20
15.3437
 30
0
 0
INSERT
 8
Layer0
 2
Component#1
 10
1.0938
 20
15.3437
 30
0
 0
INSERT
 8
Layer0
 2
Component#1
 10
13.5937
 20
9.7813
 30
0
 0
INSERT
 8
Layer0
 2
Component#1
 10
1.0938
 20
18.4062
 30
0
 0
INSERT
 8
Layer0
 2
Component#1
 10
6.9063
 20
15.3437
 30
0
 0
INSERT
 8
Layer0
 2
Component#1
 10
1.0938
 20
12.2812
 30
0
 0
INSERT
 8
Layer0
 2
Component#1
 10
13.5937
 20
12.8438
 30
0
 0
INSERT
 8
Layer0
 2
t1
 10
15.75
 20
15.0625
 30
0
 50
180
 0
INSERT
 8
Layer0
 2
t1
 10
0
 20
0
 30
0
 0
INSERT
 8
Layer0
 2
t1
 10
0
 20
11.125
 30
0
 0
ENDSEC
 0
EOF
