  0
SECTION
  2
HEADER
  9
$ACADVER
  1
AC1021
  9
$ACADMAINTVER
 70
    50
  9
$DWGCODEPAGE
  3
ANSI_1252
  9
$INSBASE
 10
0.0
 20
0.0
 30
0.0
  9
$EXTMIN
 10
7727.762
 20
4881.480
 30
206.230
  9
$EXTMAX
 10
8220.059
 20
5377.335
 30
371.436
  9
$LIMMIN
 10
7727.762
 20
4881.480
  9
$LIMMAX
 10
8220.059
 20
5377.335
  9
$ORTHOMODE
 70
     0
  9
$REGENMODE
 70
     1
  9
$FILLMODE
 70
     1
  9
$QTEXTMODE
 70
     0
  9
$MIRRTEXT
 70
     1
  9
$LTSCALE
 40
1.0
  9
$ATTMODE
 70
     0
  9
$TEXTSIZE
 40
0.2
  9
$TRACEWID
 40
0.05
  9
$TEXTSTYLE
  7
MONOTEXT
  9
$CLAYER
  8
0
  9
$CELTYPE
  6
ByLayer
  9
$CECOLOR
 62
256
  9
$CELTSCALE
 40
1.0
  9
$DISPSILH
 70
     0
  9
$DIMSCALE
 40
1.0
  9
$DIMASZ
 40
0.18
  9
$DIMEXO
 40
0.0625
  9
$DIMDLI
 40
0.38
  9
$DIMRND
 40
0.0
  9
$DIMDLE
 40
0.0
  9
$DIMEXE
 40
0.18
  9
$DIMTP
 40
0.0
  9
$DIMTM
 40
0.0
  9
$DIMTXT
 40
0.18
  9
$DIMCEN
 40
0.09
  9
$DIMTSZ
 40
0.0
  9
$DIMTOL
 70
     0
  9
$DIMLIM
 70
     0
  9
$DIMTIH
 70
     1
  9
$DIMTOH
 70
     1
  9
$DIMSE1
 70
     0
  9
$DIMSE2
 70
     0
  9
$DIMTAD
 70
     0
  9
$DIMZIN
 70
     0
  9
$DIMBLK
  1

  9
$DIMASO
 70
     1
  9
$DIMSHO
 70
     0
  9
$DIMPOST
  1

  9
$DIMAPOST
  1

  9
$DIMALT
 70
     0
  9
$DIMALTD
 70
     2
  9
$DIMALTF
 40
25.4
  9
$DIMLFAC
 40
1.0
  9
$DIMTOFL
 70
     0
  9
$DIMTVP
 40
0.0
  9
$DIMTIX
 70
     0
  9
$DIMSOXD
 70
     0
  9
$DIMSAH
 70
     0
  9
$DIMBLK1
  1

  9
$DIMBLK2
  1

  9
$DIMSTYLE
  2
STANDARD
  9
$DIMCLRD
 70
     0
  9
$DIMCLRE
 70
     0
  9
$DIMCLRT
 70
     0
  9
$DIMTFAC
 40
1.0
  9
$DIMGAP
 40
0.09
  9
$DIMJUST
 70
     0
  9
$DIMSD1
 70
     0
  9
$DIMSD2
 70
     0
  9
$DIMTOLJ
 70
     1
  9
$DIMTZIN
 70
     0
  9
$DIMALTZ
 70
     0
  9
$DIMALTTZ
 70
     0
  9
$DIMUPT
 70
     0
  9
$DIMDEC
 70
     4
  9
$DIMTDEC
 70
     4
  9
$DIMALTU
 70
     2
  9
$DIMALTTD
 70
     2
  9
$DIMTXSTY
  7
MONOTEXT
  9
$DIMAUNIT
 70
     1
  9
$DIMADEC
 70
     0
  9
$DIMALTRND
 40
0.0
  9
$DIMAZIN
 70
     0
  9
$DIMDSEP
 70
     0
  9
$DIMATFIT
 70
     3
  9
$DIMFRAC
 70
     0
  9
$DIMLDRBLK
  1

  9
$DIMLUNIT
 70
     2
  9
$DIMLWD
 70
     0
  9
$DIMLWE
 70
     0
  9
$DIMTMOVE
 70
     0
  9
$LUNITS
 70
     2
  9
$LUPREC
 70
     4
  9
$SKETCHINC
 40
0.1
  9
$FILLETRAD
 40
0.0
  9
$AUNITS
 70
     1
  9
$AUPREC
 70
     0
  9
$MENU
  1
ACAD
  9
$ELEVATION
 40
0.0
  9
$PELEVATION
 40
0.0
  9
$THICKNESS
 40
0.0
  9
$LIMCHECK
 70
     0
  9
$CHAMFERA
 40
0.0
  9
$CHAMFERB
 40
0.0
  9
$CHAMFERC
 40
0.0
  9
$CHAMFERD
 40
0.0
  9
$SKPOLY
 70
     0
  9
$TDCREATE
 40
2458601.125394
  9
$TDUCREATE
 40
0.000000000
  9
$TDUPDATE
 40
0.000000000
  9
$TDUUPDATE
 40
2458601.125394
  9
$TDINDWG
 40
0.000000000
  9
$TDUSRTIMER
 40
0.000000000
  9
$USRTIMER
 70
     1
  9
$ANGBASE
 50
0.0
  9
$ANGDIR
 70
     0
  9
$PDMODE
 70
     0
  9
$PDSIZE
 40
0.0
  9
$PLINEWID
 40
0.0
  9
$SPLFRAME
 70
     0
  9
$SPLINETYPE
 70
     6
  9
$SPLINESEGS
 70
     8
  9
$HANDSEED
  5
2000000
  9
$SURFTAB1
 70
     6
  9
$SURFTAB2
 70
     6
  9
$SURFTYPE
 70
     6
  9
$SURFU
 70
     6
  9
$SURFV
 70
     6
  9
$UCSBASE
  2

  9
$UCSORG
 10
0.0
 20
0.0
 30
0.0
  9
$UCSXDIR
 10
3.3
 20
0.0
 30
0.0
  9
$UCSYDIR
 10
0.0
 20
3.3
 30
0.0
  9
$UCSORTHOREF
  2

  9
$UCSORTHOVIEW
 70
     0
  9
$UCSORGTOP
 10
0.0
 20
0.0
 30
0.0
  9
$UCSORGBOTTOM
 10
0.0
 20
0.0
 30
0.0
  9
$UCSORGLEFT
 10
0.0
 20
0.0
 30
0.0
  9
$UCSORGRIGHT
 10
0.0
 20
0.0
 30
0.0
  9
$UCSORGFRONT
 10
0.0
 20
0.0
 30
0.0
  9
$UCSORGBACK
 10
0.0
 20
0.0
 30
0.0
  9
$PUCSBASE
  2

  9
$PUCSNAME
  2

  9
$PUCSORG
 10
0.0
 20
0.0
 30
0.0
  9
$PUCSXDIR
 10
3.3
 20
0.0
 30
0.0
  9
$PUCSYDIR
 10
0.0
 20
3.3
 30
0.0
  9
$PUCSORTHOREF
  2

  9
$PUCSORTHOVIEW
 70
     0
  9
$PUCSORGTOP
 10
0.0
 20
0.0
 30
0.0
  9
$PUCSORGBOTTOM
 10
0.0
 20
0.0
 30
0.0
  9
$PUCSORGLEFT
 10
0.0
 20
0.0
 30
0.0
  9
$PUCSORGRIGHT
 10
0.0
 20
0.0
 30
0.0
  9
$PUCSORGFRONT
 10
0.0
 20
0.0
 30
0.0
  9
$PUCSORGBACK
 10
0.0
 20
0.0
 30
0.0
  9
$USERI1
 70
     0
  9
$USERI2
 70
     0
  9
$USERI3
 70
     0
  9
$USERI4
 70
     0
  9
$USERI5
 70
     0
  9
$USERR1
 40
0.0
  9
$USERR2
 40
0.0
  9
$USERR3
 40
0.0
  9
$USERR4
 40
0.0
  9
$USERR5
 40
0.0
  9
$WORLDVIEW
 70
     1
  9
$SHADEDGE
 70
     3
  9
$SHADEDIF
 70
    70
  9
$TILEMODE
 70
     1
  9
$MAXACTVP
 70
    16
  9
$PINSBASE
 10
0.0
 20
0.0
 30
0.0
  9
$PLIMCHECK
 70
     0
  9
$PEXTMIN
 10
1.000000E+20
 20
1.000000E+20
 30
1.000000E+20
  9
$PEXTMAX
 10
-1.000000E+20
 20
-1.000000E+20
 30
-1.000000E+20
  9
$PLIMMIN
 10
0.0
 20
0.0
  9
$PLIMMAX
 10
39.4
 20
29.5
  9
$UNITMODE
 70
     0
  9
$VISRETAIN
 70
     0
  9
$PLINEGEN
 70
     1
  9
$PSLTSCALE
 70
     1
  9
$TREEDEPTH
 70
  3020
  9
$CMLSTYLE
  2
STANDARD
  9
$CMLJUST
 70
     0
  9
$CMLSCALE
 40
1.0
  9
$PROXYGRAPHICS
 70
     0
  9
$MEASUREMENT
 70
     0
  9
$CELWEIGHT
370
     0
  9
$ENDCAPS
280
     0
  9
$JOINSTYLE
280
     0
  9
$LWDISPLAY
290
     0
  9
$INSUNITS
 70
     2
  9
$HYPERLINKBASE
  1

  9
$STYLESHEET
  1

  9
$XEDIT
290
     1
  9
$CEPSNTYPE
380
     0
  9
$PSTYLEMODE
290
     1
  9
$FINGERPRINTGUID
  2

  9
$VERSIONGUID
  2

  9
$EXTNAMES
290
     1
  9
$PSVPSCALE
 40
0.0
  0
ENDSEC
  0
SECTION
  2
CLASSES
  0
CLASS
  1
LWPOLYLINE
  2
AcDbPolyline
  3
ObjectDBX Classes
 90
        0
 91
        0
280
     0
281
     1
  0
CLASS
  1
IMAGE
  2
AcDbRasterImage
  3
ISM
 90
        0
 91
        0
280
     0
281
     1
  0
CLASS
  1
OLE2FRAME
  2
AcDbOle2Frame
  3
ObjectDBX Classes
 90
        0
 91
        0
280
     0
281
     1
  0
CLASS
  1
HATCH
  2
AcDbHatch
  3
ObjectDBX Classes
 90
        0
 91
        0
280
     0
281
     1
  0
CLASS
  1
DICTIONARYVAR
  2
AcDbDictionaryVar
  3
ObjectDBX Classes
 90
        0
 91
        0
280
     0
281
     0
  0
CLASS
  1
RASTERVARIABLES
  2
AcDbRasterVariables
  3
ISM
 90
        0
 91
        0
280
     0
281
     0
  0
CLASS
  1
IMAGEDEF
  2
AcDbRasterImageDef
  3
ISM
 90
        0
 91
        0
280
     0
281
     0
  0
CLASS
  1
IMAGEDEF_REACTOR
  2
AcDbRasterImageDefReactor
  3
ISM
 90
        0
 91
        0
280
     0
281
     0
  0
CLASS
  1
IDBUFFER
  2
AcDbIdBuffer
  3
ObjectDBX Classes
 90
        0
 91
        0
280
     0
281
     0
  0
CLASS
  1
SPATIAL_FILTER
  2
AcDbSpatialFilter
  3
ObjectDBX Classes
 90
        0
 91
        0
280
     0
281
     0
  0
CLASS
  1
XRECORD
  2
AcDbXrecord
  3
ObjectDBX Classes
 90
        0
 91
        0
280
     0
281
     0
  0
CLASS
  1
SORTENTSTABLE
  2
AcDbSortentsTable
  3
ObjectDBX Classes
 90
        0
 91
        0
280
     0
281
     0
  0
CLASS
  1
LAYER_INDEX
  2
AcDbLayerIndex
  3
ObjectDBX Classes
 90
        0
 91
        0
280
     0
281
     0
  0
CLASS
  1
SPATIAL_INDEX
  2
AcDbSpatialIndex
  3
ObjectDBX Classes
 90
        0
 91
        0
280
     0
281
     0
  0
CLASS
  1
OBJECT_PTR
  2
CAseDLPNTableRecord
  3
ASE-LPNTableRecord
 90
        0
 91
        0
280
     0
281
     0
  0
CLASS
  1
LAYOUT
  2
AcDbLayout
  3
ObjectDBX Classes
 90
        0
 91
        0
280
     0
281
     0
  0
CLASS
  1
PLOTSETTINGS
  2
AcDbPlotSettings
  3
ObjectDBX Classes
 90
        0
 91
        0
280
     0
281
     0
  0
CLASS
  1
ACDBDICTIONARYWDFLT
  2
AcDbDictionaryWithDefault
  3
ObjectDBX Classes
 90
        0
 91
        0
280
     0
281
     0
  0
CLASS
  1
ACDBPLACEHOLDER
  2
AcDbPlaceHolder
  3
ObjectDBX Classes
 90
        0
 91
        0
280
     0
281
     0
  0
CLASS
  1
VBA_PROJECT
  2
AcDbVbaProject
  3
acadvba
 90
        0
 91
        0
280
     0
281
     0
  0
CLASS
  1
WIPEOUT
  2
AcDbWipeout
  3
WipeOut|AutoCAD Express Tool|expresstools@autodesk.com
 90
        0
 91
        0
280
     0
281
     1
  0
CLASS
  1
WIPEOUTVARIABLES
  2
AcDbWipeoutVariables
  3
WipeOut|AutoCAD Express Tool|expresstools@autodesk.com
 90
        0
 91
        0
280
     0
281
     0
  0
CLASS
  1
RTEXT
  2
RText
  3
RText|AutoCAD Express Tool|expresstools@autodesk.com
 90
        0
 91
        0
280
     0
281
     1
  0
CLASS
  1
ARCALIGNEDTEXT
  2
AcDbArcAlignedText
  3
ATEXT|AutoCAD Express Tool|expresstools@autodesk.com
 90
        0
 91
        0
280
     0
281
     1
  0
ENDSEC
  0
SECTION
  2
TABLES
  0
TABLE
  2
VPORT
  5
500
100
AcDbSymbolTable
 70
     1
  0
VPORT
  5
501
100
AcDbSymbolTableRecord
100
AcDbViewportTableRecord
  2
*ACTIVE
 70
     0
 10
0.0
 20
0.0
 11
1.0
 21
1.0
 12
2430.4527
 22
1563.4465
 13
0.0
 23
0.0
 14
1.0
 24
1.0
 15
0.0
 25
0.0
 16
0.0
 26
0.0
 36
1.0
 17
0.0
 27
0.0
 37
0.0
 40
0.000003
 41
1.852941
 42
50.0
 43
0.0
 44
0.0
 50
0.0
 51
0.0
 71
     0
 72
   100
 73
     1
 74
     1
 75
     0
 76
     0
 77
     0
 78
     0
281
     0
 65
     0
110
0.0
120
0.0
130
0.0
111
1.0
121
0.0
131
0.0
112
0.0
122
1.0
132
0.0
345
0
346
0
 79
     0
146
0.0
  0
ENDTAB
  0
TABLE
  2
LTYPE
  5
502
100
AcDbSymbolTable
 70
     3
  0
LTYPE
  5
503
100
AcDbSymbolTableRecord
100
AcDbLinetypeTableRecord
  2
ByBlock
 70
     0
  3

 72
    65
 73
     0
 40
0.0
  0
LTYPE
  5
504
100
AcDbSymbolTableRecord
100
AcDbLinetypeTableRecord
  2
ByLayer
 70
     0
  3

 72
    65
 73
     0
 40
0.0
  0
LTYPE
  5
505
100
AcDbSymbolTableRecord
100
AcDbLinetypeTableRecord
  2
CONTINUOUS
 70
     0
  3
Solid line
 72
    65
 73
     0
 40
0.0
  0
LTYPE
  5
506
100
AcDbSymbolTableRecord
100
AcDbLinetypeTableRecord
  2
DASHED
 70
     0
  3
Dashed line
 72
    65
 73
     2
 40
10.0
 49
5.0
 74
     0
 49
-5.0
 74
     0
  0
ENDTAB
  0
TABLE
  2
LAYER
  5
507
100
AcDbSymbolTable
 70
     1
  0
LAYER
  5
508
100
AcDbSymbolTableRecord
100
AcDbLayerTableRecord
  2
0
 70
     0
 62
     7
  6
CONTINUOUS
290
     1
370
    -3
390
25E
  0
LAYER
  5
509
100
AcDbSymbolTableRecord
100
AcDbLayerTableRecord
  2
Points
 70
     0
 62
     7
  6
CONTINUOUS
290
     1
370
    -3
390
25E
  0
LAYER
  5
510
100
AcDbSymbolTableRecord
100
AcDbLayerTableRecord
  2
Lines
 70
     0
 62
     7
  6
CONTINUOUS
290
     1
370
    -3
390
25E
  0
ENDTAB
  0
TABLE
  2
STYLE
  5
511
100
AcDbSymbolTable
 70
     2
  0
STYLE
  5
512
100
AcDbSymbolTableRecord
100
AcDbTextStyleTableRecord
  2
STANDARD
 70
     0
 40
0.0
 41
1.0
 50
0.0
 71
     0
 42
0.2
  3
txt
  4

  0
STYLE
  5
513
100
AcDbSymbolTableRecord
100
AcDbTextStyleTableRecord
  2
MONOTEXT
 70
     0
 40
0.0
 41
1.0
 50
0.0
 71
     0
 42
0.2
  3
txt
  4

  0
ENDTAB
  0
TABLE
  2
VIEW
  5
514
100
AcDbSymbolTable
 70
     0
  0
ENDTAB
  0
TABLE
  2
UCS
  5
515
100
AcDbSymbolTable
 70
     0
  0
ENDTAB
  0
TABLE
  2
APPID
  5
516
100
AcDbSymbolTable
 70
     1
  0
APPID
  5
517
100
AcDbSymbolTableRecord
100
AcDbRegAppTableRecord
  2
ACAD
 70
     0
  0
ENDTAB
  0
TABLE
  2
DIMSTYLE
  5
518
100
AcDbSymbolTable
 70
     1
100
AcDbDimStyleTable
 71
     0
  0
DIMSTYLE
105
256
100
AcDbSymbolTableRecord
100
AcDbDimStyleTableRecord
  2
STANDARD
 70
     0
  3

  4

 40
1.0
 41
0.18
 42
0.0625
 43
0.38
 44
0.18
 45
0.0
 46
0.0
 47
0.0
 48
0.0
 71
     0
 72
     0
 73
     1
 74
     1
 75
     0
 76
     0
 77
     0
 78
     0
 79
     0
140
0.18
141
0.09
142
0.0
143
25.4
144
1.0
145
0.0
146
1.0
147
0.09
148
0.0
170
     0
171
     2
172
     0
173
     0
174
     0
175
     0
176
     0
177
     0
178
     0
179
     0
271
     4
272
     4
273
     2
274
     2
275
     0
276
     0
277
     2
278
    46
279
     0
280
     0
281
     0
282
     0
283
     1
284
     0
285
     0
286
     0
288
     0
340
10
341
0
342
0
343
0
344
0
371
    -2
372
    -2
  0
ENDTAB
  0
TABLE
  2
BLOCK_RECORD
  5
519
100
AcDbSymbolTable
 70
     9
  0
BLOCK_RECORD
  5
520
100
AcDbSymbolTableRecord
100
AcDbBlockTableRecord
  2
*MODEL_SPACE
340
261
  0
BLOCK_RECORD
  5
521
100
AcDbSymbolTableRecord
100
AcDbBlockTableRecord
  2
*PAPER_SPACE
340
262
  0
BLOCK_RECORD
  5
522
100
AcDbSymbolTableRecord
100
AcDbBlockTableRecord
  2
DOT
340
0
  0
BLOCK_RECORD
  5
523
100
AcDbSymbolTableRecord
100
AcDbBlockTableRecord
  2
CROSS
340
0
  0
BLOCK_RECORD
  5
524
100
AcDbSymbolTableRecord
100
AcDbBlockTableRecord
  2
DIAG_CROSS
340
0
  0
BLOCK_RECORD
  5
525
100
AcDbSymbolTableRecord
100
AcDbBlockTableRecord
  2
CIRCLE
340
0
  0
BLOCK_RECORD
  5
526
100
AcDbSymbolTableRecord
100
AcDbBlockTableRecord
  2
DOUBLE_CIRCLE
340
0
  0
BLOCK_RECORD
  5
527
100
AcDbSymbolTableRecord
100
AcDbBlockTableRecord
  2
TRIANGLE
340
0
  0
BLOCK_RECORD
  5
528
100
AcDbSymbolTableRecord
100
AcDbBlockTableRecord
  2
DOUBLE_TRIANGLE
340
0
  0
BLOCK_RECORD
  5
529
100
AcDbSymbolTableRecord
100
AcDbBlockTableRecord
  2
STAKED_FLAG
340
0
  0
BLOCK_RECORD
  5
530
100
AcDbSymbolTableRecord
100
AcDbBlockTableRecord
  2
BOX
340
0
  0
ENDTAB
  0
ENDSEC
  0
SECTION
  2
BLOCKS
  0
BLOCK
  5
531
100
AcDbEntity
  8
0
100
AcDbBlockBegin
  2
*MODEL_SPACE
 70
     0
 10
0.0
 20
0.0
 30
0.0
  3
*MODEL_SPACE
  1

  0
ENDBLK
  5
532
100
AcDbEntity
  8
0
100
AcDbBlockEnd
  0
BLOCK
  5
533
100
AcDbEntity
 67
     1
  8
0
100
AcDbBlockBegin
  2
*PAPER_SPACE
 70
     0
 10
0.0
 20
0.0
 30
0.0
  3
*PAPER_SPACE
  1

  0
ENDBLK
  5
534
100
AcDbEntity
 67
     1
  8
0
100
AcDbBlockEnd
  0
BLOCK
  5
535
100
AcDbEntity
  8
0
 62
     0
100
AcDbBlockBegin
  2
DOT
 70
     2
 10
100.0
 20
100.0
 30
0.0
  3
DOT
  1

  0
POINT
  5
536
100
AcDbEntity
  8
0
 62
     0
100
AcDbPoint
 10
100.0
 20
100.0
  0
ENDBLK
  5
537
100
AcDbEntity
  8
0
100
AcDbBlockEnd
  0
BLOCK
  5
538
100
AcDbEntity
  8
0
 62
     0
100
AcDbBlockBegin
  2
CROSS
 70
     2
 10
100.0
 20
100.0
 30
0.0
  3
CROSS
  1

  0
LINE
  5
539
100
AcDbEntity
  8
0
 62
     0
100
AcDbLine
 10
0.0
 20
100.0
 11
200.0
 21
100.0
  0
LINE
  5
540
100
AcDbEntity
  8
0
 62
     0
100
AcDbLine
 10
100.0
 20
200.0
 11
100.0
 21
0.0
  0
ENDBLK
  5
541
100
AcDbEntity
  8
0
100
AcDbBlockEnd
  0
BLOCK
  5
542
100
AcDbEntity
  8
0
 62
     0
100
AcDbBlockBegin
  2
DIAG_CROSS
 70
     2
 10
100.0
 20
100.0
 30
0.0
  3
DIAG_CROSS
  1

  0
LINE
  5
543
100
AcDbEntity
  8
0
 62
     0
100
AcDbLine
 10
0.0
 20
200.0
 11
200.0
 21
0.0
  0
LINE
  5
544
100
AcDbEntity
  8
0
 62
     0
100
AcDbLine
 10
0.0
 20
0.0
 11
200.0
 21
200.0
  0
ENDBLK
  5
545
100
AcDbEntity
  8
0
100
AcDbBlockEnd
  0
BLOCK
  5
546
100
AcDbEntity
  8
0
 62
     0
100
AcDbBlockBegin
  2
CIRCLE
 70
     2
 10
100.0
 20
100.0
 30
0.0
  3
CIRCLE
  1

  0
ARC
  5
547
100
AcDbEntity
  8
0
 62
     0
100
AcDbCircle
 10
100.0
 20
100.0
 40
100.0
100
AcDbArc
 50
270.0
 51
90.0
  0
ARC
  5
548
100
AcDbEntity
  8
0
 62
     0
100
AcDbCircle
 10
100.0
 20
100.0
 40
100.0
100
AcDbArc
 50
90.0
 51
270.0
  0
ENDBLK
  5
549
100
AcDbEntity
  8
0
100
AcDbBlockEnd
  0
BLOCK
  5
550
100
AcDbEntity
  8
0
 62
     0
100
AcDbBlockBegin
  2
DOUBLE_CIRCLE
 70
     2
 10
100.0
 20
100.0
 30
0.0
  3
DOUBLE_CIRCLE
  1

  0
ARC
  5
551
100
AcDbEntity
  8
0
 62
     0
100
AcDbCircle
 10
100.0
 20
100.0
 40
100.0
100
AcDbArc
 50
270.0
 51
90.0
  0
ARC
  5
552
100
AcDbEntity
  8
0
 62
     0
100
AcDbCircle
 10
100.0
 20
100.0
 40
100.0
100
AcDbArc
 50
90.0
 51
270.0
  0
ARC
  5
553
100
AcDbEntity
  8
0
 62
     0
100
AcDbCircle
 10
100.0
 20
100.0
 40
70.0
100
AcDbArc
 50
270.0
 51
90.0
  0
ARC
  5
554
100
AcDbEntity
  8
0
 62
     0
100
AcDbCircle
 10
100.0
 20
100.0
 40
70.0
100
AcDbArc
 50
90.0
 51
270.0
  0
ENDBLK
  5
555
100
AcDbEntity
  8
0
100
AcDbBlockEnd
  0
BLOCK
  5
556
100
AcDbEntity
  8
0
 62
     0
100
AcDbBlockBegin
  2
TRIANGLE
 70
     2
 10
100.0
 20
80.0
 30
0.0
  3
TRIANGLE
  1

  0
LINE
  5
557
100
AcDbEntity
  8
0
 62
     0
100
AcDbLine
 10
0.0
 20
20.0
 11
200.0
 21
20.0
  0
LINE
  5
558
100
AcDbEntity
  8
0
 62
     0
100
AcDbLine
 10
0.0
 20
20.0
 11
100.0
 21
190.0
  0
LINE
  5
559
100
AcDbEntity
  8
0
 62
     0
100
AcDbLine
 10
100.0
 20
190.0
 11
200.0
 21
20.0
  0
ENDBLK
  5
560
100
AcDbEntity
  8
0
100
AcDbBlockEnd
  0
BLOCK
  5
561
100
AcDbEntity
  8
0
 62
     0
100
AcDbBlockBegin
  2
DOUBLE_TRIANGLE
 70
     2
 10
100.0
 20
80.0
 30
0.0
  3
DOUBLE_TRIANGLE
  1

  0
LINE
  5
562
100
AcDbEntity
  8
0
 62
     0
100
AcDbLine
 10
100.0
 20
190.0
 11
0.0
 21
20.0
  0
LINE
  5
563
100
AcDbEntity
  8
0
 62
     0
100
AcDbLine
 10
200.0
 20
20.0
 11
100.0
 21
190.0
  0
LINE
  5
564
100
AcDbEntity
  8
0
 62
     0
100
AcDbLine
 10
0.0
 20
20.0
 11
200.0
 21
20.0
  0
LINE
  5
565
100
AcDbEntity
  8
0
 62
     0
100
AcDbLine
 10
52.0
 20
50.0
 11
148.0
 21
50.0
  0
LINE
  5
566
100
AcDbEntity
  8
0
 62
     0
100
AcDbLine
 10
52.0
 20
50.0
 11
100.0
 21
134.0
  0
LINE
  5
567
100
AcDbEntity
  8
0
 62
     0
100
AcDbLine
 10
100.0
 20
134.0
 11
148.0
 21
50.0
  0
ENDBLK
  5
568
100
AcDbEntity
  8
0
100
AcDbBlockEnd
  0
BLOCK
  5
569
100
AcDbEntity
  8
0
 62
     0
100
AcDbBlockBegin
  2
STAKED_FLAG
 70
     2
 10
100.0
 20
100.0
 30
0.0
  3
STAKED_FLAG
  1

  0
LINE
  5
570
100
AcDbEntity
  8
0
 62
     0
100
AcDbLine
 10
100.0
 20
20.0
 11
100.0
 21
180.0
  0
LINE
  5
571
100
AcDbEntity
  8
0
 62
     0
100
AcDbLine
 10
100.0
 20
180.0
 11
150.0
 21
140.0
  0
LINE
  5
572
100
AcDbEntity
  8
0
 62
     0
100
AcDbLine
 10
150.0
 20
140.0
 11
100.0
 21
100.0
  0
ENDBLK
  5
573
100
AcDbEntity
  8
0
100
AcDbBlockEnd
  0
BLOCK
  5
574
100
AcDbEntity
  8
0
 62
     0
100
AcDbBlockBegin
  2
BOX
 70
     2
 10
100.0
 20
100.0
 30
0.0
  3
BOX
  1

  0
LINE
  5
575
100
AcDbEntity
  8
0
 62
     0
100
AcDbLine
 10
0.0
 20
0.0
 11
200.0
 21
0.0
  0
LINE
  5
576
100
AcDbEntity
  8
0
 62
     0
100
AcDbLine
 10
200.0
 20
0.0
 11
200.0
 21
200.0
  0
LINE
  5
577
100
AcDbEntity
  8
0
 62
     0
100
AcDbLine
 10
200.0
 20
200.0
 11
0.0
 21
200.0
  0
LINE
  5
578
100
AcDbEntity
  8
0
 62
     0
100
AcDbLine
 10
0.0
 20
200.0
 11
0.0
 21
0.0
  0
ENDBLK
  5
579
100
AcDbEntity
  8
0
100
AcDbBlockEnd
  0
ENDSEC
  0
SECTION
  2
ENTITIES
  0
INSERT
  5
580
100
AcDbEntity
  8
Points
100
AcDbBlockReference
 66
     1
  2
CIRCLE
 10
8000.000000
 20
5000.000000
 30
223.870000
 41
0.019832
 42
0.019832
 43
0.019832
  0
ATTRIB
  5
581
100
AcDbEntity
  8
Points
100
AcDbText
 10
8000.399999
 20
5000.399999
 30
223.870000
 40
1.0
  1
1
100
AcDbAttribute
  2
Name
 70
     0
  0
ATTRIB
  5
582
100
AcDbEntity
  8
Points
100
AcDbText
 10
8000.399999
 20
4998.600003
 30
223.870000
 40
1.0
  1
MAG-S
100
AcDbAttribute
  2
Code
 70
     0
  0
ATTRIB
  5
583
100
AcDbEntity
  8
Points
100
AcDbText
 10
8000.399999
 20
4997.200006
 30
223.870000
 40
1.0
  1
68.236
100
AcDbAttribute
  2
Elevation
 70
     0
  0
SEQEND
  5
584
100
AcDbEntity
  8
Points
  0
INSERT
  5
585
100
AcDbEntity
  8
Points
100
AcDbBlockReference
 66
     1
  2
CIRCLE
 10
8220.056078
 20
5000.000000
 30
206.230000
 41
0.019832
 42
0.019832
 43
0.019832
  0
ATTRIB
  5
586
100
AcDbEntity
  8
Points
100
AcDbText
 10
8220.456077
 20
5000.399999
 30
206.230000
 40
1.0
  1
3
100
AcDbAttribute
  2
Name
 70
     0
  0
ATTRIB
  5
587
100
AcDbEntity
  8
Points
100
AcDbText
 10
8220.456077
 20
4998.600003
 30
206.230000
 40
1.0
  1
FD M&W
100
AcDbAttribute
  2
Code
 70
     0
  0
ATTRIB
  5
588
100
AcDbEntity
  8
Points
100
AcDbText
 10
8220.456077
 20
4997.200006
 30
206.230000
 40
1.0
  1
62.859
100
AcDbAttribute
  2
Elevation
 70
     0
  0
SEQEND
  5
589
100
AcDbEntity
  8
Points
  0
INSERT
  5
590
100
AcDbEntity
  8
Points
100
AcDbBlockReference
 66
     1
  2
DIAG_CROSS
 10
8220.058740
 20
5000.000000
 30
206.231195
 41
0.019832
 42
0.019832
 43
0.019832
  0
ATTRIB
  5
591
100
AcDbEntity
  8
Points
100
AcDbText
 10
8220.458739
 20
5000.399999
 30
206.231195
 40
1.0
  1
2
100
AcDbAttribute
  2
Name
 70
     0
  0
ATTRIB
  5
592
100
AcDbEntity
  8
Points
100
AcDbText
 10
8220.458739
 20
4998.600003
 30
206.231195
 40
1.0
  1
FD M&W
100
AcDbAttribute
  2
Code
 70
     0
  0
ATTRIB
  5
593
100
AcDbEntity
  8
Points
100
AcDbText
 10
8220.458739
 20
4997.200006
 30
206.231195
 40
1.0
  1
62.859
100
AcDbAttribute
  2
Elevation
 70
     0
  0
SEQEND
  5
594
100
AcDbEntity
  8
Points
  0
INSERT
  5
595
100
AcDbEntity
  8
Points
100
AcDbBlockReference
 66
     1
  2
DIAG_CROSS
 10
7932.523252
 20
5212.023864
 30
312.753111
 41
0.019832
 42
0.019832
 43
0.019832
  0
ATTRIB
  5
596
100
AcDbEntity
  8
Points
100
AcDbText
 10
7932.923251
 20
5212.423864
 30
312.753111
 40
1.0
  1
4
100
AcDbAttribute
  2
Name
 70
     0
  0
ATTRIB
  5
597
100
AcDbEntity
  8
Points
100
AcDbText
 10
7932.923251
 20
5210.623867
 30
312.753111
 40
1.0
  1
IP
100
AcDbAttribute
  2
Code
 70
     0
  0
ATTRIB
  5
598
100
AcDbEntity
  8
Points
100
AcDbText
 10
7932.923251
 20
5209.223870
 30
312.753111
 40
1.0
  1
95.327
100
AcDbAttribute
  2
Elevation
 70
     0
  0
SEQEND
  5
599
100
AcDbEntity
  8
Points
  0
INSERT
  5
600
100
AcDbEntity
  8
Points
100
AcDbBlockReference
 66
     1
  2
DIAG_CROSS
 10
8066.801002
 20
5085.807944
 30
235.473104
 41
0.019832
 42
0.019832
 43
0.019832
  0
ATTRIB
  5
601
100
AcDbEntity
  8
Points
100
AcDbText
 10
8067.201001
 20
5086.207943
 30
235.473104
 40
1.0
  1
5
100
AcDbAttribute
  2
Name
 70
     0
  0
ATTRIB
  5
602
100
AcDbEntity
  8
Points
100
AcDbText
 10
8067.201001
 20
5084.407947
 30
235.473104
 40
1.0
  1
SPIKE
100
AcDbAttribute
  2
Code
 70
     0
  0
ATTRIB
  5
603
100
AcDbEntity
  8
Points
100
AcDbText
 10
8067.201001
 20
5083.007950
 30
235.473104
 40
1.0
  1
71.772
100
AcDbAttribute
  2
Elevation
 70
     0
  0
SEQEND
  5
604
100
AcDbEntity
  8
Points
  0
INSERT
  5
605
100
AcDbEntity
  8
Lines
100
AcDbBlockReference
 62
     0
 66
     1
  2
DIAG_CROSS
 10
8005.339475
 20
5019.163187
 30
225.282639
 41
0.019832
 42
0.019832
 43
0.019832
  0
ATTRIB
  5
606
100
AcDbEntity
  8
Lines
100
AcDbText
 10
8005.739474
 20
5019.563187
 30
225.282639
 40
1.0
  1
100
100
AcDbAttribute
  2
Name
 70
     0
  0
ATTRIB
  5
607
100
AcDbEntity
  8
Lines
100
AcDbText
 10
8005.739474
 20
5017.763190
 30
225.282639
 40
1.0
  1
106 B
100
AcDbAttribute
  2
Code
 70
     0
  0
ATTRIB
  5
608
100
AcDbEntity
  8
Lines
100
AcDbText
 10
8005.739474
 20
5016.363193
 30
225.282639
 40
1.0
  1
68.666
100
AcDbAttribute
  2
Elevation
 70
     0
  0
SEQEND
  5
609
100
AcDbEntity
  8
Lines
  0
INSERT
  5
610
100
AcDbEntity
  8
Lines
100
AcDbBlockReference
 62
     0
 66
     1
  2
DIAG_CROSS
 10
8017.268722
 20
5017.157983
 30
224.107559
 41
0.019832
 42
0.019832
 43
0.019832
  0
ATTRIB
  5
611
100
AcDbEntity
  8
Lines
100
AcDbText
 10
8017.668721
 20
5017.557982
 30
224.107559
 40
1.0
  1
101
100
AcDbAttribute
  2
Name
 70
     0
  0
ATTRIB
  5
612
100
AcDbEntity
  8
Lines
100
AcDbText
 10
8017.668721
 20
5015.757986
 30
224.107559
 40
1.0
  1
107 B
100
AcDbAttribute
  2
Code
 70
     0
  0
ATTRIB
  5
613
100
AcDbEntity
  8
Lines
100
AcDbText
 10
8017.668721
 20
5014.357988
 30
224.107559
 40
1.0
  1
68.308
100
AcDbAttribute
  2
Elevation
 70
     0
  0
SEQEND
  5
614
100
AcDbEntity
  8
Lines
  0
INSERT
  5
615
100
AcDbEntity
  8
Lines
100
AcDbBlockReference
 62
     0
 66
     1
  2
DIAG_CROSS
 10
8020.072153
 20
5034.823489
 30
228.073597
 41
0.019832
 42
0.019832
 43
0.019832
  0
ATTRIB
  5
616
100
AcDbEntity
  8
Lines
100
AcDbText
 10
8020.472153
 20
5035.223488
 30
228.073597
 40
1.0
  1
102
100
AcDbAttribute
  2
Name
 70
     0
  0
ATTRIB
  5
617
100
AcDbEntity
  8
Lines
100
AcDbText
 10
8020.472153
 20
5033.423491
 30
228.073597
 40
1.0
  1
107
100
AcDbAttribute
  2
Code
 70
     0
  0
ATTRIB
  5
618
100
AcDbEntity
  8
Lines
100
AcDbText
 10
8020.472153
 20
5032.023494
 30
228.073597
 40
1.0
  1
69.517
100
AcDbAttribute
  2
Elevation
 70
     0
  0
SEQEND
  5
619
100
AcDbEntity
  8
Lines
  0
INSERT
  5
620
100
AcDbEntity
  8
Lines
100
AcDbBlockReference
 62
     0
 66
     1
  2
DIAG_CROSS
 10
8010.856928
 20
5037.772674
 30
229.118188
 41
0.019832
 42
0.019832
 43
0.019832
  0
ATTRIB
  5
621
100
AcDbEntity
  8
Lines
100
AcDbText
 10
8011.256928
 20
5038.172673
 30
229.118188
 40
1.0
  1
103
100
AcDbAttribute
  2
Name
 70
     0
  0
ATTRIB
  5
622
100
AcDbEntity
  8
Lines
100
AcDbText
 10
8011.256928
 20
5036.372677
 30
229.118188
 40
1.0
  1
106
100
AcDbAttribute
  2
Code
 70
     0
  0
ATTRIB
  5
623
100
AcDbEntity
  8
Lines
100
AcDbText
 10
8011.256928
 20
5034.972680
 30
229.118188
 40
1.0
  1
69.835
100
AcDbAttribute
  2
Elevation
 70
     0
  0
SEQEND
  5
624
100
AcDbEntity
  8
Lines
  0
INSERT
  5
625
100
AcDbEntity
  8
Lines
100
AcDbBlockReference
 62
     0
 66
     1
  2
DIAG_CROSS
 10
8018.999181
 20
5059.711387
 30
231.639106
 41
0.019832
 42
0.019832
 43
0.019832
  0
ATTRIB
  5
626
100
AcDbEntity
  8
Lines
100
AcDbText
 10
8019.399180
 20
5060.111386
 30
231.639106
 40
1.0
  1
104
100
AcDbAttribute
  2
Name
 70
     0
  0
ATTRIB
  5
627
100
AcDbEntity
  8
Lines
100
AcDbText
 10
8019.399180
 20
5058.311390
 30
231.639106
 40
1.0
  1
106
100
AcDbAttribute
  2
Code
 70
     0
  0
ATTRIB
  5
628
100
AcDbEntity
  8
Lines
100
AcDbText
 10
8019.399180
 20
5056.911393
 30
231.639106
 40
1.0
  1
70.604
100
AcDbAttribute
  2
Elevation
 70
     0
  0
SEQEND
  5
629
100
AcDbEntity
  8
Lines
  0
INSERT
  5
630
100
AcDbEntity
  8
Lines
100
AcDbBlockReference
 62
     0
 66
     1
  2
DIAG_CROSS
 10
8026.142365
 20
5052.941333
 30
229.852089
 41
0.019832
 42
0.019832
 43
0.019832
  0
ATTRIB
  5
631
100
AcDbEntity
  8
Lines
100
AcDbText
 10
8026.542365
 20
5053.341332
 30
229.852089
 40
1.0
  1
105
100
AcDbAttribute
  2
Name
 70
     0
  0
ATTRIB
  5
632
100
AcDbEntity
  8
Lines
100
AcDbText
 10
8026.542365
 20
5051.541336
 30
229.852089
 40
1.0
  1
107
100
AcDbAttribute
  2
Code
 70
     0
  0
ATTRIB
  5
633
100
AcDbEntity
  8
Lines
100
AcDbText
 10
8026.542365
 20
5050.141339
 30
229.852089
 40
1.0
  1
70.059
100
AcDbAttribute
  2
Elevation
 70
     0
  0
SEQEND
  5
634
100
AcDbEntity
  8
Lines
  0
INSERT
  5
635
100
AcDbEntity
  8
Lines
100
AcDbBlockReference
 62
     0
 66
     1
  2
DIAG_CROSS
 10
8030.523756
 20
5049.455020
 30
227.382017
 41
0.019832
 42
0.019832
 43
0.019832
  0
ATTRIB
  5
636
100
AcDbEntity
  8
Lines
100
AcDbText
 10
8030.923756
 20
5049.855020
 30
227.382017
 40
1.0
  1
106
100
AcDbAttribute
  2
Name
 70
     0
  0
ATTRIB
  5
637
100
AcDbEntity
  8
Lines
100
AcDbText
 10
8030.923756
 20
5048.055023
 30
227.382017
 40
1.0
  1
117
100
AcDbAttribute
  2
Code
 70
     0
  0
ATTRIB
  5
638
100
AcDbEntity
  8
Lines
100
AcDbText
 10
8030.923756
 20
5046.655026
 30
227.382017
 40
1.0
  1
69.306
100
AcDbAttribute
  2
Elevation
 70
     0
  0
SEQEND
  5
639
100
AcDbEntity
  8
Lines
  0
INSERT
  5
640
100
AcDbEntity
  8
Lines
100
AcDbBlockReference
 62
     0
 66
     1
  2
DIAG_CROSS
 10
7995.032209
 20
5025.053423
 30
232.053475
 41
0.019832
 42
0.019832
 43
0.019832
  0
ATTRIB
  5
641
100
AcDbEntity
  8
Lines
100
AcDbText
 10
7995.432208
 20
5025.453422
 30
232.053475
 40
1.0
  1
107
100
AcDbAttribute
  2
Name
 70
     0
  0
ATTRIB
  5
642
100
AcDbEntity
  8
Lines
100
AcDbText
 10
7995.432208
 20
5023.653426
 30
232.053475
 40
1.0
  1
117
100
AcDbAttribute
  2
Code
 70
     0
  0
ATTRIB
  5
643
100
AcDbEntity
  8
Lines
100
AcDbText
 10
7995.432208
 20
5022.253429
 30
232.053475
 40
1.0
  1
70.730
100
AcDbAttribute
  2
Elevation
 70
     0
  0
SEQEND
  5
644
100
AcDbEntity
  8
Lines
  0
INSERT
  5
645
100
AcDbEntity
  8
Lines
100
AcDbBlockReference
 62
     0
 66
     1
  2
DIAG_CROSS
 10
7991.310788
 20
5013.273249
 30
229.915580
 41
0.019832
 42
0.019832
 43
0.019832
  0
ATTRIB
  5
646
100
AcDbEntity
  8
Lines
100
AcDbText
 10
7991.710787
 20
5013.673248
 30
229.915580
 40
1.0
  1
108
100
AcDbAttribute
  2
Name
 70
     0
  0
ATTRIB
  5
647
100
AcDbEntity
  8
Lines
100
AcDbText
 10
7991.710787
 20
5011.873252
 30
229.915580
 40
1.0
  1
117
100
AcDbAttribute
  2
Code
 70
     0
  0
ATTRIB
  5
648
100
AcDbEntity
  8
Lines
100
AcDbText
 10
7991.710787
 20
5010.473255
 30
229.915580
 40
1.0
  1
70.078
100
AcDbAttribute
  2
Elevation
 70
     0
  0
SEQEND
  5
649
100
AcDbEntity
  8
Lines
  0
INSERT
  5
650
100
AcDbEntity
  8
Lines
100
AcDbBlockReference
 62
     0
 66
     1
  2
DIAG_CROSS
 10
7977.243723
 20
5031.122950
 30
237.129686
 41
0.019832
 42
0.019832
 43
0.019832
  0
ATTRIB
  5
651
100
AcDbEntity
  8
Lines
100
AcDbText
 10
7977.643722
 20
5031.522949
 30
237.129686
 40
1.0
  1
109
100
AcDbAttribute
  2
Name
 70
     0
  0
ATTRIB
  5
652
100
AcDbEntity
  8
Lines
100
AcDbText
 10
7977.643722
 20
5029.722953
 30
237.129686
 40
1.0
  1
117
100
AcDbAttribute
  2
Code
 70
     0
  0
ATTRIB
  5
653
100
AcDbEntity
  8
Lines
100
AcDbText
 10
7977.643722
 20
5028.322955
 30
237.129686
 40
1.0
  1
72.277
100
AcDbAttribute
  2
Elevation
 70
     0
  0
SEQEND
  5
654
100
AcDbEntity
  8
Lines
  0
INSERT
  5
655
100
AcDbEntity
  8
Lines
100
AcDbBlockReference
 62
     0
 66
     1
  2
DIAG_CROSS
 10
7970.115350
 20
5051.193448
 30
245.019053
 41
0.019832
 42
0.019832
 43
0.019832
  0
ATTRIB
  5
656
100
AcDbEntity
  8
Lines
100
AcDbText
 10
7970.515350
 20
5051.593447
 30
245.019053
 40
1.0
  1
110
100
AcDbAttribute
  2
Name
 70
     0
  0
ATTRIB
  5
657
100
AcDbEntity
  8
Lines
100
AcDbText
 10
7970.515350
 20
5049.793451
 30
245.019053
 40
1.0
  1
117
100
AcDbAttribute
  2
Code
 70
     0
  0
ATTRIB
  5
658
100
AcDbEntity
  8
Lines
100
AcDbText
 10
7970.515350
 20
5048.393454
 30
245.019053
 40
1.0
  1
74.682
100
AcDbAttribute
  2
Elevation
 70
     0
  0
SEQEND
  5
659
100
AcDbEntity
  8
Lines
  0
INSERT
  5
660
100
AcDbEntity
  8
Lines
100
AcDbBlockReference
 62
     0
 66
     1
  2
DIAG_CROSS
 10
7959.153840
 20
5071.743006
 30
253.391660
 41
0.019832
 42
0.019832
 43
0.019832
  0
ATTRIB
  5
661
100
AcDbEntity
  8
Lines
100
AcDbText
 10
7959.553839
 20
5072.143005
 30
253.391660
 40
1.0
  1
111
100
AcDbAttribute
  2
Name
 70
     0
  0
ATTRIB
  5
662
100
AcDbEntity
  8
Lines
100
AcDbText
 10
7959.553839
 20
5070.343008
 30
253.391660
 40
1.0
  1
117
100
AcDbAttribute
  2
Code
 70
     0
  0
ATTRIB
  5
663
100
AcDbEntity
  8
Lines
100
AcDbText
 10
7959.553839
 20
5068.943011
 30
253.391660
 40
1.0
  1
77.234
100
AcDbAttribute
  2
Elevation
 70
     0
  0
SEQEND
  5
664
100
AcDbEntity
  8
Lines
  0
INSERT
  5
665
100
AcDbEntity
  8
Lines
100
AcDbBlockReference
 62
     0
 66
     1
  2
DIAG_CROSS
 10
7947.760924
 20
5093.989586
 30
262.456705
 41
0.019832
 42
0.019832
 43
0.019832
  0
ATTRIB
  5
666
100
AcDbEntity
  8
Lines
100
AcDbText
 10
7948.160923
 20
5094.389585
 30
262.456705
 40
1.0
  1
112
100
AcDbAttribute
  2
Name
 70
     0
  0
ATTRIB
  5
667
100
AcDbEntity
  8
Lines
100
AcDbText
 10
7948.160923
 20
5092.589589
 30
262.456705
 40
1.0
  1
117
100
AcDbAttribute
  2
Code
 70
     0
  0
ATTRIB
  5
668
100
AcDbEntity
  8
Lines
100
AcDbText
 10
7948.160923
 20
5091.189592
 30
262.456705
 40
1.0
  1
79.997
100
AcDbAttribute
  2
Elevation
 70
     0
  0
SEQEND
  5
669
100
AcDbEntity
  8
Lines
  0
INSERT
  5
670
100
AcDbEntity
  8
Lines
100
AcDbBlockReference
 62
     0
 66
     1
  2
DIAG_CROSS
 10
7935.899641
 20
5114.829219
 30
272.942486
 41
0.019832
 42
0.019832
 43
0.019832
  0
ATTRIB
  5
671
100
AcDbEntity
  8
Lines
100
AcDbText
 10
7936.299640
 20
5115.229218
 30
272.942486
 40
1.0
  1
113
100
AcDbAttribute
  2
Name
 70
     0
  0
ATTRIB
  5
672
100
AcDbEntity
  8
Lines
100
AcDbText
 10
7936.299640
 20
5113.429222
 30
272.942486
 40
1.0
  1
117
100
AcDbAttribute
  2
Code
 70
     0
  0
ATTRIB
  5
673
100
AcDbEntity
  8
Lines
100
AcDbText
 10
7936.299640
 20
5112.029225
 30
272.942486
 40
1.0
  1
83.193
100
AcDbAttribute
  2
Elevation
 70
     0
  0
SEQEND
  5
674
100
AcDbEntity
  8
Lines
  0
INSERT
  5
675
100
AcDbEntity
  8
Lines
100
AcDbBlockReference
 62
     0
 66
     1
  2
DIAG_CROSS
 10
7930.219981
 20
5078.468421
 30
266.216388
 41
0.019832
 42
0.019832
 43
0.019832
  0
ATTRIB
  5
676
100
AcDbEntity
  8
Lines
100
AcDbText
 10
7930.619980
 20
5078.868420
 30
266.216388
 40
1.0
  1
114
100
AcDbAttribute
  2
Name
 70
     0
  0
ATTRIB
  5
677
100
AcDbEntity
  8
Lines
100
AcDbText
 10
7930.619980
 20
5077.068424
 30
266.216388
 40
1.0
  1
117
100
AcDbAttribute
  2
Code
 70
     0
  0
ATTRIB
  5
678
100
AcDbEntity
  8
Lines
100
AcDbText
 10
7930.619980
 20
5075.668427
 30
266.216388
 40
1.0
  1
81.143
100
AcDbAttribute
  2
Elevation
 70
     0
  0
SEQEND
  5
679
100
AcDbEntity
  8
Lines
  0
INSERT
  5
680
100
AcDbEntity
  8
Lines
100
AcDbBlockReference
 62
     0
 66
     1
  2
DIAG_CROSS
 10
7960.668197
 20
5112.172604
 30
268.707983
 41
0.019832
 42
0.019832
 43
0.019832
  0
ATTRIB
  5
681
100
AcDbEntity
  8
Lines
100
AcDbText
 10
7961.068196
 20
5112.572603
 30
268.707983
 40
1.0
  1
115
100
AcDbAttribute
  2
Name
 70
     0
  0
ATTRIB
  5
682
100
AcDbEntity
  8
Lines
100
AcDbText
 10
7961.068196
 20
5110.772607
 30
268.707983
 40
1.0
  1
117
100
AcDbAttribute
  2
Code
 70
     0
  0
ATTRIB
  5
683
100
AcDbEntity
  8
Lines
100
AcDbText
 10
7961.068196
 20
5109.372610
 30
268.707983
 40
1.0
  1
81.902
100
AcDbAttribute
  2
Elevation
 70
     0
  0
SEQEND
  5
684
100
AcDbEntity
  8
Lines
  0
INSERT
  5
685
100
AcDbEntity
  8
Lines
100
AcDbBlockReference
 62
     0
 66
     1
  2
DIAG_CROSS
 10
7975.706460
 20
5126.039919
 30
274.939171
 41
0.019832
 42
0.019832
 43
0.019832
  0
ATTRIB
  5
686
100
AcDbEntity
  8
Lines
100
AcDbText
 10
7976.106459
 20
5126.439918
 30
274.939171
 40
1.0
  1
116
100
AcDbAttribute
  2
Name
 70
     0
  0
ATTRIB
  5
687
100
AcDbEntity
  8
Lines
100
AcDbText
 10
7976.106459
 20
5124.639921
 30
274.939171
 40
1.0
  1
117
100
AcDbAttribute
  2
Code
 70
     0
  0
ATTRIB
  5
688
100
AcDbEntity
  8
Lines
100
AcDbText
 10
7976.106459
 20
5123.239924
 30
274.939171
 40
1.0
  1
83.802
100
AcDbAttribute
  2
Elevation
 70
     0
  0
SEQEND
  5
689
100
AcDbEntity
  8
Lines
  0
INSERT
  5
690
100
AcDbEntity
  8
Lines
100
AcDbBlockReference
 62
     0
 66
     1
  2
DIAG_CROSS
 10
7979.089110
 20
5102.200011
 30
262.283024
 41
0.019832
 42
0.019832
 43
0.019832
  0
ATTRIB
  5
691
100
AcDbEntity
  8
Lines
100
AcDbText
 10
7979.489109
 20
5102.600010
 30
262.283024
 40
1.0
  1
117
100
AcDbAttribute
  2
Name
 70
     0
  0
ATTRIB
  5
692
100
AcDbEntity
  8
Lines
100
AcDbText
 10
7979.489109
 20
5100.800014
 30
262.283024
 40
1.0
  1
117
100
AcDbAttribute
  2
Code
 70
     0
  0
ATTRIB
  5
693
100
AcDbEntity
  8
Lines
100
AcDbText
 10
7979.489109
 20
5099.400016
 30
262.283024
 40
1.0
  1
79.944
100
AcDbAttribute
  2
Elevation
 70
     0
  0
SEQEND
  5
694
100
AcDbEntity
  8
Lines
  0
INSERT
  5
695
100
AcDbEntity
  8
Lines
100
AcDbBlockReference
 62
     0
 66
     1
  2
DIAG_CROSS
 10
8000.342603
 20
5095.849374
 30
255.901379
 41
0.019832
 42
0.019832
 43
0.019832
  0
ATTRIB
  5
696
100
AcDbEntity
  8
Lines
100
AcDbText
 10
8000.742603
 20
5096.249373
 30
255.901379
 40
1.0
  1
118
100
AcDbAttribute
  2
Name
 70
     0
  0
ATTRIB
  5
697
100
AcDbEntity
  8
Lines
100
AcDbText
 10
8000.742603
 20
5094.449377
 30
255.901379
 40
1.0
  1
117
100
AcDbAttribute
  2
Code
 70
     0
  0
ATTRIB
  5
698
100
AcDbEntity
  8
Lines
100
AcDbText
 10
8000.742603
 20
5093.049380
 30
255.901379
 40
1.0
  1
77.999
100
AcDbAttribute
  2
Elevation
 70
     0
  0
SEQEND
  5
699
100
AcDbEntity
  8
Lines
  0
INSERT
  5
700
100
AcDbEntity
  8
Lines
100
AcDbBlockReference
 62
     0
 66
     1
  2
DIAG_CROSS
 10
7969.676409
 20
5083.377550
 30
254.928127
 41
0.019832
 42
0.019832
 43
0.019832
  0
ATTRIB
  5
701
100
AcDbEntity
  8
Lines
100
AcDbText
 10
7970.076408
 20
5083.777549
 30
254.928127
 40
1.0
  1
119
100
AcDbAttribute
  2
Name
 70
     0
  0
ATTRIB
  5
702
100
AcDbEntity
  8
Lines
100
AcDbText
 10
7970.076408
 20
5081.977553
 30
254.928127
 40
1.0
  1
117
100
AcDbAttribute
  2
Code
 70
     0
  0
ATTRIB
  5
703
100
AcDbEntity
  8
Lines
100
AcDbText
 10
7970.076408
 20
5080.577555
 30
254.928127
 40
1.0
  1
77.702
100
AcDbAttribute
  2
Elevation
 70
     0
  0
SEQEND
  5
704
100
AcDbEntity
  8
Lines
  0
INSERT
  5
705
100
AcDbEntity
  8
Lines
100
AcDbBlockReference
 62
     0
 66
     1
  2
DIAG_CROSS
 10
7947.837611
 20
5051.881041
 30
251.370502
 41
0.019832
 42
0.019832
 43
0.019832
  0
ATTRIB
  5
706
100
AcDbEntity
  8
Lines
100
AcDbText
 10
7948.237611
 20
5052.281041
 30
251.370502
 40
1.0
  1
120
100
AcDbAttribute
  2
Name
 70
     0
  0
ATTRIB
  5
707
100
AcDbEntity
  8
Lines
100
AcDbText
 10
7948.237611
 20
5050.481044
 30
251.370502
 40
1.0
  1
117
100
AcDbAttribute
  2
Code
 70
     0
  0
ATTRIB
  5
708
100
AcDbEntity
  8
Lines
100
AcDbText
 10
7948.237611
 20
5049.081047
 30
251.370502
 40
1.0
  1
76.618
100
AcDbAttribute
  2
Elevation
 70
     0
  0
SEQEND
  5
709
100
AcDbEntity
  8
Lines
  0
INSERT
  5
710
100
AcDbEntity
  8
Lines
100
AcDbBlockReference
 62
     0
 66
     1
  2
DIAG_CROSS
 10
7957.891467
 20
5029.065725
 30
241.740493
 41
0.019832
 42
0.019832
 43
0.019832
  0
ATTRIB
  5
711
100
AcDbEntity
  8
Lines
100
AcDbText
 10
7958.291466
 20
5029.465724
 30
241.740493
 40
1.0
  1
121
100
AcDbAttribute
  2
Name
 70
     0
  0
ATTRIB
  5
712
100
AcDbEntity
  8
Lines
100
AcDbText
 10
7958.291466
 20
5027.665728
 30
241.740493
 40
1.0
  1
117
100
AcDbAttribute
  2
Code
 70
     0
  0
ATTRIB
  5
713
100
AcDbEntity
  8
Lines
100
AcDbText
 10
7958.291466
 20
5026.265731
 30
241.740493
 40
1.0
  1
73.683
100
AcDbAttribute
  2
Elevation
 70
     0
  0
SEQEND
  5
714
100
AcDbEntity
  8
Lines
  0
INSERT
  5
715
100
AcDbEntity
  8
Lines
100
AcDbBlockReference
 62
     0
 66
     1
  2
DIAG_CROSS
 10
7986.545651
 20
5044.045481
 30
239.555993
 41
0.019832
 42
0.019832
 43
0.019832
  0
ATTRIB
  5
716
100
AcDbEntity
  8
Lines
100
AcDbText
 10
7986.945650
 20
5044.445481
 30
239.555993
 40
1.0
  1
122
100
AcDbAttribute
  2
Name
 70
     0
  0
ATTRIB
  5
717
100
AcDbEntity
  8
Lines
100
AcDbText
 10
7986.945650
 20
5042.645484
 30
239.555993
 40
1.0
  1
117
100
AcDbAttribute
  2
Code
 70
     0
  0
ATTRIB
  5
718
100
AcDbEntity
  8
Lines
100
AcDbText
 10
7986.945650
 20
5041.245487
 30
239.555993
 40
1.0
  1
73.017
100
AcDbAttribute
  2
Elevation
 70
     0
  0
SEQEND
  5
719
100
AcDbEntity
  8
Lines
  0
INSERT
  5
720
100
AcDbEntity
  8
Lines
100
AcDbBlockReference
 62
     0
 66
     1
  2
DIAG_CROSS
 10
7993.497716
 20
5037.363992
 30
235.975604
 41
0.019832
 42
0.019832
 43
0.019832
  0
ATTRIB
  5
721
100
AcDbEntity
  8
Lines
100
AcDbText
 10
7993.897715
 20
5037.763991
 30
235.975604
 40
1.0
  1
123
100
AcDbAttribute
  2
Name
 70
     0
  0
ATTRIB
  5
722
100
AcDbEntity
  8
Lines
100
AcDbText
 10
7993.897715
 20
5035.963994
 30
235.975604
 40
1.0
  1
117
100
AcDbAttribute
  2
Code
 70
     0
  0
ATTRIB
  5
723
100
AcDbEntity
  8
Lines
100
AcDbText
 10
7993.897715
 20
5034.563997
 30
235.975604
 40
1.0
  1
71.926
100
AcDbAttribute
  2
Elevation
 70
     0
  0
SEQEND
  5
724
100
AcDbEntity
  8
Lines
  0
INSERT
  5
725
100
AcDbEntity
  8
Lines
100
AcDbBlockReference
 62
     0
 66
     1
  2
DIAG_CROSS
 10
8000.962513
 20
5028.884104
 30
230.825364
 41
0.019832
 42
0.019832
 43
0.019832
  0
ATTRIB
  5
726
100
AcDbEntity
  8
Lines
100
AcDbText
 10
8001.362512
 20
5029.284103
 30
230.825364
 40
1.0
  1
124
100
AcDbAttribute
  2
Name
 70
     0
  0
ATTRIB
  5
727
100
AcDbEntity
  8
Lines
100
AcDbText
 10
8001.362512
 20
5027.484107
 30
230.825364
 40
1.0
  1
242
100
AcDbAttribute
  2
Code
 70
     0
  0
ATTRIB
  5
728
100
AcDbEntity
  8
Lines
100
AcDbText
 10
8001.362512
 20
5026.084110
 30
230.825364
 40
1.0
  1
70.356
100
AcDbAttribute
  2
Elevation
 70
     0
  0
SEQEND
  5
729
100
AcDbEntity
  8
Lines
  0
INSERT
  5
730
100
AcDbEntity
  8
Lines
100
AcDbBlockReference
 62
     0
 66
     1
  2
DIAG_CROSS
 10
7984.805937
 20
5013.161517
 30
230.373061
 41
0.019832
 42
0.019832
 43
0.019832
  0
ATTRIB
  5
731
100
AcDbEntity
  8
Lines
100
AcDbText
 10
7985.205936
 20
5013.561517
 30
230.373061
 40
1.0
  1
125
100
AcDbAttribute
  2
Name
 70
     0
  0
ATTRIB
  5
732
100
AcDbEntity
  8
Lines
100
AcDbText
 10
7985.205936
 20
5011.761520
 30
230.373061
 40
1.0
  1
242
100
AcDbAttribute
  2
Code
 70
     0
  0
ATTRIB
  5
733
100
AcDbEntity
  8
Lines
100
AcDbText
 10
7985.205936
 20
5010.361523
 30
230.373061
 40
1.0
  1
70.218
100
AcDbAttribute
  2
Elevation
 70
     0
  0
SEQEND
  5
734
100
AcDbEntity
  8
Lines
  0
INSERT
  5
735
100
AcDbEntity
  8
Lines
100
AcDbBlockReference
 62
     0
 66
     1
  2
DIAG_CROSS
 10
7999.087718
 20
5013.830937
 30
226.746291
 41
0.019832
 42
0.019832
 43
0.019832
  0
ATTRIB
  5
736
100
AcDbEntity
  8
Lines
100
AcDbText
 10
7999.487717
 20
5014.230937
 30
226.746291
 40
1.0
  1
126
100
AcDbAttribute
  2
Name
 70
     0
  0
ATTRIB
  5
737
100
AcDbEntity
  8
Lines
100
AcDbText
 10
7999.487717
 20
5012.430940
 30
226.746291
 40
1.0
  1
240
100
AcDbAttribute
  2
Code
 70
     0
  0
ATTRIB
  5
738
100
AcDbEntity
  8
Lines
100
AcDbText
 10
7999.487717
 20
5011.030943
 30
226.746291
 40
1.0
  1
69.112
100
AcDbAttribute
  2
Elevation
 70
     0
  0
SEQEND
  5
739
100
AcDbEntity
  8
Lines
  0
INSERT
  5
740
100
AcDbEntity
  8
Lines
100
AcDbBlockReference
 62
     0
 66
     1
  2
DIAG_CROSS
 10
8011.501994
 20
4999.378714
 30
222.941858
 41
0.019832
 42
0.019832
 43
0.019832
  0
ATTRIB
  5
741
100
AcDbEntity
  8
Lines
100
AcDbText
 10
8011.901993
 20
4999.778713
 30
222.941858
 40
1.0
  1
127
100
AcDbAttribute
  2
Name
 70
     0
  0
ATTRIB
  5
742
100
AcDbEntity
  8
Lines
100
AcDbText
 10
8011.901993
 20
4997.978716
 30
222.941858
 40
1.0
  1
213
100
AcDbAttribute
  2
Code
 70
     0
  0
ATTRIB
  5
743
100
AcDbEntity
  8
Lines
100
AcDbText
 10
8011.901993
 20
4996.578719
 30
222.941858
 40
1.0
  1
67.953
100
AcDbAttribute
  2
Elevation
 70
     0
  0
SEQEND
  5
744
100
AcDbEntity
  8
Lines
  0
INSERT
  5
745
100
AcDbEntity
  8
Lines
100
AcDbBlockReference
 62
     0
 66
     1
  2
DIAG_CROSS
 10
8011.582797
 20
4984.114121
 30
222.871206
 41
0.019832
 42
0.019832
 43
0.019832
  0
ATTRIB
  5
746
100
AcDbEntity
  8
Lines
100
AcDbText
 10
8011.982796
 20
4984.514120
 30
222.871206
 40
1.0
  1
128
100
AcDbAttribute
  2
Name
 70
     0
  0
ATTRIB
  5
747
100
AcDbEntity
  8
Lines
100
AcDbText
 10
8011.982796
 20
4982.714123
 30
222.871206
 40
1.0
  1
222
100
AcDbAttribute
  2
Code
 70
     0
  0
ATTRIB
  5
748
100
AcDbEntity
  8
Lines
100
AcDbText
 10
8011.982796
 20
4981.314126
 30
222.871206
 40
1.0
  1
67.931
100
AcDbAttribute
  2
Elevation
 70
     0
  0
SEQEND
  5
749
100
AcDbEntity
  8
Lines
  0
INSERT
  5
750
100
AcDbEntity
  8
Lines
100
AcDbBlockReference
 62
     0
 66
     1
  2
DIAG_CROSS
 10
8010.490871
 20
4984.134599
 30
222.982073
 41
0.019832
 42
0.019832
 43
0.019832
  0
ATTRIB
  5
751
100
AcDbEntity
  8
Lines
100
AcDbText
 10
8010.890870
 20
4984.534598
 30
222.982073
 40
1.0
  1
129
100
AcDbAttribute
  2
Name
 70
     0
  0
ATTRIB
  5
752
100
AcDbEntity
  8
Lines
100
AcDbText
 10
8010.890870
 20
4982.734602
 30
222.982073
 40
1.0
  1
222
100
AcDbAttribute
  2
Code
 70
     0
  0
ATTRIB
  5
753
100
AcDbEntity
  8
Lines
100
AcDbText
 10
8010.890870
 20
4981.334604
 30
222.982073
 40
1.0
  1
67.965
100
AcDbAttribute
  2
Elevation
 70
     0
  0
SEQEND
  5
754
100
AcDbEntity
  8
Lines
  0
INSERT
  5
755
100
AcDbEntity
  8
Lines
100
AcDbBlockReference
 62
     0
 66
     1
  2
DIAG_CROSS
 10
8010.463627
 20
4982.182730
 30
223.087726
 41
0.019832
 42
0.019832
 43
0.019832
  0
ATTRIB
  5
756
100
AcDbEntity
  8
Lines
100
AcDbText
 10
8010.863626
 20
4982.582729
 30
223.087726
 40
1.0
  1
130
100
AcDbAttribute
  2
Name
 70
     0
  0
ATTRIB
  5
757
100
AcDbEntity
  8
Lines
100
AcDbText
 10
8010.863626
 20
4980.782732
 30
223.087726
 40
1.0
  1
222
100
AcDbAttribute
  2
Code
 70
     0
  0
ATTRIB
  5
758
100
AcDbEntity
  8
Lines
100
AcDbText
 10
8010.863626
 20
4979.382735
 30
223.087726
 40
1.0
  1
67.997
100
AcDbAttribute
  2
Elevation
 70
     0
  0
SEQEND
  5
759
100
AcDbEntity
  8
Lines
  0
INSERT
  5
760
100
AcDbEntity
  8
Lines
100
AcDbBlockReference
 62
     0
 66
     1
  2
DIAG_CROSS
 10
8011.522094
 20
4982.287088
 30
222.985489
 41
0.019832
 42
0.019832
 43
0.019832
  0
ATTRIB
  5
761
100
AcDbEntity
  8
Lines
100
AcDbText
 10
8011.922093
 20
4982.687087
 30
222.985489
 40
1.0
  1
131
100
AcDbAttribute
  2
Name
 70
     0
  0
ATTRIB
  5
762
100
AcDbEntity
  8
Lines
100
AcDbText
 10
8011.922093
 20
4980.887090
 30
222.985489
 40
1.0
  1
222
100
AcDbAttribute
  2
Code
 70
     0
  0
ATTRIB
  5
763
100
AcDbEntity
  8
Lines
100
AcDbText
 10
8011.922093
 20
4979.487093
 30
222.985489
 40
1.0
  1
67.966
100
AcDbAttribute
  2
Elevation
 70
     0
  0
SEQEND
  5
764
100
AcDbEntity
  8
Lines
  0
INSERT
  5
765
100
AcDbEntity
  8
Lines
100
AcDbBlockReference
 62
     0
 66
     1
  2
DIAG_CROSS
 10
8011.204896
 20
4980.331743
 30
223.197535
 41
0.019832
 42
0.019832
 43
0.019832
  0
ATTRIB
  5
766
100
AcDbEntity
  8
Lines
100
AcDbText
 10
8011.604895
 20
4980.731742
 30
223.197535
 40
1.0
  1
132
100
AcDbAttribute
  2
Name
 70
     0
  0
ATTRIB
  5
767
100
AcDbEntity
  8
Lines
100
AcDbText
 10
8011.604895
 20
4978.931745
 30
223.197535
 40
1.0
  1
222 / 4
100
AcDbAttribute
  2
Code
 70
     0
  0
ATTRIB
  5
768
100
AcDbEntity
  8
Lines
100
AcDbText
 10
8011.604895
 20
4977.531748
 30
223.197535
 40
1.0
  1
68.031
100
AcDbAttribute
  2
Elevation
 70
     0
  0
SEQEND
  5
769
100
AcDbEntity
  8
Lines
  0
INSERT
  5
770
100
AcDbEntity
  8
Lines
100
AcDbBlockReference
 62
     0
 66
     1
  2
DIAG_CROSS
 10
8011.312998
 20
4979.026285
 30
223.336268
 41
0.019832
 42
0.019832
 43
0.019832
  0
ATTRIB
  5
771
100
AcDbEntity
  8
Lines
100
AcDbText
 10
8011.712997
 20
4979.426285
 30
223.336268
 40
1.0
  1
133
100
AcDbAttribute
  2
Name
 70
     0
  0
ATTRIB
  5
772
100
AcDbEntity
  8
Lines
100
AcDbText
 10
8011.712997
 20
4977.626288
 30
223.336268
 40
1.0
  1
222 / 4
100
AcDbAttribute
  2
Code
 70
     0
  0
ATTRIB
  5
773
100
AcDbEntity
  8
Lines
100
AcDbText
 10
8011.712997
 20
4976.226291
 30
223.336268
 40
1.0
  1
68.073
100
AcDbAttribute
  2
Elevation
 70
     0
  0
SEQEND
  5
774
100
AcDbEntity
  8
Lines
  0
INSERT
  5
775
100
AcDbEntity
  8
Lines
100
AcDbBlockReference
 62
     0
 66
     1
  2
DIAG_CROSS
 10
8015.561573
 20
4979.255528
 30
222.958902
 41
0.019832
 42
0.019832
 43
0.019832
  0
ATTRIB
  5
776
100
AcDbEntity
  8
Lines
100
AcDbText
 10
8015.961572
 20
4979.655527
 30
222.958902
 40
1.0
  1
134
100
AcDbAttribute
  2
Name
 70
     0
  0
ATTRIB
  5
777
100
AcDbEntity
  8
Lines
100
AcDbText
 10
8015.961572
 20
4977.855531
 30
222.958902
 40
1.0
  1
222 / 4
100
AcDbAttribute
  2
Code
 70
     0
  0
ATTRIB
  5
778
100
AcDbEntity
  8
Lines
100
AcDbText
 10
8015.961572
 20
4976.455533
 30
222.958902
 40
1.0
  1
67.958
100
AcDbAttribute
  2
Elevation
 70
     0
  0
SEQEND
  5
779
100
AcDbEntity
  8
Lines
  0
INSERT
  5
780
100
AcDbEntity
  8
Lines
100
AcDbBlockReference
 62
     0
 66
     1
  2
DIAG_CROSS
 10
8015.755802
 20
4980.410239
 30
222.650171
 41
0.019832
 42
0.019832
 43
0.019832
  0
ATTRIB
  5
781
100
AcDbEntity
  8
Lines
100
AcDbText
 10
8016.155801
 20
4980.810238
 30
222.650171
 40
1.0
  1
135
100
AcDbAttribute
  2
Name
 70
     0
  0
ATTRIB
  5
782
100
AcDbEntity
  8
Lines
100
AcDbText
 10
8016.155801
 20
4979.010241
 30
222.650171
 40
1.0
  1
222 / 4
100
AcDbAttribute
  2
Code
 70
     0
  0
ATTRIB
  5
783
100
AcDbEntity
  8
Lines
100
AcDbText
 10
8016.155801
 20
4977.610244
 30
222.650171
 40
1.0
  1
67.864
100
AcDbAttribute
  2
Elevation
 70
     0
  0
SEQEND
  5
784
100
AcDbEntity
  8
Lines
  0
INSERT
  5
785
100
AcDbEntity
  8
Points
100
AcDbBlockReference
 66
     1
  2
DIAG_CROSS
 10
7998.914272
 20
4993.960966
 30
223.850319
 41
0.019832
 42
0.019832
 43
0.019832
  0
ATTRIB
  5
786
100
AcDbEntity
  8
Points
100
AcDbText
 10
7999.314271
 20
4994.360965
 30
223.850319
 40
1.0
  1
6
100
AcDbAttribute
  2
Name
 70
     0
  0
ATTRIB
  5
787
100
AcDbEntity
  8
Points
100
AcDbText
 10
7999.314271
 20
4992.560968
 30
223.850319
 40
1.0
  1
FD MAG M&W
100
AcDbAttribute
  2
Code
 70
     0
  0
ATTRIB
  5
788
100
AcDbEntity
  8
Points
100
AcDbText
 10
7999.314271
 20
4991.160971
 30
223.850319
 40
1.0
  1
68.230
100
AcDbAttribute
  2
Elevation
 70
     0
  0
SEQEND
  5
789
100
AcDbEntity
  8
Points
  0
INSERT
  5
790
100
AcDbEntity
  8
Points
100
AcDbBlockReference
 66
     1
  2
DIAG_CROSS
 10
7928.094763
 20
4881.480317
 30
241.708601
 41
0.019832
 42
0.019832
 43
0.019832
  0
ATTRIB
  5
791
100
AcDbEntity
  8
Points
100
AcDbText
 10
7928.494762
 20
4881.880316
 30
241.708601
 40
1.0
  1
7
100
AcDbAttribute
  2
Name
 70
     0
  0
ATTRIB
  5
792
100
AcDbEntity
  8
Points
100
AcDbText
 10
7928.494762
 20
4880.080319
 30
241.708601
 40
1.0
  1
FD IP
100
AcDbAttribute
  2
Code
 70
     0
  0
ATTRIB
  5
793
100
AcDbEntity
  8
Points
100
AcDbText
 10
7928.494762
 20
4878.680322
 30
241.708601
 40
1.0
  1
73.673
100
AcDbAttribute
  2
Elevation
 70
     0
  0
SEQEND
  5
794
100
AcDbEntity
  8
Points
  0
INSERT
  5
795
100
AcDbEntity
  8
Points
100
AcDbBlockReference
 66
     1
  2
DIAG_CROSS
 10
8126.239025
 20
5143.547094
 30
240.542581
 41
0.019832
 42
0.019832
 43
0.019832
  0
ATTRIB
  5
796
100
AcDbEntity
  8
Points
100
AcDbText
 10
8126.639024
 20
5143.947093
 30
240.542581
 40
1.0
  1
8
100
AcDbAttribute
  2
Name
 70
     0
  0
ATTRIB
  5
797
100
AcDbEntity
  8
Points
100
AcDbText
 10
8126.639024
 20
5142.147097
 30
240.542581
 40
1.0
  1
SPIKE
100
AcDbAttribute
  2
Code
 70
     0
  0
ATTRIB
  5
798
100
AcDbEntity
  8
Points
100
AcDbText
 10
8126.639024
 20
5140.747099
 30
240.542581
 40
1.0
  1
73.318
100
AcDbAttribute
  2
Elevation
 70
     0
  0
SEQEND
  5
799
100
AcDbEntity
  8
Points
  0
INSERT
  5
800
100
AcDbEntity
  8
Lines
100
AcDbBlockReference
 62
     0
 66
     1
  2
DIAG_CROSS
 10
8039.952626
 20
5065.026606
 30
231.853725
 41
0.019832
 42
0.019832
 43
0.019832
  0
ATTRIB
  5
801
100
AcDbEntity
  8
Lines
100
AcDbText
 10
8040.352625
 20
5065.426605
 30
231.853725
 40
1.0
  1
136
100
AcDbAttribute
  2
Name
 70
     0
  0
ATTRIB
  5
802
100
AcDbEntity
  8
Lines
100
AcDbText
 10
8040.352625
 20
5063.626609
 30
231.853725
 40
1.0
  1
107
100
AcDbAttribute
  2
Code
 70
     0
  0
ATTRIB
  5
803
100
AcDbEntity
  8
Lines
100
AcDbText
 10
8040.352625
 20
5062.226612
 30
231.853725
 40
1.0
  1
70.669
100
AcDbAttribute
  2
Elevation
 70
     0
  0
SEQEND
  5
804
100
AcDbEntity
  8
Lines
  0
INSERT
  5
805
100
AcDbEntity
  8
Lines
100
AcDbBlockReference
 62
     0
 66
     1
  2
DIAG_CROSS
 10
8033.853242
 20
5071.536595
 30
232.683756
 41
0.019832
 42
0.019832
 43
0.019832
  0
ATTRIB
  5
806
100
AcDbEntity
  8
Lines
100
AcDbText
 10
8034.253241
 20
5071.936594
 30
232.683756
 40
1.0
  1
137
100
AcDbAttribute
  2
Name
 70
     0
  0
ATTRIB
  5
807
100
AcDbEntity
  8
Lines
100
AcDbText
 10
8034.253241
 20
5070.136597
 30
232.683756
 40
1.0
  1
106
100
AcDbAttribute
  2
Code
 70
     0
  0
ATTRIB
  5
808
100
AcDbEntity
  8
Lines
100
AcDbText
 10
8034.253241
 20
5068.736600
 30
232.683756
 40
1.0
  1
70.922
100
AcDbAttribute
  2
Elevation
 70
     0
  0
SEQEND
  5
809
100
AcDbEntity
  8
Lines
  0
INSERT
  5
810
100
AcDbEntity
  8
Lines
100
AcDbBlockReference
 62
     0
 66
     1
  2
DIAG_CROSS
 10
8056.492173
 20
5084.311673
 30
234.963707
 41
0.019832
 42
0.019832
 43
0.019832
  0
ATTRIB
  5
811
100
AcDbEntity
  8
Lines
100
AcDbText
 10
8056.892172
 20
5084.711672
 30
234.963707
 40
1.0
  1
138
100
AcDbAttribute
  2
Name
 70
     0
  0
ATTRIB
  5
812
100
AcDbEntity
  8
Lines
100
AcDbText
 10
8056.892172
 20
5082.911675
 30
234.963707
 40
1.0
  1
106
100
AcDbAttribute
  2
Code
 70
     0
  0
ATTRIB
  5
813
100
AcDbEntity
  8
Lines
100
AcDbText
 10
8056.892172
 20
5081.511678
 30
234.963707
 40
1.0
  1
71.617
100
AcDbAttribute
  2
Elevation
 70
     0
  0
SEQEND
  5
814
100
AcDbEntity
  8
Lines
  0
INSERT
  5
815
100
AcDbEntity
  8
Lines
100
AcDbBlockReference
 62
     0
 66
     1
  2
DIAG_CROSS
 10
8060.375571
 20
5077.576017
 30
234.224626
 41
0.019832
 42
0.019832
 43
0.019832
  0
ATTRIB
  5
816
100
AcDbEntity
  8
Lines
100
AcDbText
 10
8060.775570
 20
5077.976016
 30
234.224626
 40
1.0
  1
139
100
AcDbAttribute
  2
Name
 70
     0
  0
ATTRIB
  5
817
100
AcDbEntity
  8
Lines
100
AcDbText
 10
8060.775570
 20
5076.176019
 30
234.224626
 40
1.0
  1
107
100
AcDbAttribute
  2
Code
 70
     0
  0
ATTRIB
  5
818
100
AcDbEntity
  8
Lines
100
AcDbText
 10
8060.775570
 20
5074.776022
 30
234.224626
 40
1.0
  1
71.392
100
AcDbAttribute
  2
Elevation
 70
     0
  0
SEQEND
  5
819
100
AcDbEntity
  8
Lines
  0
INSERT
  5
820
100
AcDbEntity
  8
Lines
100
AcDbBlockReference
 62
     0
 66
     1
  2
DIAG_CROSS
 10
8080.332724
 20
5089.745882
 30
236.681222
 41
0.019832
 42
0.019832
 43
0.019832
  0
ATTRIB
  5
821
100
AcDbEntity
  8
Lines
100
AcDbText
 10
8080.732723
 20
5090.145881
 30
236.681222
 40
1.0
  1
140
100
AcDbAttribute
  2
Name
 70
     0
  0
ATTRIB
  5
822
100
AcDbEntity
  8
Lines
100
AcDbText
 10
8080.732723
 20
5088.345884
 30
236.681222
 40
1.0
  1
107
100
AcDbAttribute
  2
Code
 70
     0
  0
ATTRIB
  5
823
100
AcDbEntity
  8
Lines
100
AcDbText
 10
8080.732723
 20
5086.945887
 30
236.681222
 40
1.0
  1
72.141
100
AcDbAttribute
  2
Elevation
 70
     0
  0
SEQEND
  5
824
100
AcDbEntity
  8
Lines
  0
INSERT
  5
825
100
AcDbEntity
  8
Lines
100
AcDbBlockReference
 62
     0
 66
     1
  2
DIAG_CROSS
 10
8076.046232
 20
5096.201587
 30
237.036194
 41
0.019832
 42
0.019832
 43
0.019832
  0
ATTRIB
  5
826
100
AcDbEntity
  8
Lines
100
AcDbText
 10
8076.446231
 20
5096.601587
 30
237.036194
 40
1.0
  1
141
100
AcDbAttribute
  2
Name
 70
     0
  0
ATTRIB
  5
827
100
AcDbEntity
  8
Lines
100
AcDbText
 10
8076.446231
 20
5094.801590
 30
237.036194
 40
1.0
  1
106
100
AcDbAttribute
  2
Code
 70
     0
  0
ATTRIB
  5
828
100
AcDbEntity
  8
Lines
100
AcDbText
 10
8076.446231
 20
5093.401593
 30
237.036194
 40
1.0
  1
72.249
100
AcDbAttribute
  2
Elevation
 70
     0
  0
SEQEND
  5
829
100
AcDbEntity
  8
Lines
  0
INSERT
  5
830
100
AcDbEntity
  8
Lines
100
AcDbBlockReference
 62
     0
 66
     1
  2
DIAG_CROSS
 10
8095.941938
 20
5111.925432
 30
238.872363
 41
0.019832
 42
0.019832
 43
0.019832
  0
ATTRIB
  5
831
100
AcDbEntity
  8
Lines
100
AcDbText
 10
8096.341937
 20
5112.325431
 30
238.872363
 40
1.0
  1
142
100
AcDbAttribute
  2
Name
 70
     0
  0
ATTRIB
  5
832
100
AcDbEntity
  8
Lines
100
AcDbText
 10
8096.341937
 20
5110.525435
 30
238.872363
 40
1.0
  1
106
100
AcDbAttribute
  2
Code
 70
     0
  0
ATTRIB
  5
833
100
AcDbEntity
  8
Lines
100
AcDbText
 10
8096.341937
 20
5109.125437
 30
238.872363
 40
1.0
  1
72.808
100
AcDbAttribute
  2
Elevation
 70
     0
  0
SEQEND
  5
834
100
AcDbEntity
  8
Lines
  0
INSERT
  5
835
100
AcDbEntity
  8
Lines
100
AcDbBlockReference
 62
     0
 66
     1
  2
DIAG_CROSS
 10
8102.282497
 20
5105.890745
 30
238.018936
 41
0.019832
 42
0.019832
 43
0.019832
  0
ATTRIB
  5
836
100
AcDbEntity
  8
Lines
100
AcDbText
 10
8102.682496
 20
5106.290744
 30
238.018936
 40
1.0
  1
143
100
AcDbAttribute
  2
Name
 70
     0
  0
ATTRIB
  5
837
100
AcDbEntity
  8
Lines
100
AcDbText
 10
8102.682496
 20
5104.490747
 30
238.018936
 40
1.0
  1
107
100
AcDbAttribute
  2
Code
 70
     0
  0
ATTRIB
  5
838
100
AcDbEntity
  8
Lines
100
AcDbText
 10
8102.682496
 20
5103.090750
 30
238.018936
 40
1.0
  1
72.548
100
AcDbAttribute
  2
Elevation
 70
     0
  0
SEQEND
  5
839
100
AcDbEntity
  8
Lines
  0
INSERT
  5
840
100
AcDbEntity
  8
Lines
100
AcDbBlockReference
 62
     0
 66
     1
  2
DIAG_CROSS
 10
8120.034898
 20
5124.881988
 30
239.328778
 41
0.019832
 42
0.019832
 43
0.019832
  0
ATTRIB
  5
841
100
AcDbEntity
  8
Lines
100
AcDbText
 10
8120.434897
 20
5125.281987
 30
239.328778
 40
1.0
  1
144
100
AcDbAttribute
  2
Name
 70
     0
  0
ATTRIB
  5
842
100
AcDbEntity
  8
Lines
100
AcDbText
 10
8120.434897
 20
5123.481991
 30
239.328778
 40
1.0
  1
107
100
AcDbAttribute
  2
Code
 70
     0
  0
ATTRIB
  5
843
100
AcDbEntity
  8
Lines
100
AcDbText
 10
8120.434897
 20
5122.081993
 30
239.328778
 40
1.0
  1
72.948
100
AcDbAttribute
  2
Elevation
 70
     0
  0
SEQEND
  5
844
100
AcDbEntity
  8
Lines
  0
INSERT
  5
845
100
AcDbEntity
  8
Lines
100
AcDbBlockReference
 62
     0
 66
     1
  2
DIAG_CROSS
 10
8114.251669
 20
5130.724232
 30
240.095929
 41
0.019832
 42
0.019832
 43
0.019832
  0
ATTRIB
  5
846
100
AcDbEntity
  8
Lines
100
AcDbText
 10
8114.651668
 20
5131.124232
 30
240.095929
 40
1.0
  1
145
100
AcDbAttribute
  2
Name
 70
     0
  0
ATTRIB
  5
847
100
AcDbEntity
  8
Lines
100
AcDbText
 10
8114.651668
 20
5129.324235
 30
240.095929
 40
1.0
  1
106
100
AcDbAttribute
  2
Code
 70
     0
  0
ATTRIB
  5
848
100
AcDbEntity
  8
Lines
100
AcDbText
 10
8114.651668
 20
5127.924238
 30
240.095929
 40
1.0
  1
73.181
100
AcDbAttribute
  2
Elevation
 70
     0
  0
SEQEND
  5
849
100
AcDbEntity
  8
Lines
  0
INSERT
  5
850
100
AcDbEntity
  8
Lines
100
AcDbBlockReference
 62
     0
 66
     1
  2
DIAG_CROSS
 10
8121.566246
 20
5118.919852
 30
236.422577
 41
0.019832
 42
0.019832
 43
0.019832
  0
ATTRIB
  5
851
100
AcDbEntity
  8
Lines
100
AcDbText
 10
8121.966245
 20
5119.319851
 30
236.422577
 40
1.0
  1
146
100
AcDbAttribute
  2
Name
 70
     0
  0
ATTRIB
  5
852
100
AcDbEntity
  8
Lines
100
AcDbText
 10
8121.966245
 20
5117.519854
 30
236.422577
 40
1.0
  1
117
100
AcDbAttribute
  2
Code
 70
     0
  0
ATTRIB
  5
853
100
AcDbEntity
  8
Lines
100
AcDbText
 10
8121.966245
 20
5116.119857
 30
236.422577
 40
1.0
  1
72.062
100
AcDbAttribute
  2
Elevation
 70
     0
  0
SEQEND
  5
854
100
AcDbEntity
  8
Lines
  0
INSERT
  5
855
100
AcDbEntity
  8
Lines
100
AcDbBlockReference
 62
     0
 66
     1
  2
DIAG_CROSS
 10
8105.516177
 20
5102.392827
 30
235.980748
 41
0.019832
 42
0.019832
 43
0.019832
  0
ATTRIB
  5
856
100
AcDbEntity
  8
Lines
100
AcDbText
 10
8105.916176
 20
5102.792826
 30
235.980748
 40
1.0
  1
147
100
AcDbAttribute
  2
Name
 70
     0
  0
ATTRIB
  5
857
100
AcDbEntity
  8
Lines
100
AcDbText
 10
8105.916176
 20
5100.992830
 30
235.980748
 40
1.0
  1
117
100
AcDbAttribute
  2
Code
 70
     0
  0
ATTRIB
  5
858
100
AcDbEntity
  8
Lines
100
AcDbText
 10
8105.916176
 20
5099.592832
 30
235.980748
 40
1.0
  1
71.927
100
AcDbAttribute
  2
Elevation
 70
     0
  0
SEQEND
  5
859
100
AcDbEntity
  8
Lines
  0
INSERT
  5
860
100
AcDbEntity
  8
Lines
100
AcDbBlockReference
 62
     0
 66
     1
  2
DIAG_CROSS
 10
8081.446294
 20
5085.094537
 30
233.627375
 41
0.019832
 42
0.019832
 43
0.019832
  0
ATTRIB
  5
861
100
AcDbEntity
  8
Lines
100
AcDbText
 10
8081.846293
 20
5085.494536
 30
233.627375
 40
1.0
  1
148
100
AcDbAttribute
  2
Name
 70
     0
  0
ATTRIB
  5
862
100
AcDbEntity
  8
Lines
100
AcDbText
 10
8081.846293
 20
5083.694540
 30
233.627375
 40
1.0
  1
117
100
AcDbAttribute
  2
Code
 70
     0
  0
ATTRIB
  5
863
100
AcDbEntity
  8
Lines
100
AcDbText
 10
8081.846293
 20
5082.294542
 30
233.627375
 40
1.0
  1
71.210
100
AcDbAttribute
  2
Elevation
 70
     0
  0
SEQEND
  5
864
100
AcDbEntity
  8
Lines
  0
INSERT
  5
865
100
AcDbEntity
  8
Lines
100
AcDbBlockReference
 62
     0
 66
     1
  2
DIAG_CROSS
 10
8063.016847
 20
5073.371022
 30
231.580886
 41
0.019832
 42
0.019832
 43
0.019832
  0
ATTRIB
  5
866
100
AcDbEntity
  8
Lines
100
AcDbText
 10
8063.416846
 20
5073.771022
 30
231.580886
 40
1.0
  1
149
100
AcDbAttribute
  2
Name
 70
     0
  0
ATTRIB
  5
867
100
AcDbEntity
  8
Lines
100
AcDbText
 10
8063.416846
 20
5071.971025
 30
231.580886
 40
1.0
  1
117
100
AcDbAttribute
  2
Code
 70
     0
  0
ATTRIB
  5
868
100
AcDbEntity
  8
Lines
100
AcDbText
 10
8063.416846
 20
5070.571028
 30
231.580886
 40
1.0
  1
70.586
100
AcDbAttribute
  2
Elevation
 70
     0
  0
SEQEND
  5
869
100
AcDbEntity
  8
Lines
  0
INSERT
  5
870
100
AcDbEntity
  8
Lines
100
AcDbBlockReference
 62
     0
 66
     1
  2
DIAG_CROSS
 10
8041.436032
 20
5059.505751
 30
229.295257
 41
0.019832
 42
0.019832
 43
0.019832
  0
ATTRIB
  5
871
100
AcDbEntity
  8
Lines
100
AcDbText
 10
8041.836031
 20
5059.905750
 30
229.295257
 40
1.0
  1
150
100
AcDbAttribute
  2
Name
 70
     0
  0
ATTRIB
  5
872
100
AcDbEntity
  8
Lines
100
AcDbText
 10
8041.836031
 20
5058.105754
 30
229.295257
 40
1.0
  1
117
100
AcDbAttribute
  2
Code
 70
     0
  0
ATTRIB
  5
873
100
AcDbEntity
  8
Lines
100
AcDbText
 10
8041.836031
 20
5056.705757
 30
229.295257
 40
1.0
  1
69.889
100
AcDbAttribute
  2
Elevation
 70
     0
  0
SEQEND
  5
874
100
AcDbEntity
  8
Lines
  0
INSERT
  5
875
100
AcDbEntity
  8
Lines
100
AcDbBlockReference
 62
    24
 66
     1
  2
DIAG_CROSS
 10
8017.671376
 20
5070.635460
 30
238.671069
 41
0.019832
 42
0.019832
 43
0.019832
  0
ATTRIB
  5
876
100
AcDbEntity
  8
Lines
100
AcDbText
 10
8018.071376
 20
5071.035460
 30
238.671069
 40
1.0
  1
151
100
AcDbAttribute
  2
Name
 70
     0
  0
ATTRIB
  5
877
100
AcDbEntity
  8
Lines
100
AcDbText
 10
8018.071376
 20
5069.235463
 30
238.671069
 40
1.0
  1
145 B
100
AcDbAttribute
  2
Code
 70
     0
  0
ATTRIB
  5
878
100
AcDbEntity
  8
Lines
100
AcDbText
 10
8018.071376
 20
5067.835466
 30
238.671069
 40
1.0
  1
72.747
100
AcDbAttribute
  2
Elevation
 70
     0
  0
SEQEND
  5
879
100
AcDbEntity
  8
Lines
  0
INSERT
  5
880
100
AcDbEntity
  8
Lines
100
AcDbBlockReference
 62
    24
 66
     1
  2
DIAG_CROSS
 10
8030.988086
 20
5075.263963
 30
237.660734
 41
0.019832
 42
0.019832
 43
0.019832
  0
ATTRIB
  5
881
100
AcDbEntity
  8
Lines
100
AcDbText
 10
8031.388085
 20
5075.663962
 30
237.660734
 40
1.0
  1
152
100
AcDbAttribute
  2
Name
 70
     0
  0
ATTRIB
  5
882
100
AcDbEntity
  8
Lines
100
AcDbText
 10
8031.388085
 20
5073.863966
 30
237.660734
 40
1.0
  1
145
100
AcDbAttribute
  2
Code
 70
     0
  0
ATTRIB
  5
883
100
AcDbEntity
  8
Lines
100
AcDbText
 10
8031.388085
 20
5072.463969
 30
237.660734
 40
1.0
  1
72.439
100
AcDbAttribute
  2
Elevation
 70
     0
  0
SEQEND
  5
884
100
AcDbEntity
  8
Lines
  0
INSERT
  5
885
100
AcDbEntity
  8
Lines
100
AcDbBlockReference
 62
    24
 66
     1
  2
DIAG_CROSS
 10
8053.362442
 20
5090.192260
 30
240.735913
 41
0.019832
 42
0.019832
 43
0.019832
  0
ATTRIB
  5
886
100
AcDbEntity
  8
Lines
100
AcDbText
 10
8053.762441
 20
5090.592259
 30
240.735913
 40
1.0
  1
153
100
AcDbAttribute
  2
Name
 70
     0
  0
ATTRIB
  5
887
100
AcDbEntity
  8
Lines
100
AcDbText
 10
8053.762441
 20
5088.792263
 30
240.735913
 40
1.0
  1
145
100
AcDbAttribute
  2
Code
 70
     0
  0
ATTRIB
  5
888
100
AcDbEntity
  8
Lines
100
AcDbText
 10
8053.762441
 20
5087.392265
 30
240.735913
 40
1.0
  1
73.376
100
AcDbAttribute
  2
Elevation
 70
     0
  0
SEQEND
  5
889
100
AcDbEntity
  8
Lines
  0
INSERT
  5
890
100
AcDbEntity
  8
Lines
100
AcDbBlockReference
 62
    24
 66
     1
  2
DIAG_CROSS
 10
8073.834920
 20
5100.559472
 30
241.918965
 41
0.019832
 42
0.019832
 43
0.019832
  0
ATTRIB
  5
891
100
AcDbEntity
  8
Lines
100
AcDbText
 10
8074.234920
 20
5100.959471
 30
241.918965
 40
1.0
  1
154
100
AcDbAttribute
  2
Name
 70
     0
  0
ATTRIB
  5
892
100
AcDbEntity
  8
Lines
100
AcDbText
 10
8074.234920
 20
5099.159474
 30
241.918965
 40
1.0
  1
145
100
AcDbAttribute
  2
Code
 70
     0
  0
ATTRIB
  5
893
100
AcDbEntity
  8
Lines
100
AcDbText
 10
8074.234920
 20
5097.759477
 30
241.918965
 40
1.0
  1
73.737
100
AcDbAttribute
  2
Elevation
 70
     0
  0
SEQEND
  5
894
100
AcDbEntity
  8
Lines
  0
INSERT
  5
895
100
AcDbEntity
  8
Lines
100
AcDbBlockReference
 62
    24
 66
     1
  2
DIAG_CROSS
 10
8093.468880
 20
5117.515676
 30
243.802099
 41
0.019832
 42
0.019832
 43
0.019832
  0
ATTRIB
  5
896
100
AcDbEntity
  8
Lines
100
AcDbText
 10
8093.868879
 20
5117.915676
 30
243.802099
 40
1.0
  1
155
100
AcDbAttribute
  2
Name
 70
     0
  0
ATTRIB
  5
897
100
AcDbEntity
  8
Lines
100
AcDbText
 10
8093.868879
 20
5116.115679
 30
243.802099
 40
1.0
  1
145
100
AcDbAttribute
  2
Code
 70
     0
  0
ATTRIB
  5
898
100
AcDbEntity
  8
Lines
100
AcDbText
 10
8093.868879
 20
5114.715682
 30
243.802099
 40
1.0
  1
74.311
100
AcDbAttribute
  2
Elevation
 70
     0
  0
SEQEND
  5
899
100
AcDbEntity
  8
Lines
  0
INSERT
  5
900
100
AcDbEntity
  8
Lines
100
AcDbBlockReference
 62
    24
 66
     1
  2
DIAG_CROSS
 10
8104.704502
 20
5132.116754
 30
245.005778
 41
0.019832
 42
0.019832
 43
0.019832
  0
ATTRIB
  5
901
100
AcDbEntity
  8
Lines
100
AcDbText
 10
8105.104502
 20
5132.516753
 30
245.005778
 40
1.0
  1
156
100
AcDbAttribute
  2
Name
 70
     0
  0
ATTRIB
  5
902
100
AcDbEntity
  8
Lines
100
AcDbText
 10
8105.104502
 20
5130.716757
 30
245.005778
 40
1.0
  1
145
100
AcDbAttribute
  2
Code
 70
     0
  0
ATTRIB
  5
903
100
AcDbEntity
  8
Lines
100
AcDbText
 10
8105.104502
 20
5129.316760
 30
245.005778
 40
1.0
  1
74.678
100
AcDbAttribute
  2
Elevation
 70
     0
  0
SEQEND
  5
904
100
AcDbEntity
  8
Lines
  0
INSERT
  5
905
100
AcDbEntity
  8
Lines
100
AcDbBlockReference
 62
     0
 66
     1
  2
DIAG_CROSS
 10
8085.307655
 20
5146.711992
 30
255.827259
 41
0.019832
 42
0.019832
 43
0.019832
  0
ATTRIB
  5
906
100
AcDbEntity
  8
Lines
100
AcDbText
 10
8085.707654
 20
5147.111991
 30
255.827259
 40
1.0
  1
157
100
AcDbAttribute
  2
Name
 70
     0
  0
ATTRIB
  5
907
100
AcDbEntity
  8
Lines
100
AcDbText
 10
8085.707654
 20
5145.311995
 30
255.827259
 40
1.0
  1
117
100
AcDbAttribute
  2
Code
 70
     0
  0
ATTRIB
  5
908
100
AcDbEntity
  8
Lines
100
AcDbText
 10
8085.707654
 20
5143.911997
 30
255.827259
 40
1.0
  1
77.976
100
AcDbAttribute
  2
Elevation
 70
     0
  0
SEQEND
  5
909
100
AcDbEntity
  8
Lines
  0
INSERT
  5
910
100
AcDbEntity
  8
Lines
100
AcDbBlockReference
 62
     0
 66
     1
  2
DIAG_CROSS
 10
8070.744228
 20
5164.449737
 30
264.364004
 41
0.019832
 42
0.019832
 43
0.019832
  0
ATTRIB
  5
911
100
AcDbEntity
  8
Lines
100
AcDbText
 10
8071.144227
 20
5164.849736
 30
264.364004
 40
1.0
  1
158
100
AcDbAttribute
  2
Name
 70
     0
  0
ATTRIB
  5
912
100
AcDbEntity
  8
Lines
100
AcDbText
 10
8071.144227
 20
5163.049740
 30
264.364004
 40
1.0
  1
117
100
AcDbAttribute
  2
Code
 70
     0
  0
ATTRIB
  5
913
100
AcDbEntity
  8
Lines
100
AcDbText
 10
8071.144227
 20
5161.649743
 30
264.364004
 40
1.0
  1
80.578
100
AcDbAttribute
  2
Elevation
 70
     0
  0
SEQEND
  5
914
100
AcDbEntity
  8
Lines
  0
INSERT
  5
915
100
AcDbEntity
  8
Lines
100
AcDbBlockReference
 62
     0
 66
     1
  2
DIAG_CROSS
 10
8046.445093
 20
5176.847193
 30
274.619753
 41
0.019832
 42
0.019832
 43
0.019832
  0
ATTRIB
  5
916
100
AcDbEntity
  8
Lines
100
AcDbText
 10
8046.845092
 20
5177.247192
 30
274.619753
 40
1.0
  1
159
100
AcDbAttribute
  2
Name
 70
     0
  0
ATTRIB
  5
917
100
AcDbEntity
  8
Lines
100
AcDbText
 10
8046.845092
 20
5175.447195
 30
274.619753
 40
1.0
  1
117
100
AcDbAttribute
  2
Code
 70
     0
  0
ATTRIB
  5
918
100
AcDbEntity
  8
Lines
100
AcDbText
 10
8046.845092
 20
5174.047198
 30
274.619753
 40
1.0
  1
83.704
100
AcDbAttribute
  2
Elevation
 70
     0
  0
SEQEND
  5
919
100
AcDbEntity
  8
Lines
  0
INSERT
  5
920
100
AcDbEntity
  8
Lines
100
AcDbBlockReference
 62
     0
 66
     1
  2
DIAG_CROSS
 10
8030.126887
 20
5185.248011
 30
281.927987
 41
0.019832
 42
0.019832
 43
0.019832
  0
ATTRIB
  5
921
100
AcDbEntity
  8
Lines
100
AcDbText
 10
8030.526886
 20
5185.648010
 30
281.927987
 40
1.0
  1
160
100
AcDbAttribute
  2
Name
 70
     0
  0
ATTRIB
  5
922
100
AcDbEntity
  8
Lines
100
AcDbText
 10
8030.526886
 20
5183.848014
 30
281.927987
 40
1.0
  1
117
100
AcDbAttribute
  2
Code
 70
     0
  0
ATTRIB
  5
923
100
AcDbEntity
  8
Lines
100
AcDbText
 10
8030.526886
 20
5182.448016
 30
281.927987
 40
1.0
  1
85.932
100
AcDbAttribute
  2
Elevation
 70
     0
  0
SEQEND
  5
924
100
AcDbEntity
  8
Lines
  0
INSERT
  5
925
100
AcDbEntity
  8
Lines
100
AcDbBlockReference
 62
     0
 66
     1
  2
DIAG_CROSS
 10
8000.470349
 20
5156.362385
 30
283.213538
 41
0.019832
 42
0.019832
 43
0.019832
  0
ATTRIB
  5
926
100
AcDbEntity
  8
Lines
100
AcDbText
 10
8000.870349
 20
5156.762384
 30
283.213538
 40
1.0
  1
161
100
AcDbAttribute
  2
Name
 70
     0
  0
ATTRIB
  5
927
100
AcDbEntity
  8
Lines
100
AcDbText
 10
8000.870349
 20
5154.962388
 30
283.213538
 40
1.0
  1
117
100
AcDbAttribute
  2
Code
 70
     0
  0
ATTRIB
  5
928
100
AcDbEntity
  8
Lines
100
AcDbText
 10
8000.870349
 20
5153.562391
 30
283.213538
 40
1.0
  1
86.324
100
AcDbAttribute
  2
Elevation
 70
     0
  0
SEQEND
  5
929
100
AcDbEntity
  8
Lines
  0
INSERT
  5
930
100
AcDbEntity
  8
Lines
100
AcDbBlockReference
 62
     0
 66
     1
  2
DIAG_CROSS
 10
7984.922128
 20
5135.491673
 30
278.094822
 41
0.019832
 42
0.019832
 43
0.019832
  0
ATTRIB
  5
931
100
AcDbEntity
  8
Lines
100
AcDbText
 10
7985.322127
 20
5135.891672
 30
278.094822
 40
1.0
  1
162
100
AcDbAttribute
  2
Name
 70
     0
  0
ATTRIB
  5
932
100
AcDbEntity
  8
Lines
100
AcDbText
 10
7985.322127
 20
5134.091676
 30
278.094822
 40
1.0
  1
117
100
AcDbAttribute
  2
Code
 70
     0
  0
ATTRIB
  5
933
100
AcDbEntity
  8
Lines
100
AcDbText
 10
7985.322127
 20
5132.691678
 30
278.094822
 40
1.0
  1
84.763
100
AcDbAttribute
  2
Elevation
 70
     0
  0
SEQEND
  5
934
100
AcDbEntity
  8
Lines
  0
INSERT
  5
935
100
AcDbEntity
  8
Lines
100
AcDbBlockReference
 62
     0
 66
     1
  2
DIAG_CROSS
 10
8002.487856
 20
5119.260320
 30
266.881627
 41
0.019832
 42
0.019832
 43
0.019832
  0
ATTRIB
  5
936
100
AcDbEntity
  8
Lines
100
AcDbText
 10
8002.887856
 20
5119.660320
 30
266.881627
 40
1.0
  1
163
100
AcDbAttribute
  2
Name
 70
     0
  0
ATTRIB
  5
937
100
AcDbEntity
  8
Lines
100
AcDbText
 10
8002.887856
 20
5117.860323
 30
266.881627
 40
1.0
  1
117
100
AcDbAttribute
  2
Code
 70
     0
  0
ATTRIB
  5
938
100
AcDbEntity
  8
Lines
100
AcDbText
 10
8002.887856
 20
5116.460326
 30
266.881627
 40
1.0
  1
81.346
100
AcDbAttribute
  2
Elevation
 70
     0
  0
SEQEND
  5
939
100
AcDbEntity
  8
Lines
  0
INSERT
  5
940
100
AcDbEntity
  8
Lines
100
AcDbBlockReference
 62
     0
 66
     1
  2
DIAG_CROSS
 10
8027.631133
 20
5137.786397
 30
267.736954
 41
0.019832
 42
0.019832
 43
0.019832
  0
ATTRIB
  5
941
100
AcDbEntity
  8
Lines
100
AcDbText
 10
8028.031133
 20
5138.186396
 30
267.736954
 40
1.0
  1
164
100
AcDbAttribute
  2
Name
 70
     0
  0
ATTRIB
  5
942
100
AcDbEntity
  8
Lines
100
AcDbText
 10
8028.031133
 20
5136.386400
 30
267.736954
 40
1.0
  1
117
100
AcDbAttribute
  2
Code
 70
     0
  0
ATTRIB
  5
943
100
AcDbEntity
  8
Lines
100
AcDbText
 10
8028.031133
 20
5134.986403
 30
267.736954
 40
1.0
  1
81.606
100
AcDbAttribute
  2
Elevation
 70
     0
  0
SEQEND
  5
944
100
AcDbEntity
  8
Lines
  0
INSERT
  5
945
100
AcDbEntity
  8
Lines
100
AcDbBlockReference
 62
     0
 66
     1
  2
DIAG_CROSS
 10
8052.930809
 20
5150.712347
 30
266.529570
 41
0.019832
 42
0.019832
 43
0.019832
  0
ATTRIB
  5
946
100
AcDbEntity
  8
Lines
100
AcDbText
 10
8053.330808
 20
5151.112346
 30
266.529570
 40
1.0
  1
165
100
AcDbAttribute
  2
Name
 70
     0
  0
ATTRIB
  5
947
100
AcDbEntity
  8
Lines
100
AcDbText
 10
8053.330808
 20
5149.312350
 30
266.529570
 40
1.0
  1
117
100
AcDbAttribute
  2
Code
 70
     0
  0
ATTRIB
  5
948
100
AcDbEntity
  8
Lines
100
AcDbText
 10
8053.330808
 20
5147.912353
 30
266.529570
 40
1.0
  1
81.238
100
AcDbAttribute
  2
Elevation
 70
     0
  0
SEQEND
  5
949
100
AcDbEntity
  8
Lines
  0
INSERT
  5
950
100
AcDbEntity
  8
Lines
100
AcDbBlockReference
 62
     0
 66
     1
  2
DIAG_CROSS
 10
8068.338756
 20
5123.533394
 30
252.716249
 41
0.019832
 42
0.019832
 43
0.019832
  0
ATTRIB
  5
951
100
AcDbEntity
  8
Lines
100
AcDbText
 10
8068.738755
 20
5123.933393
 30
252.716249
 40
1.0
  1
166
100
AcDbAttribute
  2
Name
 70
     0
  0
ATTRIB
  5
952
100
AcDbEntity
  8
Lines
100
AcDbText
 10
8068.738755
 20
5122.133396
 30
252.716249
 40
1.0
  1
117
100
AcDbAttribute
  2
Code
 70
     0
  0
ATTRIB
  5
953
100
AcDbEntity
  8
Lines
100
AcDbText
 10
8068.738755
 20
5120.733399
 30
252.716249
 40
1.0
  1
77.028
100
AcDbAttribute
  2
Elevation
 70
     0
  0
SEQEND
  5
954
100
AcDbEntity
  8
Lines
  0
INSERT
  5
955
100
AcDbEntity
  8
Lines
100
AcDbBlockReference
 62
     0
 66
     1
  2
DIAG_CROSS
 10
8044.615754
 20
5102.047642
 30
248.466298
 41
0.019832
 42
0.019832
 43
0.019832
  0
ATTRIB
  5
956
100
AcDbEntity
  8
Lines
100
AcDbText
 10
8045.015754
 20
5102.447641
 30
248.466298
 40
1.0
  1
167
100
AcDbAttribute
  2
Name
 70
     0
  0
ATTRIB
  5
957
100
AcDbEntity
  8
Lines
100
AcDbText
 10
8045.015754
 20
5100.647645
 30
248.466298
 40
1.0
  1
117
100
AcDbAttribute
  2
Code
 70
     0
  0
ATTRIB
  5
958
100
AcDbEntity
  8
Lines
100
AcDbText
 10
8045.015754
 20
5099.247647
 30
248.466298
 40
1.0
  1
75.733
100
AcDbAttribute
  2
Elevation
 70
     0
  0
SEQEND
  5
959
100
AcDbEntity
  8
Lines
  0
INSERT
  5
960
100
AcDbEntity
  8
Lines
100
AcDbBlockReference
 62
     0
 66
     1
  2
DIAG_CROSS
 10
8029.632473
 20
5090.642677
 30
245.422596
 41
0.019832
 42
0.019832
 43
0.019832
  0
ATTRIB
  5
961
100
AcDbEntity
  8
Lines
100
AcDbText
 10
8030.032473
 20
5091.042676
 30
245.422596
 40
1.0
  1
168
100
AcDbAttribute
  2
Name
 70
     0
  0
ATTRIB
  5
962
100
AcDbEntity
  8
Lines
100
AcDbText
 10
8030.032473
 20
5089.242680
 30
245.422596
 40
1.0
  1
117
100
AcDbAttribute
  2
Code
 70
     0
  0
ATTRIB
  5
963
100
AcDbEntity
  8
Lines
100
AcDbText
 10
8030.032473
 20
5087.842683
 30
245.422596
 40
1.0
  1
74.805
100
AcDbAttribute
  2
Elevation
 70
     0
  0
SEQEND
  5
964
100
AcDbEntity
  8
Lines
  0
INSERT
  5
965
100
AcDbEntity
  8
Points
100
AcDbBlockReference
 66
     1
  2
DIAG_CROSS
 10
8109.665199
 20
5237.828135
 30
247.559479
 41
0.019832
 42
0.019832
 43
0.019832
  0
ATTRIB
  5
966
100
AcDbEntity
  8
Points
100
AcDbText
 10
8110.065198
 20
5238.228134
 30
247.559479
 40
1.0
  1
9
100
AcDbAttribute
  2
Name
 70
     0
  0
ATTRIB
  5
967
100
AcDbEntity
  8
Points
100
AcDbText
 10
8110.065198
 20
5236.428138
 30
247.559479
 40
1.0
  1
SPIKE
100
AcDbAttribute
  2
Code
 70
     0
  0
ATTRIB
  5
968
100
AcDbEntity
  8
Points
100
AcDbText
 10
8110.065198
 20
5235.028141
 30
247.559479
 40
1.0
  1
75.456
100
AcDbAttribute
  2
Elevation
 70
     0
  0
SEQEND
  5
969
100
AcDbEntity
  8
Points
  0
INSERT
  5
970
100
AcDbEntity
  8
Points
100
AcDbBlockReference
 66
     1
  2
DIAG_CROSS
 10
8098.488289
 20
5135.904477
 30
248.305977
 41
0.019832
 42
0.019832
 43
0.019832
  0
ATTRIB
  5
971
100
AcDbEntity
  8
Points
100
AcDbText
 10
8098.888288
 20
5136.304476
 30
248.305977
 40
1.0
  1
10
100
AcDbAttribute
  2
Name
 70
     0
  0
ATTRIB
  5
972
100
AcDbEntity
  8
Points
100
AcDbText
 10
8098.888288
 20
5134.504480
 30
248.305977
 40
1.0
  1
FD IP
100
AcDbAttribute
  2
Code
 70
     0
  0
ATTRIB
  5
973
100
AcDbEntity
  8
Points
100
AcDbText
 10
8098.888288
 20
5133.104483
 30
248.305977
 40
1.0
  1
75.684
100
AcDbAttribute
  2
Elevation
 70
     0
  0
SEQEND
  5
974
100
AcDbEntity
  8
Points
  0
INSERT
  5
975
100
AcDbEntity
  8
Lines
100
AcDbBlockReference
 62
     0
 66
     1
  2
DIAG_CROSS
 10
8129.498655
 20
5135.147166
 30
238.841439
 41
0.019832
 42
0.019832
 43
0.019832
  0
ATTRIB
  5
976
100
AcDbEntity
  8
Lines
100
AcDbText
 10
8129.898655
 20
5135.547165
 30
238.841439
 40
1.0
  1
169
100
AcDbAttribute
  2
Name
 70
     0
  0
ATTRIB
  5
977
100
AcDbEntity
  8
Lines
100
AcDbText
 10
8129.898655
 20
5133.747168
 30
238.841439
 40
1.0
  1
117
100
AcDbAttribute
  2
Code
 70
     0
  0
ATTRIB
  5
978
100
AcDbEntity
  8
Lines
100
AcDbText
 10
8129.898655
 20
5132.347171
 30
238.841439
 40
1.0
  1
72.799
100
AcDbAttribute
  2
Elevation
 70
     0
  0
SEQEND
  5
979
100
AcDbEntity
  8
Lines
  0
INSERT
  5
980
100
AcDbEntity
  8
Lines
100
AcDbBlockReference
 62
     0
 66
     1
  2
DIAG_CROSS
 10
8119.725987
 20
5140.253890
 30
240.975445
 41
0.019832
 42
0.019832
 43
0.019832
  0
ATTRIB
  5
981
100
AcDbEntity
  8
Lines
100
AcDbText
 10
8120.125986
 20
5140.653889
 30
240.975445
 40
1.0
  1
170
100
AcDbAttribute
  2
Name
 70
     0
  0
ATTRIB
  5
982
100
AcDbEntity
  8
Lines
100
AcDbText
 10
8120.125986
 20
5138.853893
 30
240.975445
 40
1.0
  1
106
100
AcDbAttribute
  2
Code
 70
     0
  0
ATTRIB
  5
983
100
AcDbEntity
  8
Lines
100
AcDbText
 10
8120.125986
 20
5137.453896
 30
240.975445
 40
1.0
  1
73.449
100
AcDbAttribute
  2
Elevation
 70
     0
  0
SEQEND
  5
984
100
AcDbEntity
  8
Lines
  0
INSERT
  5
985
100
AcDbEntity
  8
Lines
100
AcDbBlockReference
 62
     0
 66
     1
  2
DIAG_CROSS
 10
8124.069128
 20
5156.769778
 30
241.740981
 41
0.019832
 42
0.019832
 43
0.019832
  0
ATTRIB
  5
986
100
AcDbEntity
  8
Lines
100
AcDbText
 10
8124.469127
 20
5157.169777
 30
241.740981
 40
1.0
  1
171
100
AcDbAttribute
  2
Name
 70
     0
  0
ATTRIB
  5
987
100
AcDbEntity
  8
Lines
100
AcDbText
 10
8124.469127
 20
5155.369780
 30
241.740981
 40
1.0
  1
106
100
AcDbAttribute
  2
Code
 70
     0
  0
ATTRIB
  5
988
100
AcDbEntity
  8
Lines
100
AcDbText
 10
8124.469127
 20
5153.969783
 30
241.740981
 40
1.0
  1
73.683
100
AcDbAttribute
  2
Elevation
 70
     0
  0
SEQEND
  5
989
100
AcDbEntity
  8
Lines
  0
INSERT
  5
990
100
AcDbEntity
  8
Lines
100
AcDbBlockReference
 62
     0
 66
     1
  2
DIAG_CROSS
 10
8135.104338
 20
5158.872309
 30
239.041817
 41
0.019832
 42
0.019832
 43
0.019832
  0
ATTRIB
  5
991
100
AcDbEntity
  8
Lines
100
AcDbText
 10
8135.504337
 20
5159.272308
 30
239.041817
 40
1.0
  1
172
100
AcDbAttribute
  2
Name
 70
     0
  0
ATTRIB
  5
992
100
AcDbEntity
  8
Lines
100
AcDbText
 10
8135.504337
 20
5157.472311
 30
239.041817
 40
1.0
  1
117
100
AcDbAttribute
  2
Code
 70
     0
  0
ATTRIB
  5
993
100
AcDbEntity
  8
Lines
100
AcDbText
 10
8135.504337
 20
5156.072314
 30
239.041817
 40
1.0
  1
72.860
100
AcDbAttribute
  2
Elevation
 70
     0
  0
SEQEND
  5
994
100
AcDbEntity
  8
Lines
  0
INSERT
  5
995
100
AcDbEntity
  8
Lines
100
AcDbBlockReference
 62
     0
 66
     1
  2
DIAG_CROSS
 10
8133.540077
 20
5181.056173
 30
240.042027
 41
0.019832
 42
0.019832
 43
0.019832
  0
ATTRIB
  5
996
100
AcDbEntity
  8
Lines
100
AcDbText
 10
8133.940077
 20
5181.456173
 30
240.042027
 40
1.0
  1
173
100
AcDbAttribute
  2
Name
 70
     0
  0
ATTRIB
  5
997
100
AcDbEntity
  8
Lines
100
AcDbText
 10
8133.940077
 20
5179.656176
 30
240.042027
 40
1.0
  1
117
100
AcDbAttribute
  2
Code
 70
     0
  0
ATTRIB
  5
998
100
AcDbEntity
  8
Lines
100
AcDbText
 10
8133.940077
 20
5178.256179
 30
240.042027
 40
1.0
  1
73.165
100
AcDbAttribute
  2
Elevation
 70
     0
  0
SEQEND
  5
999
100
AcDbEntity
  8
Lines
  0
INSERT
  5
1000
100
AcDbEntity
  8
Lines
100
AcDbBlockReference
 62
     0
 66
     1
  2
DIAG_CROSS
 10
8129.116896
 20
5180.427188
 30
241.907510
 41
0.019832
 42
0.019832
 43
0.019832
  0
ATTRIB
  5
1001
100
AcDbEntity
  8
Lines
100
AcDbText
 10
8129.516895
 20
5180.827187
 30
241.907510
 40
1.0
  1
174
100
AcDbAttribute
  2
Name
 70
     0
  0
ATTRIB
  5
1002
100
AcDbEntity
  8
Lines
100
AcDbText
 10
8129.516895
 20
5179.027191
 30
241.907510
 40
1.0
  1
107
100
AcDbAttribute
  2
Code
 70
     0
  0
ATTRIB
  5
1003
100
AcDbEntity
  8
Lines
100
AcDbText
 10
8129.516895
 20
5177.627193
 30
241.907510
 40
1.0
  1
73.734
100
AcDbAttribute
  2
Elevation
 70
     0
  0
SEQEND
  5
1004
100
AcDbEntity
  8
Lines
  0
INSERT
  5
1005
100
AcDbEntity
  8
Lines
100
AcDbBlockReference
 62
     0
 66
     1
  2
DIAG_CROSS
 10
8120.975052
 20
5180.034132
 30
242.864829
 41
0.019832
 42
0.019832
 43
0.019832
  0
ATTRIB
  5
1006
100
AcDbEntity
  8
Lines
100
AcDbText
 10
8121.375052
 20
5180.434131
 30
242.864829
 40
1.0
  1
175
100
AcDbAttribute
  2
Name
 70
     0
  0
ATTRIB
  5
1007
100
AcDbEntity
  8
Lines
100
AcDbText
 10
8121.375052
 20
5178.634135
 30
242.864829
 40
1.0
  1
106
100
AcDbAttribute
  2
Code
 70
     0
  0
ATTRIB
  5
1008
100
AcDbEntity
  8
Lines
100
AcDbText
 10
8121.375052
 20
5177.234137
 30
242.864829
 40
1.0
  1
74.025
100
AcDbAttribute
  2
Elevation
 70
     0
  0
SEQEND
  5
1009
100
AcDbEntity
  8
Lines
  0
INSERT
  5
1010
100
AcDbEntity
  8
Lines
100
AcDbBlockReference
 62
     0
 66
     1
  2
DIAG_CROSS
 10
8115.772275
 20
5200.683364
 30
244.513088
 41
0.019832
 42
0.019832
 43
0.019832
  0
ATTRIB
  5
1011
100
AcDbEntity
  8
Lines
100
AcDbText
 10
8116.172274
 20
5201.083363
 30
244.513088
 40
1.0
  1
176
100
AcDbAttribute
  2
Name
 70
     0
  0
ATTRIB
  5
1012
100
AcDbEntity
  8
Lines
100
AcDbText
 10
8116.172274
 20
5199.283366
 30
244.513088
 40
1.0
  1
106
100
AcDbAttribute
  2
Code
 70
     0
  0
ATTRIB
  5
1013
100
AcDbEntity
  8
Lines
100
AcDbText
 10
8116.172274
 20
5197.883369
 30
244.513088
 40
1.0
  1
74.528
100
AcDbAttribute
  2
Elevation
 70
     0
  0
SEQEND
  5
1014
100
AcDbEntity
  8
Lines
  0
INSERT
  5
1015
100
AcDbEntity
  8
Lines
100
AcDbBlockReference
 62
     0
 66
     1
  2
DIAG_CROSS
 10
8123.156258
 20
5203.322735
 30
243.914355
 41
0.019832
 42
0.019832
 43
0.019832
  0
ATTRIB
  5
1016
100
AcDbEntity
  8
Lines
100
AcDbText
 10
8123.556258
 20
5203.722734
 30
243.914355
 40
1.0
  1
177
100
AcDbAttribute
  2
Name
 70
     0
  0
ATTRIB
  5
1017
100
AcDbEntity
  8
Lines
100
AcDbText
 10
8123.556258
 20
5201.922738
 30
243.914355
 40
1.0
  1
107
100
AcDbAttribute
  2
Code
 70
     0
  0
ATTRIB
  5
1018
100
AcDbEntity
  8
Lines
100
AcDbText
 10
8123.556258
 20
5200.522741
 30
243.914355
 40
1.0
  1
74.345
100
AcDbAttribute
  2
Elevation
 70
     0
  0
SEQEND
  5
1019
100
AcDbEntity
  8
Lines
  0
INSERT
  5
1020
100
AcDbEntity
  8
Lines
100
AcDbBlockReference
 62
     0
 66
     1
  2
DIAG_CROSS
 10
8127.856218
 20
5203.565541
 30
241.719278
 41
0.019832
 42
0.019832
 43
0.019832
  0
ATTRIB
  5
1021
100
AcDbEntity
  8
Lines
100
AcDbText
 10
8128.256217
 20
5203.965541
 30
241.719278
 40
1.0
  1
178
100
AcDbAttribute
  2
Name
 70
     0
  0
ATTRIB
  5
1022
100
AcDbEntity
  8
Lines
100
AcDbText
 10
8128.256217
 20
5202.165544
 30
241.719278
 40
1.0
  1
117
100
AcDbAttribute
  2
Code
 70
     0
  0
ATTRIB
  5
1023
100
AcDbEntity
  8
Lines
100
AcDbText
 10
8128.256217
 20
5200.765547
 30
241.719278
 40
1.0
  1
73.676
100
AcDbAttribute
  2
Elevation
 70
     0
  0
SEQEND
  5
1024
100
AcDbEntity
  8
Lines
  0
INSERT
  5
1025
100
AcDbEntity
  8
Lines
100
AcDbBlockReference
 62
    24
 66
     1
  2
DIAG_CROSS
 10
8113.017899
 20
5200.264746
 30
247.304786
 41
0.019832
 42
0.019832
 43
0.019832
  0
ATTRIB
  5
1026
100
AcDbEntity
  8
Lines
100
AcDbText
 10
8113.417898
 20
5200.664745
 30
247.304786
 40
1.0
  1
179
100
AcDbAttribute
  2
Name
 70
     0
  0
ATTRIB
  5
1027
100
AcDbEntity
  8
Lines
100
AcDbText
 10
8113.417898
 20
5198.864749
 30
247.304786
 40
1.0
  1
145 B
100
AcDbAttribute
  2
Code
 70
     0
  0
ATTRIB
  5
1028
100
AcDbEntity
  8
Lines
100
AcDbText
 10
8113.417898
 20
5197.464751
 30
247.304786
 40
1.0
  1
75.379
100
AcDbAttribute
  2
Elevation
 70
     0
  0
SEQEND
  5
1029
100
AcDbEntity
  8
Lines
  0
INSERT
  5
1030
100
AcDbEntity
  8
Lines
100
AcDbBlockReference
 62
    24
 66
     1
  2
DIAG_CROSS
 10
8114.838188
 20
5179.581246
 30
246.822526
 41
0.019832
 42
0.019832
 43
0.019832
  0
ATTRIB
  5
1031
100
AcDbEntity
  8
Lines
100
AcDbText
 10
8115.238187
 20
5179.981245
 30
246.822526
 40
1.0
  1
181
100
AcDbAttribute
  2
Name
 70
     0
  0
ATTRIB
  5
1032
100
AcDbEntity
  8
Lines
100
AcDbText
 10
8115.238187
 20
5178.181249
 30
246.822526
 40
1.0
  1
145
100
AcDbAttribute
  2
Code
 70
     0
  0
ATTRIB
  5
1033
100
AcDbEntity
  8
Lines
100
AcDbText
 10
8115.238187
 20
5176.781252
 30
246.822526
 40
1.0
  1
75.232
100
AcDbAttribute
  2
Elevation
 70
     0
  0
SEQEND
  5
1034
100
AcDbEntity
  8
Lines
  0
INSERT
  5
1035
100
AcDbEntity
  8
Lines
100
AcDbBlockReference
 62
    24
 66
     1
  2
DIAG_CROSS
 10
8114.926327
 20
5164.794570
 30
247.261465
 41
0.019832
 42
0.019832
 43
0.019832
  0
ATTRIB
  5
1036
100
AcDbEntity
  8
Lines
100
AcDbText
 10
8115.326326
 20
5165.194569
 30
247.261465
 40
1.0
  1
180
100
AcDbAttribute
  2
Name
 70
     0
  0
ATTRIB
  5
1037
100
AcDbEntity
  8
Lines
100
AcDbText
 10
8115.326326
 20
5163.394573
 30
247.261465
 40
1.0
  1
145
100
AcDbAttribute
  2
Code
 70
     0
  0
ATTRIB
  5
1038
100
AcDbEntity
  8
Lines
100
AcDbText
 10
8115.326326
 20
5161.994576
 30
247.261465
 40
1.0
  1
75.365
100
AcDbAttribute
  2
Elevation
 70
     0
  0
SEQEND
  5
1039
100
AcDbEntity
  8
Lines
  0
INSERT
  5
1040
100
AcDbEntity
  8
Lines
100
AcDbBlockReference
 62
    24
 66
     1
  2
DIAG_CROSS
 10
8113.253229
 20
5144.509168
 30
245.132448
 41
0.019832
 42
0.019832
 43
0.019832
  0
ATTRIB
  5
1041
100
AcDbEntity
  8
Lines
100
AcDbText
 10
8113.653228
 20
5144.909167
 30
245.132448
 40
1.0
  1
182
100
AcDbAttribute
  2
Name
 70
     0
  0
ATTRIB
  5
1042
100
AcDbEntity
  8
Lines
100
AcDbText
 10
8113.653228
 20
5143.109171
 30
245.132448
 40
1.0
  1
145
100
AcDbAttribute
  2
Code
 70
     0
  0
ATTRIB
  5
1043
100
AcDbEntity
  8
Lines
100
AcDbText
 10
8113.653228
 20
5141.709174
 30
245.132448
 40
1.0
  1
74.717
100
AcDbAttribute
  2
Elevation
 70
     0
  0
SEQEND
  5
1044
100
AcDbEntity
  8
Lines
  0
INSERT
  5
1045
100
AcDbEntity
  8
Lines
100
AcDbBlockReference
 62
    24
 66
     1
  2
DIAG_CROSS
 10
8097.891655
 20
5126.139229
 30
245.328449
 41
0.019832
 42
0.019832
 43
0.019832
  0
ATTRIB
  5
1046
100
AcDbEntity
  8
Lines
100
AcDbText
 10
8098.291654
 20
5126.539228
 30
245.328449
 40
1.0
  1
183
100
AcDbAttribute
  2
Name
 70
     0
  0
ATTRIB
  5
1047
100
AcDbEntity
  8
Lines
100
AcDbText
 10
8098.291654
 20
5124.739232
 30
245.328449
 40
1.0
  1
145 E
100
AcDbAttribute
  2
Code
 70
     0
  0
ATTRIB
  5
1048
100
AcDbEntity
  8
Lines
100
AcDbText
 10
8098.291654
 20
5123.339234
 30
245.328449
 40
1.0
  1
74.776
100
AcDbAttribute
  2
Elevation
 70
     0
  0
SEQEND
  5
1049
100
AcDbEntity
  8
Lines
  0
INSERT
  5
1050
100
AcDbEntity
  8
Lines
100
AcDbBlockReference
 62
     0
 66
     1
  2
DIAG_CROSS
 10
8090.615527
 20
5175.569008
 30
257.751979
 41
0.019832
 42
0.019832
 43
0.019832
  0
ATTRIB
  5
1051
100
AcDbEntity
  8
Lines
100
AcDbText
 10
8091.015526
 20
5175.969008
 30
257.751979
 40
1.0
  1
184
100
AcDbAttribute
  2
Name
 70
     0
  0
ATTRIB
  5
1052
100
AcDbEntity
  8
Lines
100
AcDbText
 10
8091.015526
 20
5174.169011
 30
257.751979
 40
1.0
  1
117
100
AcDbAttribute
  2
Code
 70
     0
  0
ATTRIB
  5
1053
100
AcDbEntity
  8
Lines
100
AcDbText
 10
8091.015526
 20
5172.769014
 30
257.751979
 40
1.0
  1
78.563
100
AcDbAttribute
  2
Elevation
 70
     0
  0
SEQEND
  5
1054
100
AcDbEntity
  8
Lines
  0
INSERT
  5
1055
100
AcDbEntity
  8
Lines
100
AcDbBlockReference
 62
     0
 66
     1
  2
DIAG_CROSS
 10
8064.733176
 20
5191.513513
 30
268.356966
 41
0.019832
 42
0.019832
 43
0.019832
  0
ATTRIB
  5
1056
100
AcDbEntity
  8
Lines
100
AcDbText
 10
8065.133175
 20
5191.913512
 30
268.356966
 40
1.0
  1
185
100
AcDbAttribute
  2
Name
 70
     0
  0
ATTRIB
  5
1057
100
AcDbEntity
  8
Lines
100
AcDbText
 10
8065.133175
 20
5190.113516
 30
268.356966
 40
1.0
  1
117
100
AcDbAttribute
  2
Code
 70
     0
  0
ATTRIB
  5
1058
100
AcDbEntity
  8
Lines
100
AcDbText
 10
8065.133175
 20
5188.713519
 30
268.356966
 40
1.0
  1
81.795
100
AcDbAttribute
  2
Elevation
 70
     0
  0
SEQEND
  5
1059
100
AcDbEntity
  8
Lines
  0
INSERT
  5
1060
100
AcDbEntity
  8
Lines
100
AcDbBlockReference
 62
     0
 66
     1
  2
DIAG_CROSS
 10
8040.615752
 20
5208.986947
 30
279.583150
 41
0.019832
 42
0.019832
 43
0.019832
  0
ATTRIB
  5
1061
100
AcDbEntity
  8
Lines
100
AcDbText
 10
8041.015751
 20
5209.386946
 30
279.583150
 40
1.0
  1
186
100
AcDbAttribute
  2
Name
 70
     0
  0
ATTRIB
  5
1062
100
AcDbEntity
  8
Lines
100
AcDbText
 10
8041.015751
 20
5207.586950
 30
279.583150
 40
1.0
  1
117
100
AcDbAttribute
  2
Code
 70
     0
  0
ATTRIB
  5
1063
100
AcDbEntity
  8
Lines
100
AcDbText
 10
8041.015751
 20
5206.186953
 30
279.583150
 40
1.0
  1
85.217
100
AcDbAttribute
  2
Elevation
 70
     0
  0
SEQEND
  5
1064
100
AcDbEntity
  8
Lines
  0
INSERT
  5
1065
100
AcDbEntity
  8
Lines
100
AcDbBlockReference
 62
     0
 66
     1
  2
DIAG_CROSS
 10
8019.177049
 20
5226.296639
 30
289.385030
 41
0.019832
 42
0.019832
 43
0.019832
  0
ATTRIB
  5
1066
100
AcDbEntity
  8
Lines
100
AcDbText
 10
8019.577048
 20
5226.696638
 30
289.385030
 40
1.0
  1
187
100
AcDbAttribute
  2
Name
 70
     0
  0
ATTRIB
  5
1067
100
AcDbEntity
  8
Lines
100
AcDbText
 10
8019.577048
 20
5224.896642
 30
289.385030
 40
1.0
  1
117
100
AcDbAttribute
  2
Code
 70
     0
  0
ATTRIB
  5
1068
100
AcDbEntity
  8
Lines
100
AcDbText
 10
8019.577048
 20
5223.496645
 30
289.385030
 40
1.0
  1
88.205
100
AcDbAttribute
  2
Elevation
 70
     0
  0
SEQEND
  5
1069
100
AcDbEntity
  8
Lines
  0
INSERT
  5
1070
100
AcDbEntity
  8
Lines
100
AcDbBlockReference
 62
     0
 66
     1
  2
DIAG_CROSS
 10
8045.506410
 20
5242.256033
 30
275.963346
 41
0.019832
 42
0.019832
 43
0.019832
  0
ATTRIB
  5
1071
100
AcDbEntity
  8
Lines
100
AcDbText
 10
8045.906409
 20
5242.656032
 30
275.963346
 40
1.0
  1
188
100
AcDbAttribute
  2
Name
 70
     0
  0
ATTRIB
  5
1072
100
AcDbEntity
  8
Lines
100
AcDbText
 10
8045.906409
 20
5240.856036
 30
275.963346
 40
1.0
  1
117
100
AcDbAttribute
  2
Code
 70
     0
  0
ATTRIB
  5
1073
100
AcDbEntity
  8
Lines
100
AcDbText
 10
8045.906409
 20
5239.456038
 30
275.963346
 40
1.0
  1
84.114
100
AcDbAttribute
  2
Elevation
 70
     0
  0
SEQEND
  5
1074
100
AcDbEntity
  8
Lines
  0
INSERT
  5
1075
100
AcDbEntity
  8
Lines
100
AcDbBlockReference
 62
     0
 66
     1
  2
DIAG_CROSS
 10
8081.996381
 20
5221.159808
 30
260.523811
 41
0.019832
 42
0.019832
 43
0.019832
  0
ATTRIB
  5
1076
100
AcDbEntity
  8
Lines
100
AcDbText
 10
8082.396380
 20
5221.559807
 30
260.523811
 40
1.0
  1
189
100
AcDbAttribute
  2
Name
 70
     0
  0
ATTRIB
  5
1077
100
AcDbEntity
  8
Lines
100
AcDbText
 10
8082.396380
 20
5219.759811
 30
260.523811
 40
1.0
  1
117
100
AcDbAttribute
  2
Code
 70
     0
  0
ATTRIB
  5
1078
100
AcDbEntity
  8
Lines
100
AcDbText
 10
8082.396380
 20
5218.359814
 30
260.523811
 40
1.0
  1
79.408
100
AcDbAttribute
  2
Elevation
 70
     0
  0
SEQEND
  5
1079
100
AcDbEntity
  8
Lines
  0
INSERT
  5
1080
100
AcDbEntity
  8
Lines
100
AcDbBlockReference
 62
     0
 66
     1
  2
DIAG_CROSS
 10
8100.022316
 20
5198.124308
 30
253.226227
 41
0.019832
 42
0.019832
 43
0.019832
  0
ATTRIB
  5
1081
100
AcDbEntity
  8
Lines
100
AcDbText
 10
8100.422315
 20
5198.524307
 30
253.226227
 40
1.0
  1
190
100
AcDbAttribute
  2
Name
 70
     0
  0
ATTRIB
  5
1082
100
AcDbEntity
  8
Lines
100
AcDbText
 10
8100.422315
 20
5196.724311
 30
253.226227
 40
1.0
  1
117
100
AcDbAttribute
  2
Code
 70
     0
  0
ATTRIB
  5
1083
100
AcDbEntity
  8
Lines
100
AcDbText
 10
8100.422315
 20
5195.324313
 30
253.226227
 40
1.0
  1
77.184
100
AcDbAttribute
  2
Elevation
 70
     0
  0
SEQEND
  5
1084
100
AcDbEntity
  8
Lines
  0
INSERT
  5
1085
100
AcDbEntity
  8
Points
100
AcDbBlockReference
 66
     1
  2
DIAG_CROSS
 10
8056.188825
 20
5336.387075
 30
259.804213
 41
0.019832
 42
0.019832
 43
0.019832
  0
ATTRIB
  5
1086
100
AcDbEntity
  8
Points
100
AcDbText
 10
8056.588825
 20
5336.787074
 30
259.804213
 40
1.0
  1
11
100
AcDbAttribute
  2
Name
 70
     0
  0
ATTRIB
  5
1087
100
AcDbEntity
  8
Points
100
AcDbText
 10
8056.588825
 20
5334.987078
 30
259.804213
 40
1.0
  1
SPIKE
100
AcDbAttribute
  2
Code
 70
     0
  0
ATTRIB
  5
1088
100
AcDbEntity
  8
Points
100
AcDbText
 10
8056.588825
 20
5333.587080
 30
259.804213
 40
1.0
  1
79.188
100
AcDbAttribute
  2
Elevation
 70
     0
  0
SEQEND
  5
1089
100
AcDbEntity
  8
Points
  0
INSERT
  5
1090
100
AcDbEntity
  8
Points
100
AcDbBlockReference
 66
     1
  2
DIAG_CROSS
 10
8106.624469
 20
5169.610944
 30
250.840243
 41
0.019832
 42
0.019832
 43
0.019832
  0
ATTRIB
  5
1091
100
AcDbEntity
  8
Points
100
AcDbText
 10
8107.024469
 20
5170.010944
 30
250.840243
 40
1.0
  1
12
100
AcDbAttribute
  2
Name
 70
     0
  0
ATTRIB
  5
1092
100
AcDbEntity
  8
Points
100
AcDbText
 10
8107.024469
 20
5168.210947
 30
250.840243
 40
1.0
  1
FD IP
100
AcDbAttribute
  2
Code
 70
     0
  0
ATTRIB
  5
1093
100
AcDbEntity
  8
Points
100
AcDbText
 10
8107.024469
 20
5166.810950
 30
250.840243
 40
1.0
  1
76.456
100
AcDbAttribute
  2
Elevation
 70
     0
  0
SEQEND
  5
1094
100
AcDbEntity
  8
Points
  0
INSERT
  5
1095
100
AcDbEntity
  8
Lines
100
AcDbBlockReference
 62
     0
 66
     1
  2
DIAG_CROSS
 10
8118.530464
 20
5222.919608
 30
245.368945
 41
0.019832
 42
0.019832
 43
0.019832
  0
ATTRIB
  5
1096
100
AcDbEntity
  8
Lines
100
AcDbText
 10
8118.930464
 20
5223.319607
 30
245.368945
 40
1.0
  1
191
100
AcDbAttribute
  2
Name
 70
     0
  0
ATTRIB
  5
1097
100
AcDbEntity
  8
Lines
100
AcDbText
 10
8118.930464
 20
5221.519611
 30
245.368945
 40
1.0
  1
107
100
AcDbAttribute
  2
Code
 70
     0
  0
ATTRIB
  5
1098
100
AcDbEntity
  8
Lines
100
AcDbText
 10
8118.930464
 20
5220.119614
 30
245.368945
 40
1.0
  1
74.789
100
AcDbAttribute
  2
Elevation
 70
     0
  0
SEQEND
  5
1099
100
AcDbEntity
  8
Lines
  0
INSERT
  5
1100
100
AcDbEntity
  8
Lines
100
AcDbBlockReference
 62
     0
 66
     1
  2
DIAG_CROSS
 10
8122.710814
 20
5225.466270
 30
242.617600
 41
0.019832
 42
0.019832
 43
0.019832
  0
ATTRIB
  5
1101
100
AcDbEntity
  8
Lines
100
AcDbText
 10
8123.110813
 20
5225.866269
 30
242.617600
 40
1.0
  1
192
100
AcDbAttribute
  2
Name
 70
     0
  0
ATTRIB
  5
1102
100
AcDbEntity
  8
Lines
100
AcDbText
 10
8123.110813
 20
5224.066273
 30
242.617600
 40
1.0
  1
117
100
AcDbAttribute
  2
Code
 70
     0
  0
ATTRIB
  5
1103
100
AcDbEntity
  8
Lines
100
AcDbText
 10
8123.110813
 20
5222.666275
 30
242.617600
 40
1.0
  1
73.950
100
AcDbAttribute
  2
Elevation
 70
     0
  0
SEQEND
  5
1104
100
AcDbEntity
  8
Lines
  0
INSERT
  5
1105
100
AcDbEntity
  8
Lines
100
AcDbBlockReference
 62
     0
 66
     1
  2
DIAG_CROSS
 10
8109.553254
 20
5220.889116
 30
246.327890
 41
0.019832
 42
0.019832
 43
0.019832
  0
ATTRIB
  5
1106
100
AcDbEntity
  8
Lines
100
AcDbText
 10
8109.953253
 20
5221.289116
 30
246.327890
 40
1.0
  1
193
100
AcDbAttribute
  2
Name
 70
     0
  0
ATTRIB
  5
1107
100
AcDbEntity
  8
Lines
100
AcDbText
 10
8109.953253
 20
5219.489119
 30
246.327890
 40
1.0
  1
106
100
AcDbAttribute
  2
Code
 70
     0
  0
ATTRIB
  5
1108
100
AcDbEntity
  8
Lines
100
AcDbText
 10
8109.953253
 20
5218.089122
 30
246.327890
 40
1.0
  1
75.081
100
AcDbAttribute
  2
Elevation
 70
     0
  0
SEQEND
  5
1109
100
AcDbEntity
  8
Lines
  0
INSERT
  5
1110
100
AcDbEntity
  8
Lines
100
AcDbBlockReference
 62
     0
 66
     1
  2
DIAG_CROSS
 10
8100.413240
 20
5243.275648
 30
249.147386
 41
0.019832
 42
0.019832
 43
0.019832
  0
ATTRIB
  5
1111
100
AcDbEntity
  8
Lines
100
AcDbText
 10
8100.813239
 20
5243.675647
 30
249.147386
 40
1.0
  1
194
100
AcDbAttribute
  2
Name
 70
     0
  0
ATTRIB
  5
1112
100
AcDbEntity
  8
Lines
100
AcDbText
 10
8100.813239
 20
5241.875650
 30
249.147386
 40
1.0
  1
106
100
AcDbAttribute
  2
Code
 70
     0
  0
ATTRIB
  5
1113
100
AcDbEntity
  8
Lines
100
AcDbText
 10
8100.813239
 20
5240.475653
 30
249.147386
 40
1.0
  1
75.940
100
AcDbAttribute
  2
Elevation
 70
     0
  0
SEQEND
  5
1114
100
AcDbEntity
  8
Lines
  0
INSERT
  5
1115
100
AcDbEntity
  8
Lines
100
AcDbBlockReference
 62
     0
 66
     1
  2
DIAG_CROSS
 10
8108.957581
 20
5247.440659
 30
248.017439
 41
0.019832
 42
0.019832
 43
0.019832
  0
ATTRIB
  5
1116
100
AcDbEntity
  8
Lines
100
AcDbText
 10
8109.357580
 20
5247.840658
 30
248.017439
 40
1.0
  1
195
100
AcDbAttribute
  2
Name
 70
     0
  0
ATTRIB
  5
1117
100
AcDbEntity
  8
Lines
100
AcDbText
 10
8109.357580
 20
5246.040662
 30
248.017439
 40
1.0
  1
107
100
AcDbAttribute
  2
Code
 70
     0
  0
ATTRIB
  5
1118
100
AcDbEntity
  8
Lines
100
AcDbText
 10
8109.357580
 20
5244.640665
 30
248.017439
 40
1.0
  1
75.596
100
AcDbAttribute
  2
Elevation
 70
     0
  0
SEQEND
  5
1119
100
AcDbEntity
  8
Lines
  0
INSERT
  5
1120
100
AcDbEntity
  8
Lines
100
AcDbBlockReference
 62
     0
 66
     1
  2
DIAG_CROSS
 10
8115.080654
 20
5249.206602
 30
245.693220
 41
0.019832
 42
0.019832
 43
0.019832
  0
ATTRIB
  5
1121
100
AcDbEntity
  8
Lines
100
AcDbText
 10
8115.480653
 20
5249.606601
 30
245.693220
 40
1.0
  1
196
100
AcDbAttribute
  2
Name
 70
     0
  0
ATTRIB
  5
1122
100
AcDbEntity
  8
Lines
100
AcDbText
 10
8115.480653
 20
5247.806605
 30
245.693220
 40
1.0
  1
117
100
AcDbAttribute
  2
Code
 70
     0
  0
ATTRIB
  5
1123
100
AcDbEntity
  8
Lines
100
AcDbText
 10
8115.480653
 20
5246.406608
 30
245.693220
 40
1.0
  1
74.887
100
AcDbAttribute
  2
Elevation
 70
     0
  0
SEQEND
  5
1124
100
AcDbEntity
  8
Lines
  0
INSERT
  5
1125
100
AcDbEntity
  8
Lines
100
AcDbBlockReference
 62
     0
 66
     1
  2
DIAG_CROSS
 10
8104.506615
 20
5276.625333
 30
249.338005
 41
0.019832
 42
0.019832
 43
0.019832
  0
ATTRIB
  5
1126
100
AcDbEntity
  8
Lines
100
AcDbText
 10
8104.906615
 20
5277.025332
 30
249.338005
 40
1.0
  1
197
100
AcDbAttribute
  2
Name
 70
     0
  0
ATTRIB
  5
1127
100
AcDbEntity
  8
Lines
100
AcDbText
 10
8104.906615
 20
5275.225336
 30
249.338005
 40
1.0
  1
117
100
AcDbAttribute
  2
Code
 70
     0
  0
ATTRIB
  5
1128
100
AcDbEntity
  8
Lines
100
AcDbText
 10
8104.906615
 20
5273.825339
 30
249.338005
 40
1.0
  1
75.998
100
AcDbAttribute
  2
Elevation
 70
     0
  0
SEQEND
  5
1129
100
AcDbEntity
  8
Lines
  0
INSERT
  5
1130
100
AcDbEntity
  8
Lines
100
AcDbBlockReference
 62
     0
 66
     1
  2
DIAG_CROSS
 10
8099.045275
 20
5273.933243
 30
250.891578
 41
0.019832
 42
0.019832
 43
0.019832
  0
ATTRIB
  5
1131
100
AcDbEntity
  8
Lines
100
AcDbText
 10
8099.445274
 20
5274.333242
 30
250.891578
 40
1.0
  1
198
100
AcDbAttribute
  2
Name
 70
     0
  0
ATTRIB
  5
1132
100
AcDbEntity
  8
Lines
100
AcDbText
 10
8099.445274
 20
5272.533246
 30
250.891578
 40
1.0
  1
107
100
AcDbAttribute
  2
Code
 70
     0
  0
ATTRIB
  5
1133
100
AcDbEntity
  8
Lines
100
AcDbText
 10
8099.445274
 20
5271.133249
 30
250.891578
 40
1.0
  1
76.472
100
AcDbAttribute
  2
Elevation
 70
     0
  0
SEQEND
  5
1134
100
AcDbEntity
  8
Lines
  0
INSERT
  5
1135
100
AcDbEntity
  8
Lines
100
AcDbBlockReference
 62
     0
 66
     1
  2
DIAG_CROSS
 10
8091.726778
 20
5271.455037
 30
251.655318
 41
0.019832
 42
0.019832
 43
0.019832
  0
ATTRIB
  5
1136
100
AcDbEntity
  8
Lines
100
AcDbText
 10
8092.126777
 20
5271.855036
 30
251.655318
 40
1.0
  1
199
100
AcDbAttribute
  2
Name
 70
     0
  0
ATTRIB
  5
1137
100
AcDbEntity
  8
Lines
100
AcDbText
 10
8092.126777
 20
5270.055040
 30
251.655318
 40
1.0
  1
106
100
AcDbAttribute
  2
Code
 70
     0
  0
ATTRIB
  5
1138
100
AcDbEntity
  8
Lines
100
AcDbText
 10
8092.126777
 20
5268.655043
 30
251.655318
 40
1.0
  1
76.705
100
AcDbAttribute
  2
Elevation
 70
     0
  0
SEQEND
  5
1139
100
AcDbEntity
  8
Lines
  0
INSERT
  5
1140
100
AcDbEntity
  8
Lines
100
AcDbBlockReference
 62
     0
 66
     1
  2
DIAG_CROSS
 10
8080.492303
 20
5295.414395
 30
255.238806
 41
0.019832
 42
0.019832
 43
0.019832
  0
ATTRIB
  5
1141
100
AcDbEntity
  8
Lines
100
AcDbText
 10
8080.892302
 20
5295.814394
 30
255.238806
 40
1.0
  1
200
100
AcDbAttribute
  2
Name
 70
     0
  0
ATTRIB
  5
1142
100
AcDbEntity
  8
Lines
100
AcDbText
 10
8080.892302
 20
5294.014398
 30
255.238806
 40
1.0
  1
106
100
AcDbAttribute
  2
Code
 70
     0
  0
ATTRIB
  5
1143
100
AcDbEntity
  8
Lines
100
AcDbText
 10
8080.892302
 20
5292.614400
 30
255.238806
 40
1.0
  1
77.797
100
AcDbAttribute
  2
Elevation
 70
     0
  0
SEQEND
  5
1144
100
AcDbEntity
  8
Lines
  0
INSERT
  5
1145
100
AcDbEntity
  8
Lines
100
AcDbBlockReference
 62
     0
 66
     1
  2
DIAG_CROSS
 10
8086.991719
 20
5300.072122
 30
254.463593
 41
0.019832
 42
0.019832
 43
0.019832
  0
ATTRIB
  5
1146
100
AcDbEntity
  8
Lines
100
AcDbText
 10
8087.391718
 20
5300.472121
 30
254.463593
 40
1.0
  1
201
100
AcDbAttribute
  2
Name
 70
     0
  0
ATTRIB
  5
1147
100
AcDbEntity
  8
Lines
100
AcDbText
 10
8087.391718
 20
5298.672125
 30
254.463593
 40
1.0
  1
107
100
AcDbAttribute
  2
Code
 70
     0
  0
ATTRIB
  5
1148
100
AcDbEntity
  8
Lines
100
AcDbText
 10
8087.391718
 20
5297.272128
 30
254.463593
 40
1.0
  1
77.561
100
AcDbAttribute
  2
Elevation
 70
     0
  0
SEQEND
  5
1149
100
AcDbEntity
  8
Lines
  0
INSERT
  5
1150
100
AcDbEntity
  8
Lines
100
AcDbBlockReference
 62
     0
 66
     1
  2
DIAG_CROSS
 10
8090.221873
 20
5301.056139
 30
252.985087
 41
0.019832
 42
0.019832
 43
0.019832
  0
ATTRIB
  5
1151
100
AcDbEntity
  8
Lines
100
AcDbText
 10
8090.621872
 20
5301.456138
 30
252.985087
 40
1.0
  1
202
100
AcDbAttribute
  2
Name
 70
     0
  0
ATTRIB
  5
1152
100
AcDbEntity
  8
Lines
100
AcDbText
 10
8090.621872
 20
5299.656142
 30
252.985087
 40
1.0
  1
117
100
AcDbAttribute
  2
Code
 70
     0
  0
ATTRIB
  5
1153
100
AcDbEntity
  8
Lines
100
AcDbText
 10
8090.621872
 20
5298.256145
 30
252.985087
 40
1.0
  1
77.110
100
AcDbAttribute
  2
Elevation
 70
     0
  0
SEQEND
  5
1154
100
AcDbEntity
  8
Lines
  0
INSERT
  5
1155
100
AcDbEntity
  8
Lines
100
AcDbBlockReference
 62
     0
 66
     1
  2
DIAG_CROSS
 10
8076.553159
 20
5324.538125
 30
254.435312
 41
0.019832
 42
0.019832
 43
0.019832
  0
ATTRIB
  5
1156
100
AcDbEntity
  8
Lines
100
AcDbText
 10
8076.953158
 20
5324.938124
 30
254.435312
 40
1.0
  1
203
100
AcDbAttribute
  2
Name
 70
     0
  0
ATTRIB
  5
1157
100
AcDbEntity
  8
Lines
100
AcDbText
 10
8076.953158
 20
5323.138128
 30
254.435312
 40
1.0
  1
117
100
AcDbAttribute
  2
Code
 70
     0
  0
ATTRIB
  5
1158
100
AcDbEntity
  8
Lines
100
AcDbText
 10
8076.953158
 20
5321.738131
 30
254.435312
 40
1.0
  1
77.552
100
AcDbAttribute
  2
Elevation
 70
     0
  0
SEQEND
  5
1159
100
AcDbEntity
  8
Lines
  0
INSERT
  5
1160
100
AcDbEntity
  8
Lines
100
AcDbBlockReference
 62
     0
 66
     1
  2
DIAG_CROSS
 10
8073.080844
 20
5321.842079
 30
257.146811
 41
0.019832
 42
0.019832
 43
0.019832
  0
ATTRIB
  5
1161
100
AcDbEntity
  8
Lines
100
AcDbText
 10
8073.480843
 20
5322.242079
 30
257.146811
 40
1.0
  1
204
100
AcDbAttribute
  2
Name
 70
     0
  0
ATTRIB
  5
1162
100
AcDbEntity
  8
Lines
100
AcDbText
 10
8073.480843
 20
5320.442082
 30
257.146811
 40
1.0
  1
107
100
AcDbAttribute
  2
Code
 70
     0
  0
ATTRIB
  5
1163
100
AcDbEntity
  8
Lines
100
AcDbText
 10
8073.480843
 20
5319.042085
 30
257.146811
 40
1.0
  1
78.379
100
AcDbAttribute
  2
Elevation
 70
     0
  0
SEQEND
  5
1164
100
AcDbEntity
  8
Lines
  0
INSERT
  5
1165
100
AcDbEntity
  8
Lines
100
AcDbBlockReference
 62
     0
 66
     1
  2
DIAG_CROSS
 10
8065.659347
 20
5317.053615
 30
258.583294
 41
0.019832
 42
0.019832
 43
0.019832
  0
ATTRIB
  5
1166
100
AcDbEntity
  8
Lines
100
AcDbText
 10
8066.059347
 20
5317.453614
 30
258.583294
 40
1.0
  1
205
100
AcDbAttribute
  2
Name
 70
     0
  0
ATTRIB
  5
1167
100
AcDbEntity
  8
Lines
100
AcDbText
 10
8066.059347
 20
5315.653618
 30
258.583294
 40
1.0
  1
106
100
AcDbAttribute
  2
Code
 70
     0
  0
ATTRIB
  5
1168
100
AcDbEntity
  8
Lines
100
AcDbText
 10
8066.059347
 20
5314.253621
 30
258.583294
 40
1.0
  1
78.816
100
AcDbAttribute
  2
Elevation
 70
     0
  0
SEQEND
  5
1169
100
AcDbEntity
  8
Lines
  0
INSERT
  5
1170
100
AcDbEntity
  8
Lines
100
AcDbBlockReference
 62
    24
 66
     1
  2
DIAG_CROSS
 10
8109.255776
 20
5204.301970
 30
248.891077
 41
0.019832
 42
0.019832
 43
0.019832
  0
ATTRIB
  5
1171
100
AcDbEntity
  8
Lines
100
AcDbText
 10
8109.655775
 20
5204.701970
 30
248.891077
 40
1.0
  1
206
100
AcDbAttribute
  2
Name
 70
     0
  0
ATTRIB
  5
1172
100
AcDbEntity
  8
Lines
100
AcDbText
 10
8109.655775
 20
5202.901973
 30
248.891077
 40
1.0
  1
145 B
100
AcDbAttribute
  2
Code
 70
     0
  0
ATTRIB
  5
1173
100
AcDbEntity
  8
Lines
100
AcDbText
 10
8109.655775
 20
5201.501976
 30
248.891077
 40
1.0
  1
75.862
100
AcDbAttribute
  2
Elevation
 70
     0
  0
SEQEND
  5
1174
100
AcDbEntity
  8
Lines
  0
INSERT
  5
1175
100
AcDbEntity
  8
Lines
100
AcDbBlockReference
 62
    24
 66
     1
  2
DIAG_CROSS
 10
8109.250811
 20
5204.308752
 30
248.890763
 41
0.019832
 42
0.019832
 43
0.019832
  0
ATTRIB
  5
1176
100
AcDbEntity
  8
Lines
100
AcDbText
 10
8109.650811
 20
5204.708752
 30
248.890763
 40
1.0
  1
207
100
AcDbAttribute
  2
Name
 70
     0
  0
ATTRIB
  5
1177
100
AcDbEntity
  8
Lines
100
AcDbText
 10
8109.650811
 20
5202.908755
 30
248.890763
 40
1.0
  1
145 B
100
AcDbAttribute
  2
Code
 70
     0
  0
ATTRIB
  5
1178
100
AcDbEntity
  8
Lines
100
AcDbText
 10
8109.650811
 20
5201.508758
 30
248.890763
 40
1.0
  1
75.862
100
AcDbAttribute
  2
Elevation
 70
     0
  0
SEQEND
  5
1179
100
AcDbEntity
  8
Lines
  0
INSERT
  5
1180
100
AcDbEntity
  8
Lines
100
AcDbBlockReference
 62
    24
 66
     1
  2
DIAG_CROSS
 10
8104.719250
 20
5221.335969
 30
250.034062
 41
0.019832
 42
0.019832
 43
0.019832
  0
ATTRIB
  5
1181
100
AcDbEntity
  8
Lines
100
AcDbText
 10
8105.119249
 20
5221.735968
 30
250.034062
 40
1.0
  1
208
100
AcDbAttribute
  2
Name
 70
     0
  0
ATTRIB
  5
1182
100
AcDbEntity
  8
Lines
100
AcDbText
 10
8105.119249
 20
5219.935972
 30
250.034062
 40
1.0
  1
145
100
AcDbAttribute
  2
Code
 70
     0
  0
ATTRIB
  5
1183
100
AcDbEntity
  8
Lines
100
AcDbText
 10
8105.119249
 20
5218.535975
 30
250.034062
 40
1.0
  1
76.211
100
AcDbAttribute
  2
Elevation
 70
     0
  0
SEQEND
  5
1184
100
AcDbEntity
  8
Lines
  0
INSERT
  5
1185
100
AcDbEntity
  8
Lines
100
AcDbBlockReference
 62
    24
 66
     1
  2
DIAG_CROSS
 10
8097.460407
 20
5243.318688
 30
252.247111
 41
0.019832
 42
0.019832
 43
0.019832
  0
ATTRIB
  5
1186
100
AcDbEntity
  8
Lines
100
AcDbText
 10
8097.860406
 20
5243.718687
 30
252.247111
 40
1.0
  1
209
100
AcDbAttribute
  2
Name
 70
     0
  0
ATTRIB
  5
1187
100
AcDbEntity
  8
Lines
100
AcDbText
 10
8097.860406
 20
5241.918690
 30
252.247111
 40
1.0
  1
145
100
AcDbAttribute
  2
Code
 70
     0
  0
ATTRIB
  5
1188
100
AcDbEntity
  8
Lines
100
AcDbText
 10
8097.860406
 20
5240.518693
 30
252.247111
 40
1.0
  1
76.885
100
AcDbAttribute
  2
Elevation
 70
     0
  0
SEQEND
  5
1189
100
AcDbEntity
  8
Lines
  0
INSERT
  5
1190
100
AcDbEntity
  8
Lines
100
AcDbBlockReference
 62
    24
 66
     1
  2
DIAG_CROSS
 10
8097.463282
 20
5243.308025
 30
252.248781
 41
0.019832
 42
0.019832
 43
0.019832
  0
ATTRIB
  5
1191
100
AcDbEntity
  8
Lines
100
AcDbText
 10
8097.863282
 20
5243.708024
 30
252.248781
 40
1.0
  1
210
100
AcDbAttribute
  2
Name
 70
     0
  0
ATTRIB
  5
1192
100
AcDbEntity
  8
Lines
100
AcDbText
 10
8097.863282
 20
5241.908028
 30
252.248781
 40
1.0
  1
145
100
AcDbAttribute
  2
Code
 70
     0
  0
ATTRIB
  5
1193
100
AcDbEntity
  8
Lines
100
AcDbText
 10
8097.863282
 20
5240.508031
 30
252.248781
 40
1.0
  1
76.886
100
AcDbAttribute
  2
Elevation
 70
     0
  0
SEQEND
  5
1194
100
AcDbEntity
  8
Lines
  0
INSERT
  5
1195
100
AcDbEntity
  8
Lines
100
AcDbBlockReference
 62
    24
 66
     1
  2
DIAG_CROSS
 10
8088.112644
 20
5271.656717
 30
255.209884
 41
0.019832
 42
0.019832
 43
0.019832
  0
ATTRIB
  5
1196
100
AcDbEntity
  8
Lines
100
AcDbText
 10
8088.512644
 20
5272.056717
 30
255.209884
 40
1.0
  1
211
100
AcDbAttribute
  2
Name
 70
     0
  0
ATTRIB
  5
1197
100
AcDbEntity
  8
Lines
100
AcDbText
 10
8088.512644
 20
5270.256720
 30
255.209884
 40
1.0
  1
145
100
AcDbAttribute
  2
Code
 70
     0
  0
ATTRIB
  5
1198
100
AcDbEntity
  8
Lines
100
AcDbText
 10
8088.512644
 20
5268.856723
 30
255.209884
 40
1.0
  1
77.788
100
AcDbAttribute
  2
Elevation
 70
     0
  0
SEQEND
  5
1199
100
AcDbEntity
  8
Lines
  0
INSERT
  5
1200
100
AcDbEntity
  8
Lines
100
AcDbBlockReference
 62
    24
 66
     1
  2
DIAG_CROSS
 10
8077.442222
 20
5296.004807
 30
257.852541
 41
0.019832
 42
0.019832
 43
0.019832
  0
ATTRIB
  5
1201
100
AcDbEntity
  8
Lines
100
AcDbText
 10
8077.842222
 20
5296.404807
 30
257.852541
 40
1.0
  1
212
100
AcDbAttribute
  2
Name
 70
     0
  0
ATTRIB
  5
1202
100
AcDbEntity
  8
Lines
100
AcDbText
 10
8077.842222
 20
5294.604810
 30
257.852541
 40
1.0
  1
145 E
100
AcDbAttribute
  2
Code
 70
     0
  0
ATTRIB
  5
1203
100
AcDbEntity
  8
Lines
100
AcDbText
 10
8077.842222
 20
5293.204813
 30
257.852541
 40
1.0
  1
78.594
100
AcDbAttribute
  2
Elevation
 70
     0
  0
SEQEND
  5
1204
100
AcDbEntity
  8
Lines
  0
INSERT
  5
1205
100
AcDbEntity
  8
Lines
100
AcDbBlockReference
 62
     0
 66
     1
  2
DIAG_CROSS
 10
8056.045945
 20
5283.525299
 30
268.549482
 41
0.019832
 42
0.019832
 43
0.019832
  0
ATTRIB
  5
1206
100
AcDbEntity
  8
Lines
100
AcDbText
 10
8056.445944
 20
5283.925298
 30
268.549482
 40
1.0
  1
213
100
AcDbAttribute
  2
Name
 70
     0
  0
ATTRIB
  5
1207
100
AcDbEntity
  8
Lines
100
AcDbText
 10
8056.445944
 20
5282.125301
 30
268.549482
 40
1.0
  1
117
100
AcDbAttribute
  2
Code
 70
     0
  0
ATTRIB
  5
1208
100
AcDbEntity
  8
Lines
100
AcDbText
 10
8056.445944
 20
5280.725304
 30
268.549482
 40
1.0
  1
81.854
100
AcDbAttribute
  2
Elevation
 70
     0
  0
SEQEND
  5
1209
100
AcDbEntity
  8
Lines
  0
INSERT
  5
1210
100
AcDbEntity
  8
Lines
100
AcDbBlockReference
 62
     0
 66
     1
  2
DIAG_CROSS
 10
8035.469712
 20
5276.205884
 30
278.449564
 41
0.019832
 42
0.019832
 43
0.019832
  0
ATTRIB
  5
1211
100
AcDbEntity
  8
Lines
100
AcDbText
 10
8035.869711
 20
5276.605883
 30
278.449564
 40
1.0
  1
214
100
AcDbAttribute
  2
Name
 70
     0
  0
ATTRIB
  5
1212
100
AcDbEntity
  8
Lines
100
AcDbText
 10
8035.869711
 20
5274.805886
 30
278.449564
 40
1.0
  1
117
100
AcDbAttribute
  2
Code
 70
     0
  0
ATTRIB
  5
1213
100
AcDbEntity
  8
Lines
100
AcDbText
 10
8035.869711
 20
5273.405889
 30
278.449564
 40
1.0
  1
84.872
100
AcDbAttribute
  2
Elevation
 70
     0
  0
SEQEND
  5
1214
100
AcDbEntity
  8
Lines
  0
INSERT
  5
1215
100
AcDbEntity
  8
Lines
100
AcDbBlockReference
 62
     0
 66
     1
  2
DIAG_CROSS
 10
8014.771873
 20
5262.251038
 30
290.036658
 41
0.019832
 42
0.019832
 43
0.019832
  0
ATTRIB
  5
1216
100
AcDbEntity
  8
Lines
100
AcDbText
 10
8015.171872
 20
5262.651037
 30
290.036658
 40
1.0
  1
215
100
AcDbAttribute
  2
Name
 70
     0
  0
ATTRIB
  5
1217
100
AcDbEntity
  8
Lines
100
AcDbText
 10
8015.171872
 20
5260.851041
 30
290.036658
 40
1.0
  1
117
100
AcDbAttribute
  2
Code
 70
     0
  0
ATTRIB
  5
1218
100
AcDbEntity
  8
Lines
100
AcDbText
 10
8015.171872
 20
5259.451044
 30
290.036658
 40
1.0
  1
88.403
100
AcDbAttribute
  2
Elevation
 70
     0
  0
SEQEND
  5
1219
100
AcDbEntity
  8
Lines
  0
INSERT
  5
1220
100
AcDbEntity
  8
Lines
100
AcDbBlockReference
 62
     0
 66
     1
  2
DIAG_CROSS
 10
7990.502843
 20
5267.469409
 30
299.109053
 41
0.019832
 42
0.019832
 43
0.019832
  0
ATTRIB
  5
1221
100
AcDbEntity
  8
Lines
100
AcDbText
 10
7990.902843
 20
5267.869408
 30
299.109053
 40
1.0
  1
216
100
AcDbAttribute
  2
Name
 70
     0
  0
ATTRIB
  5
1222
100
AcDbEntity
  8
Lines
100
AcDbText
 10
7990.902843
 20
5266.069412
 30
299.109053
 40
1.0
  1
117
100
AcDbAttribute
  2
Code
 70
     0
  0
ATTRIB
  5
1223
100
AcDbEntity
  8
Lines
100
AcDbText
 10
7990.902843
 20
5264.669415
 30
299.109053
 40
1.0
  1
91.169
100
AcDbAttribute
  2
Elevation
 70
     0
  0
SEQEND
  5
1224
100
AcDbEntity
  8
Lines
  0
INSERT
  5
1225
100
AcDbEntity
  8
Lines
100
AcDbBlockReference
 62
     0
 66
     1
  2
DIAG_CROSS
 10
7980.345996
 20
5237.279789
 30
304.879793
 41
0.019832
 42
0.019832
 43
0.019832
  0
ATTRIB
  5
1226
100
AcDbEntity
  8
Lines
100
AcDbText
 10
7980.745995
 20
5237.679788
 30
304.879793
 40
1.0
  1
217
100
AcDbAttribute
  2
Name
 70
     0
  0
ATTRIB
  5
1227
100
AcDbEntity
  8
Lines
100
AcDbText
 10
7980.745995
 20
5235.879791
 30
304.879793
 40
1.0
  1
117
100
AcDbAttribute
  2
Code
 70
     0
  0
ATTRIB
  5
1228
100
AcDbEntity
  8
Lines
100
AcDbText
 10
7980.745995
 20
5234.479794
 30
304.879793
 40
1.0
  1
92.928
100
AcDbAttribute
  2
Elevation
 70
     0
  0
SEQEND
  5
1229
100
AcDbEntity
  8
Lines
  0
INSERT
  5
1230
100
AcDbEntity
  8
Points
100
AcDbBlockReference
 66
     1
  2
DIAG_CROSS
 10
7974.626530
 20
5345.938325
 30
278.491391
 41
0.019832
 42
0.019832
 43
0.019832
  0
ATTRIB
  5
1231
100
AcDbEntity
  8
Points
100
AcDbText
 10
7975.026529
 20
5346.338324
 30
278.491391
 40
1.0
  1
13
100
AcDbAttribute
  2
Name
 70
     0
  0
ATTRIB
  5
1232
100
AcDbEntity
  8
Points
100
AcDbText
 10
7975.026529
 20
5344.538328
 30
278.491391
 40
1.0
  1
SPIKE
100
AcDbAttribute
  2
Code
 70
     0
  0
ATTRIB
  5
1233
100
AcDbEntity
  8
Points
100
AcDbText
 10
7975.026529
 20
5343.138331
 30
278.491391
 40
1.0
  1
84.884
100
AcDbAttribute
  2
Elevation
 70
     0
  0
SEQEND
  5
1234
100
AcDbEntity
  8
Points
  0
INSERT
  5
1235
100
AcDbEntity
  8
Points
100
AcDbBlockReference
 66
     1
  2
DIAG_CROSS
 10
8037.618996
 20
5343.166234
 30
264.893867
 41
0.019832
 42
0.019832
 43
0.019832
  0
ATTRIB
  5
1236
100
AcDbEntity
  8
Points
100
AcDbText
 10
8038.018995
 20
5343.566233
 30
264.893867
 40
1.0
  1
14
100
AcDbAttribute
  2
Name
 70
     0
  0
ATTRIB
  5
1237
100
AcDbEntity
  8
Points
100
AcDbText
 10
8038.018995
 20
5341.766237
 30
264.893867
 40
1.0
  1
FD IP
100
AcDbAttribute
  2
Code
 70
     0
  0
ATTRIB
  5
1238
100
AcDbEntity
  8
Points
100
AcDbText
 10
8038.018995
 20
5340.366240
 30
264.893867
 40
1.0
  1
80.740
100
AcDbAttribute
  2
Elevation
 70
     0
  0
SEQEND
  5
1239
100
AcDbEntity
  8
Points
  0
INSERT
  5
1240
100
AcDbEntity
  8
Points
100
AcDbBlockReference
 66
     1
  2
DIAG_CROSS
 10
8083.777191
 20
5263.577846
 30
257.441812
 41
0.019832
 42
0.019832
 43
0.019832
  0
ATTRIB
  5
1241
100
AcDbEntity
  8
Points
100
AcDbText
 10
8084.177190
 20
5263.977845
 30
257.441812
 40
1.0
  1
15
100
AcDbAttribute
  2
Name
 70
     0
  0
ATTRIB
  5
1242
100
AcDbEntity
  8
Points
100
AcDbText
 10
8084.177190
 20
5262.177848
 30
257.441812
 40
1.0
  1
FD IP
100
AcDbAttribute
  2
Code
 70
     0
  0
ATTRIB
  5
1243
100
AcDbEntity
  8
Points
100
AcDbText
 10
8084.177190
 20
5260.777851
 30
257.441812
 40
1.0
  1
78.468
100
AcDbAttribute
  2
Elevation
 70
     0
  0
SEQEND
  5
1244
100
AcDbEntity
  8
Points
  0
INSERT
  5
1245
100
AcDbEntity
  8
Lines
100
AcDbBlockReference
 62
     0
 66
     1
  2
DIAG_CROSS
 10
8061.024205
 20
5335.253281
 30
258.828574
 41
0.019832
 42
0.019832
 43
0.019832
  0
ATTRIB
  5
1246
100
AcDbEntity
  8
Lines
100
AcDbText
 10
8061.424204
 20
5335.653280
 30
258.828574
 40
1.0
  1
218
100
AcDbAttribute
  2
Name
 70
     0
  0
ATTRIB
  5
1247
100
AcDbEntity
  8
Lines
100
AcDbText
 10
8061.424204
 20
5333.853283
 30
258.828574
 40
1.0
  1
107
100
AcDbAttribute
  2
Code
 70
     0
  0
ATTRIB
  5
1248
100
AcDbEntity
  8
Lines
100
AcDbText
 10
8061.424204
 20
5332.453286
 30
258.828574
 40
1.0
  1
78.891
100
AcDbAttribute
  2
Elevation
 70
     0
  0
SEQEND
  5
1249
100
AcDbEntity
  8
Lines
  0
INSERT
  5
1250
100
AcDbEntity
  8
Lines
100
AcDbBlockReference
 62
     0
 66
     1
  2
DIAG_CROSS
 10
8064.475752
 20
5338.153827
 30
256.562894
 41
0.019832
 42
0.019832
 43
0.019832
  0
ATTRIB
  5
1251
100
AcDbEntity
  8
Lines
100
AcDbText
 10
8064.875751
 20
5338.553826
 30
256.562894
 40
1.0
  1
219
100
AcDbAttribute
  2
Name
 70
     0
  0
ATTRIB
  5
1252
100
AcDbEntity
  8
Lines
100
AcDbText
 10
8064.875751
 20
5336.753830
 30
256.562894
 40
1.0
  1
117
100
AcDbAttribute
  2
Code
 70
     0
  0
ATTRIB
  5
1253
100
AcDbEntity
  8
Lines
100
AcDbText
 10
8064.875751
 20
5335.353833
 30
256.562894
 40
1.0
  1
78.201
100
AcDbAttribute
  2
Elevation
 70
     0
  0
SEQEND
  5
1254
100
AcDbEntity
  8
Lines
  0
INSERT
  5
1255
100
AcDbEntity
  8
Lines
100
AcDbBlockReference
 62
     0
 66
     1
  2
DIAG_CROSS
 10
8056.147256
 20
5329.940638
 30
259.912656
 41
0.019832
 42
0.019832
 43
0.019832
  0
ATTRIB
  5
1256
100
AcDbEntity
  8
Lines
100
AcDbText
 10
8056.547256
 20
5330.340637
 30
259.912656
 40
1.0
  1
220
100
AcDbAttribute
  2
Name
 70
     0
  0
ATTRIB
  5
1257
100
AcDbEntity
  8
Lines
100
AcDbText
 10
8056.547256
 20
5328.540641
 30
259.912656
 40
1.0
  1
106
100
AcDbAttribute
  2
Code
 70
     0
  0
ATTRIB
  5
1258
100
AcDbEntity
  8
Lines
100
AcDbText
 10
8056.547256
 20
5327.140643
 30
259.912656
 40
1.0
  1
79.222
100
AcDbAttribute
  2
Elevation
 70
     0
  0
SEQEND
  5
1259
100
AcDbEntity
  8
Lines
  0
INSERT
  5
1260
100
AcDbEntity
  8
Lines
100
AcDbBlockReference
 62
     0
 66
     1
  2
DIAG_CROSS
 10
8045.877477
 20
5336.262416
 30
262.503522
 41
0.019832
 42
0.019832
 43
0.019832
  0
ATTRIB
  5
1261
100
AcDbEntity
  8
Lines
100
AcDbText
 10
8046.277476
 20
5336.662415
 30
262.503522
 40
1.0
  1
221
100
AcDbAttribute
  2
Name
 70
     0
  0
ATTRIB
  5
1262
100
AcDbEntity
  8
Lines
100
AcDbText
 10
8046.277476
 20
5334.862418
 30
262.503522
 40
1.0
  1
106
100
AcDbAttribute
  2
Code
 70
     0
  0
ATTRIB
  5
1263
100
AcDbEntity
  8
Lines
100
AcDbText
 10
8046.277476
 20
5333.462421
 30
262.503522
 40
1.0
  1
80.011
100
AcDbAttribute
  2
Elevation
 70
     0
  0
SEQEND
  5
1264
100
AcDbEntity
  8
Lines
  0
INSERT
  5
1265
100
AcDbEntity
  8
Lines
100
AcDbBlockReference
 62
     0
 66
     1
  2
DIAG_CROSS
 10
8048.068338
 20
5343.563419
 30
262.266759
 41
0.019832
 42
0.019832
 43
0.019832
  0
ATTRIB
  5
1266
100
AcDbEntity
  8
Lines
100
AcDbText
 10
8048.468337
 20
5343.963418
 30
262.266759
 40
1.0
  1
222
100
AcDbAttribute
  2
Name
 70
     0
  0
ATTRIB
  5
1267
100
AcDbEntity
  8
Lines
100
AcDbText
 10
8048.468337
 20
5342.163422
 30
262.266759
 40
1.0
  1
107
100
AcDbAttribute
  2
Code
 70
     0
  0
ATTRIB
  5
1268
100
AcDbEntity
  8
Lines
100
AcDbText
 10
8048.468337
 20
5340.763425
 30
262.266759
 40
1.0
  1
79.939
100
AcDbAttribute
  2
Elevation
 70
     0
  0
SEQEND
  5
1269
100
AcDbEntity
  8
Lines
  0
INSERT
  5
1270
100
AcDbEntity
  8
Lines
100
AcDbBlockReference
 62
     0
 66
     1
  2
DIAG_CROSS
 10
8050.391899
 20
5346.868395
 30
260.320848
 41
0.019832
 42
0.019832
 43
0.019832
  0
ATTRIB
  5
1271
100
AcDbEntity
  8
Lines
100
AcDbText
 10
8050.791899
 20
5347.268394
 30
260.320848
 40
1.0
  1
223
100
AcDbAttribute
  2
Name
 70
     0
  0
ATTRIB
  5
1272
100
AcDbEntity
  8
Lines
100
AcDbText
 10
8050.791899
 20
5345.468398
 30
260.320848
 40
1.0
  1
117
100
AcDbAttribute
  2
Code
 70
     0
  0
ATTRIB
  5
1273
100
AcDbEntity
  8
Lines
100
AcDbText
 10
8050.791899
 20
5344.068401
 30
260.320848
 40
1.0
  1
79.346
100
AcDbAttribute
  2
Elevation
 70
     0
  0
SEQEND
  5
1274
100
AcDbEntity
  8
Lines
  0
INSERT
  5
1275
100
AcDbEntity
  8
Lines
100
AcDbBlockReference
 62
     0
 66
     1
  2
DIAG_CROSS
 10
8025.770055
 20
5342.453023
 30
268.256001
 41
0.019832
 42
0.019832
 43
0.019832
  0
ATTRIB
  5
1276
100
AcDbEntity
  8
Lines
100
AcDbText
 10
8026.170055
 20
5342.853022
 30
268.256001
 40
1.0
  1
224
100
AcDbAttribute
  2
Name
 70
     0
  0
ATTRIB
  5
1277
100
AcDbEntity
  8
Lines
100
AcDbText
 10
8026.170055
 20
5341.053026
 30
268.256001
 40
1.0
  1
106
100
AcDbAttribute
  2
Code
 70
     0
  0
ATTRIB
  5
1278
100
AcDbEntity
  8
Lines
100
AcDbText
 10
8026.170055
 20
5339.653028
 30
268.256001
 40
1.0
  1
81.765
100
AcDbAttribute
  2
Elevation
 70
     0
  0
SEQEND
  5
1279
100
AcDbEntity
  8
Lines
  0
INSERT
  5
1280
100
AcDbEntity
  8
Lines
100
AcDbBlockReference
 62
     0
 66
     1
  2
DIAG_CROSS
 10
8025.611096
 20
5350.682851
 30
268.190690
 41
0.019832
 42
0.019832
 43
0.019832
  0
ATTRIB
  5
1281
100
AcDbEntity
  8
Lines
100
AcDbText
 10
8026.011096
 20
5351.082851
 30
268.190690
 40
1.0
  1
225
100
AcDbAttribute
  2
Name
 70
     0
  0
ATTRIB
  5
1282
100
AcDbEntity
  8
Lines
100
AcDbText
 10
8026.011096
 20
5349.282854
 30
268.190690
 40
1.0
  1
107
100
AcDbAttribute
  2
Code
 70
     0
  0
ATTRIB
  5
1283
100
AcDbEntity
  8
Lines
100
AcDbText
 10
8026.011096
 20
5347.882857
 30
268.190690
 40
1.0
  1
81.745
100
AcDbAttribute
  2
Elevation
 70
     0
  0
SEQEND
  5
1284
100
AcDbEntity
  8
Lines
  0
INSERT
  5
1285
100
AcDbEntity
  8
Lines
100
AcDbBlockReference
 62
     0
 66
     1
  2
DIAG_CROSS
 10
8024.547260
 20
5357.325910
 30
266.175161
 41
0.019832
 42
0.019832
 43
0.019832
  0
ATTRIB
  5
1286
100
AcDbEntity
  8
Lines
100
AcDbText
 10
8024.947259
 20
5357.725910
 30
266.175161
 40
1.0
  1
226
100
AcDbAttribute
  2
Name
 70
     0
  0
ATTRIB
  5
1287
100
AcDbEntity
  8
Lines
100
AcDbText
 10
8024.947259
 20
5355.925913
 30
266.175161
 40
1.0
  1
117
100
AcDbAttribute
  2
Code
 70
     0
  0
ATTRIB
  5
1288
100
AcDbEntity
  8
Lines
100
AcDbText
 10
8024.947259
 20
5354.525916
 30
266.175161
 40
1.0
  1
81.130
100
AcDbAttribute
  2
Elevation
 70
     0
  0
SEQEND
  5
1289
100
AcDbEntity
  8
Lines
  0
INSERT
  5
1290
100
AcDbEntity
  8
Lines
100
AcDbBlockReference
 62
     0
 66
     1
  2
DIAG_CROSS
 10
7996.404504
 20
5356.951484
 30
271.103516
 41
0.019832
 42
0.019832
 43
0.019832
  0
ATTRIB
  5
1291
100
AcDbEntity
  8
Lines
100
AcDbText
 10
7996.804503
 20
5357.351483
 30
271.103516
 40
1.0
  1
227
100
AcDbAttribute
  2
Name
 70
     0
  0
ATTRIB
  5
1292
100
AcDbEntity
  8
Lines
100
AcDbText
 10
7996.804503
 20
5355.551487
 30
271.103516
 40
1.0
  1
117
100
AcDbAttribute
  2
Code
 70
     0
  0
ATTRIB
  5
1293
100
AcDbEntity
  8
Lines
100
AcDbText
 10
7996.804503
 20
5354.151489
 30
271.103516
 40
1.0
  1
82.633
100
AcDbAttribute
  2
Elevation
 70
     0
  0
SEQEND
  5
1294
100
AcDbEntity
  8
Lines
  0
INSERT
  5
1295
100
AcDbEntity
  8
Lines
100
AcDbBlockReference
 62
     0
 66
     1
  2
DIAG_CROSS
 10
7998.687420
 20
5351.234192
 30
273.731956
 41
0.019832
 42
0.019832
 43
0.019832
  0
ATTRIB
  5
1296
100
AcDbEntity
  8
Lines
100
AcDbText
 10
7999.087420
 20
5351.634191
 30
273.731956
 40
1.0
  1
228
100
AcDbAttribute
  2
Name
 70
     0
  0
ATTRIB
  5
1297
100
AcDbEntity
  8
Lines
100
AcDbText
 10
7999.087420
 20
5349.834194
 30
273.731956
 40
1.0
  1
107
100
AcDbAttribute
  2
Code
 70
     0
  0
ATTRIB
  5
1298
100
AcDbEntity
  8
Lines
100
AcDbText
 10
7999.087420
 20
5348.434197
 30
273.731956
 40
1.0
  1
83.434
100
AcDbAttribute
  2
Elevation
 70
     0
  0
SEQEND
  5
1299
100
AcDbEntity
  8
Lines
  0
INSERT
  5
1300
100
AcDbEntity
  8
Lines
100
AcDbBlockReference
 62
     0
 66
     1
  2
DIAG_CROSS
 10
7999.127995
 20
5343.026320
 30
274.821618
 41
0.019832
 42
0.019832
 43
0.019832
  0
ATTRIB
  5
1301
100
AcDbEntity
  8
Lines
100
AcDbText
 10
7999.527994
 20
5343.426319
 30
274.821618
 40
1.0
  1
229
100
AcDbAttribute
  2
Name
 70
     0
  0
ATTRIB
  5
1302
100
AcDbEntity
  8
Lines
100
AcDbText
 10
7999.527994
 20
5341.626323
 30
274.821618
 40
1.0
  1
106
100
AcDbAttribute
  2
Code
 70
     0
  0
ATTRIB
  5
1303
100
AcDbEntity
  8
Lines
100
AcDbText
 10
7999.527994
 20
5340.226326
 30
274.821618
 40
1.0
  1
83.766
100
AcDbAttribute
  2
Elevation
 70
     0
  0
SEQEND
  5
1304
100
AcDbEntity
  8
Lines
  0
INSERT
  5
1305
100
AcDbEntity
  8
Lines
100
AcDbBlockReference
 62
    24
 66
     1
  2
DIAG_CROSS
 10
8075.248752
 20
5296.819217
 30
258.565640
 41
0.019832
 42
0.019832
 43
0.019832
  0
ATTRIB
  5
1306
100
AcDbEntity
  8
Lines
100
AcDbText
 10
8075.648751
 20
5297.219216
 30
258.565640
 40
1.0
  1
230
100
AcDbAttribute
  2
Name
 70
     0
  0
ATTRIB
  5
1307
100
AcDbEntity
  8
Lines
100
AcDbText
 10
8075.648751
 20
5295.419220
 30
258.565640
 40
1.0
  1
145 B
100
AcDbAttribute
  2
Code
 70
     0
  0
ATTRIB
  5
1308
100
AcDbEntity
  8
Lines
100
AcDbText
 10
8075.648751
 20
5294.019222
 30
258.565640
 40
1.0
  1
78.811
100
AcDbAttribute
  2
Elevation
 70
     0
  0
SEQEND
  5
1309
100
AcDbEntity
  8
Lines
  0
INSERT
  5
1310
100
AcDbEntity
  8
Lines
100
AcDbBlockReference
 62
    24
 66
     1
  2
DIAG_CROSS
 10
8061.862664
 20
5317.194525
 30
261.558298
 41
0.019832
 42
0.019832
 43
0.019832
  0
ATTRIB
  5
1311
100
AcDbEntity
  8
Lines
100
AcDbText
 10
8062.262663
 20
5317.594524
 30
261.558298
 40
1.0
  1
231
100
AcDbAttribute
  2
Name
 70
     0
  0
ATTRIB
  5
1312
100
AcDbEntity
  8
Lines
100
AcDbText
 10
8062.262663
 20
5315.794527
 30
261.558298
 40
1.0
  1
145
100
AcDbAttribute
  2
Code
 70
     0
  0
ATTRIB
  5
1313
100
AcDbEntity
  8
Lines
100
AcDbText
 10
8062.262663
 20
5314.394530
 30
261.558298
 40
1.0
  1
79.723
100
AcDbAttribute
  2
Elevation
 70
     0
  0
SEQEND
  5
1314
100
AcDbEntity
  8
Lines
  0
INSERT
  5
1315
100
AcDbEntity
  8
Lines
100
AcDbBlockReference
 62
    24
 66
     1
  2
DIAG_CROSS
 10
8050.311312
 20
5330.085076
 30
263.503571
 41
0.019832
 42
0.019832
 43
0.019832
  0
ATTRIB
  5
1316
100
AcDbEntity
  8
Lines
100
AcDbText
 10
8050.711311
 20
5330.485076
 30
263.503571
 40
1.0
  1
232
100
AcDbAttribute
  2
Name
 70
     0
  0
ATTRIB
  5
1317
100
AcDbEntity
  8
Lines
100
AcDbText
 10
8050.711311
 20
5328.685079
 30
263.503571
 40
1.0
  1
145
100
AcDbAttribute
  2
Code
 70
     0
  0
ATTRIB
  5
1318
100
AcDbEntity
  8
Lines
100
AcDbText
 10
8050.711311
 20
5327.285082
 30
263.503571
 40
1.0
  1
80.316
100
AcDbAttribute
  2
Elevation
 70
     0
  0
SEQEND
  5
1319
100
AcDbEntity
  8
Lines
  0
INSERT
  5
1320
100
AcDbEntity
  8
Lines
100
AcDbBlockReference
 62
    24
 66
     1
  2
DIAG_CROSS
 10
8035.040713
 20
5336.889398
 30
268.360533
 41
0.019832
 42
0.019832
 43
0.019832
  0
ATTRIB
  5
1321
100
AcDbEntity
  8
Lines
100
AcDbText
 10
8035.440712
 20
5337.289397
 30
268.360533
 40
1.0
  1
233
100
AcDbAttribute
  2
Name
 70
     0
  0
ATTRIB
  5
1322
100
AcDbEntity
  8
Lines
100
AcDbText
 10
8035.440712
 20
5335.489400
 30
268.360533
 40
1.0
  1
145
100
AcDbAttribute
  2
Code
 70
     0
  0
ATTRIB
  5
1323
100
AcDbEntity
  8
Lines
100
AcDbText
 10
8035.440712
 20
5334.089403
 30
268.360533
 40
1.0
  1
81.796
100
AcDbAttribute
  2
Elevation
 70
     0
  0
SEQEND
  5
1324
100
AcDbEntity
  8
Lines
  0
INSERT
  5
1325
100
AcDbEntity
  8
Lines
100
AcDbBlockReference
 62
    24
 66
     1
  2
DIAG_CROSS
 10
8021.594985
 20
5339.573649
 30
272.519948
 41
0.019832
 42
0.019832
 43
0.019832
  0
ATTRIB
  5
1326
100
AcDbEntity
  8
Lines
100
AcDbText
 10
8021.994984
 20
5339.973648
 30
272.519948
 40
1.0
  1
234
100
AcDbAttribute
  2
Name
 70
     0
  0
ATTRIB
  5
1327
100
AcDbEntity
  8
Lines
100
AcDbText
 10
8021.994984
 20
5338.173651
 30
272.519948
 40
1.0
  1
145
100
AcDbAttribute
  2
Code
 70
     0
  0
ATTRIB
  5
1328
100
AcDbEntity
  8
Lines
100
AcDbText
 10
8021.994984
 20
5336.773654
 30
272.519948
 40
1.0
  1
83.064
100
AcDbAttribute
  2
Elevation
 70
     0
  0
SEQEND
  5
1329
100
AcDbEntity
  8
Lines
  0
INSERT
  5
1330
100
AcDbEntity
  8
Lines
100
AcDbBlockReference
 62
    24
 66
     1
  2
DIAG_CROSS
 10
7998.377924
 20
5339.925551
 30
277.992496
 41
0.019832
 42
0.019832
 43
0.019832
  0
ATTRIB
  5
1331
100
AcDbEntity
  8
Lines
100
AcDbText
 10
7998.777923
 20
5340.325550
 30
277.992496
 40
1.0
  1
235
100
AcDbAttribute
  2
Name
 70
     0
  0
ATTRIB
  5
1332
100
AcDbEntity
  8
Lines
100
AcDbText
 10
7998.777923
 20
5338.525554
 30
277.992496
 40
1.0
  1
145 E
100
AcDbAttribute
  2
Code
 70
     0
  0
ATTRIB
  5
1333
100
AcDbEntity
  8
Lines
100
AcDbText
 10
7998.777923
 20
5337.125557
 30
277.992496
 40
1.0
  1
84.732
100
AcDbAttribute
  2
Elevation
 70
     0
  0
SEQEND
  5
1334
100
AcDbEntity
  8
Lines
  0
INSERT
  5
1335
100
AcDbEntity
  8
Lines
100
AcDbBlockReference
 62
     0
 66
     1
  2
DIAG_CROSS
 10
8000.508165
 20
5324.890291
 30
283.918620
 41
0.019832
 42
0.019832
 43
0.019832
  0
ATTRIB
  5
1336
100
AcDbEntity
  8
Lines
100
AcDbText
 10
8000.908164
 20
5325.290290
 30
283.918620
 40
1.0
  1
236
100
AcDbAttribute
  2
Name
 70
     0
  0
ATTRIB
  5
1337
100
AcDbEntity
  8
Lines
100
AcDbText
 10
8000.908164
 20
5323.490294
 30
283.918620
 40
1.0
  1
117
100
AcDbAttribute
  2
Code
 70
     0
  0
ATTRIB
  5
1338
100
AcDbEntity
  8
Lines
100
AcDbText
 10
8000.908164
 20
5322.090297
 30
283.918620
 40
1.0
  1
86.539
100
AcDbAttribute
  2
Elevation
 70
     0
  0
SEQEND
  5
1339
100
AcDbEntity
  8
Lines
  0
INSERT
  5
1340
100
AcDbEntity
  8
Lines
100
AcDbBlockReference
 62
     0
 66
     1
  2
DIAG_CROSS
 10
7998.651198
 20
5297.098606
 30
291.738144
 41
0.019832
 42
0.019832
 43
0.019832
  0
ATTRIB
  5
1341
100
AcDbEntity
  8
Lines
100
AcDbText
 10
7999.051198
 20
5297.498605
 30
291.738144
 40
1.0
  1
237
100
AcDbAttribute
  2
Name
 70
     0
  0
ATTRIB
  5
1342
100
AcDbEntity
  8
Lines
100
AcDbText
 10
7999.051198
 20
5295.698609
 30
291.738144
 40
1.0
  1
117
100
AcDbAttribute
  2
Code
 70
     0
  0
ATTRIB
  5
1343
100
AcDbEntity
  8
Lines
100
AcDbText
 10
7999.051198
 20
5294.298611
 30
291.738144
 40
1.0
  1
88.922
100
AcDbAttribute
  2
Elevation
 70
     0
  0
SEQEND
  5
1344
100
AcDbEntity
  8
Lines
  0
INSERT
  5
1345
100
AcDbEntity
  8
Lines
100
AcDbBlockReference
 62
     0
 66
     1
  2
DIAG_CROSS
 10
7964.833272
 20
5279.494871
 30
304.673462
 41
0.019832
 42
0.019832
 43
0.019832
  0
ATTRIB
  5
1346
100
AcDbEntity
  8
Lines
100
AcDbText
 10
7965.233271
 20
5279.894870
 30
304.673462
 40
1.0
  1
238
100
AcDbAttribute
  2
Name
 70
     0
  0
ATTRIB
  5
1347
100
AcDbEntity
  8
Lines
100
AcDbText
 10
7965.233271
 20
5278.094874
 30
304.673462
 40
1.0
  1
117
100
AcDbAttribute
  2
Code
 70
     0
  0
ATTRIB
  5
1348
100
AcDbEntity
  8
Lines
100
AcDbText
 10
7965.233271
 20
5276.694877
 30
304.673462
 40
1.0
  1
92.865
100
AcDbAttribute
  2
Elevation
 70
     0
  0
SEQEND
  5
1349
100
AcDbEntity
  8
Lines
  0
INSERT
  5
1350
100
AcDbEntity
  8
Lines
100
AcDbBlockReference
 62
     0
 66
     1
  2
DIAG_CROSS
 10
7939.716691
 20
5267.297072
 30
313.006810
 41
0.019832
 42
0.019832
 43
0.019832
  0
ATTRIB
  5
1351
100
AcDbEntity
  8
Lines
100
AcDbText
 10
7940.116690
 20
5267.697071
 30
313.006810
 40
1.0
  1
239
100
AcDbAttribute
  2
Name
 70
     0
  0
ATTRIB
  5
1352
100
AcDbEntity
  8
Lines
100
AcDbText
 10
7940.116690
 20
5265.897075
 30
313.006810
 40
1.0
  1
117
100
AcDbAttribute
  2
Code
 70
     0
  0
ATTRIB
  5
1353
100
AcDbEntity
  8
Lines
100
AcDbText
 10
7940.116690
 20
5264.497078
 30
313.006810
 40
1.0
  1
95.405
100
AcDbAttribute
  2
Elevation
 70
     0
  0
SEQEND
  5
1354
100
AcDbEntity
  8
Lines
  0
INSERT
  5
1355
100
AcDbEntity
  8
Lines
100
AcDbBlockReference
 62
     0
 66
     1
  2
DIAG_CROSS
 10
7990.658378
 20
5310.477465
 30
289.674067
 41
0.019832
 42
0.019832
 43
0.019832
  0
ATTRIB
  5
1356
100
AcDbEntity
  8
Lines
100
AcDbText
 10
7991.058377
 20
5310.877464
 30
289.674067
 40
1.0
  1
240
100
AcDbAttribute
  2
Name
 70
     0
  0
ATTRIB
  5
1357
100
AcDbEntity
  8
Lines
100
AcDbText
 10
7991.058377
 20
5309.077468
 30
289.674067
 40
1.0
  1
117
100
AcDbAttribute
  2
Code
 70
     0
  0
ATTRIB
  5
1358
100
AcDbEntity
  8
Lines
100
AcDbText
 10
7991.058377
 20
5307.677470
 30
289.674067
 40
1.0
  1
88.293
100
AcDbAttribute
  2
Elevation
 70
     0
  0
SEQEND
  5
1359
100
AcDbEntity
  8
Lines
  0
INSERT
  5
1360
100
AcDbEntity
  8
Lines
100
AcDbBlockReference
 62
     0
 66
     1
  2
DIAG_CROSS
 10
8022.621746
 20
5295.953930
 30
282.501493
 41
0.019832
 42
0.019832
 43
0.019832
  0
ATTRIB
  5
1361
100
AcDbEntity
  8
Lines
100
AcDbText
 10
8023.021745
 20
5296.353929
 30
282.501493
 40
1.0
  1
241
100
AcDbAttribute
  2
Name
 70
     0
  0
ATTRIB
  5
1362
100
AcDbEntity
  8
Lines
100
AcDbText
 10
8023.021745
 20
5294.553933
 30
282.501493
 40
1.0
  1
117
100
AcDbAttribute
  2
Code
 70
     0
  0
ATTRIB
  5
1363
100
AcDbEntity
  8
Lines
100
AcDbText
 10
8023.021745
 20
5293.153936
 30
282.501493
 40
1.0
  1
86.107
100
AcDbAttribute
  2
Elevation
 70
     0
  0
SEQEND
  5
1364
100
AcDbEntity
  8
Lines
  0
INSERT
  5
1365
100
AcDbEntity
  8
Lines
100
AcDbBlockReference
 62
     0
 66
     1
  2
DIAG_CROSS
 10
8044.622710
 20
5296.933777
 30
271.918849
 41
0.019832
 42
0.019832
 43
0.019832
  0
ATTRIB
  5
1366
100
AcDbEntity
  8
Lines
100
AcDbText
 10
8045.022710
 20
5297.333776
 30
271.918849
 40
1.0
  1
242
100
AcDbAttribute
  2
Name
 70
     0
  0
ATTRIB
  5
1367
100
AcDbEntity
  8
Lines
100
AcDbText
 10
8045.022710
 20
5295.533779
 30
271.918849
 40
1.0
  1
117
100
AcDbAttribute
  2
Code
 70
     0
  0
ATTRIB
  5
1368
100
AcDbEntity
  8
Lines
100
AcDbText
 10
8045.022710
 20
5294.133782
 30
271.918849
 40
1.0
  1
82.881
100
AcDbAttribute
  2
Elevation
 70
     0
  0
SEQEND
  5
1369
100
AcDbEntity
  8
Lines
  0
INSERT
  5
1370
100
AcDbEntity
  8
Lines
100
AcDbBlockReference
 62
     0
 66
     1
  2
DIAG_CROSS
 10
8037.386274
 20
5320.205470
 30
271.595185
 41
0.019832
 42
0.019832
 43
0.019832
  0
ATTRIB
  5
1371
100
AcDbEntity
  8
Lines
100
AcDbText
 10
8037.786273
 20
5320.605469
 30
271.595185
 40
1.0
  1
243
100
AcDbAttribute
  2
Name
 70
     0
  0
ATTRIB
  5
1372
100
AcDbEntity
  8
Lines
100
AcDbText
 10
8037.786273
 20
5318.805473
 30
271.595185
 40
1.0
  1
117
100
AcDbAttribute
  2
Code
 70
     0
  0
ATTRIB
  5
1373
100
AcDbEntity
  8
Lines
100
AcDbText
 10
8037.786273
 20
5317.405475
 30
271.595185
 40
1.0
  1
82.782
100
AcDbAttribute
  2
Elevation
 70
     0
  0
SEQEND
  5
1374
100
AcDbEntity
  8
Lines
  0
INSERT
  5
1375
100
AcDbEntity
  8
Lines
100
AcDbBlockReference
 62
     0
 66
     1
  2
DIAG_CROSS
 10
8022.083452
 20
5324.097237
 30
277.414350
 41
0.019832
 42
0.019832
 43
0.019832
  0
ATTRIB
  5
1376
100
AcDbEntity
  8
Lines
100
AcDbText
 10
8022.483451
 20
5324.497236
 30
277.414350
 40
1.0
  1
244
100
AcDbAttribute
  2
Name
 70
     0
  0
ATTRIB
  5
1377
100
AcDbEntity
  8
Lines
100
AcDbText
 10
8022.483451
 20
5322.697239
 30
277.414350
 40
1.0
  1
117
100
AcDbAttribute
  2
Code
 70
     0
  0
ATTRIB
  5
1378
100
AcDbEntity
  8
Lines
100
AcDbText
 10
8022.483451
 20
5321.297242
 30
277.414350
 40
1.0
  1
84.556
100
AcDbAttribute
  2
Elevation
 70
     0
  0
SEQEND
  5
1379
100
AcDbEntity
  8
Lines
  0
INSERT
  5
1380
100
AcDbEntity
  8
Points
100
AcDbBlockReference
 66
     1
  2
DIAG_CROSS
 10
7874.205699
 20
5329.482902
 30
300.812101
 41
0.019832
 42
0.019832
 43
0.019832
  0
ATTRIB
  5
1381
100
AcDbEntity
  8
Points
100
AcDbText
 10
7874.605698
 20
5329.882901
 30
300.812101
 40
1.0
  1
16
100
AcDbAttribute
  2
Name
 70
     0
  0
ATTRIB
  5
1382
100
AcDbEntity
  8
Points
100
AcDbText
 10
7874.605698
 20
5328.082905
 30
300.812101
 40
1.0
  1
SPIKE
100
AcDbAttribute
  2
Code
 70
     0
  0
ATTRIB
  5
1383
100
AcDbEntity
  8
Points
100
AcDbText
 10
7874.605698
 20
5326.682908
 30
300.812101
 40
1.0
  1
91.688
100
AcDbAttribute
  2
Elevation
 70
     0
  0
SEQEND
  5
1384
100
AcDbEntity
  8
Points
  0
INSERT
  5
1385
100
AcDbEntity
  8
Points
100
AcDbBlockReference
 66
     1
  2
DIAG_CROSS
 10
7951.833115
 20
5362.204075
 30
273.301510
 41
0.019832
 42
0.019832
 43
0.019832
  0
ATTRIB
  5
1386
100
AcDbEntity
  8
Points
100
AcDbText
 10
7952.233114
 20
5362.604074
 30
273.301510
 40
1.0
  1
17
100
AcDbAttribute
  2
Name
 70
     0
  0
ATTRIB
  5
1387
100
AcDbEntity
  8
Points
100
AcDbText
 10
7952.233114
 20
5360.804078
 30
273.301510
 40
1.0
  1
FD IP
100
AcDbAttribute
  2
Code
 70
     0
  0
ATTRIB
  5
1388
100
AcDbEntity
  8
Points
100
AcDbText
 10
7952.233114
 20
5359.404081
 30
273.301510
 40
1.0
  1
83.302
100
AcDbAttribute
  2
Elevation
 70
     0
  0
SEQEND
  5
1389
100
AcDbEntity
  8
Points
  0
INSERT
  5
1390
100
AcDbEntity
  8
Lines
100
AcDbBlockReference
 62
     0
 66
     1
  2
DIAG_CROSS
 10
7973.997475
 20
5348.293690
 30
278.222362
 41
0.019832
 42
0.019832
 43
0.019832
  0
ATTRIB
  5
1391
100
AcDbEntity
  8
Lines
100
AcDbText
 10
7974.397475
 20
5348.693689
 30
278.222362
 40
1.0
  1
245
100
AcDbAttribute
  2
Name
 70
     0
  0
ATTRIB
  5
1392
100
AcDbEntity
  8
Lines
100
AcDbText
 10
7974.397475
 20
5346.893693
 30
278.222362
 40
1.0
  1
107
100
AcDbAttribute
  2
Code
 70
     0
  0
ATTRIB
  5
1393
100
AcDbEntity
  8
Lines
100
AcDbText
 10
7974.397475
 20
5345.493696
 30
278.222362
 40
1.0
  1
84.802
100
AcDbAttribute
  2
Elevation
 70
     0
  0
SEQEND
  5
1394
100
AcDbEntity
  8
Lines
  0
INSERT
  5
1395
100
AcDbEntity
  8
Lines
100
AcDbBlockReference
 62
     0
 66
     1
  2
DIAG_CROSS
 10
7975.053682
 20
5340.272336
 30
279.392986
 41
0.019832
 42
0.019832
 43
0.019832
  0
ATTRIB
  5
1396
100
AcDbEntity
  8
Lines
100
AcDbText
 10
7975.453682
 20
5340.672335
 30
279.392986
 40
1.0
  1
246
100
AcDbAttribute
  2
Name
 70
     0
  0
ATTRIB
  5
1397
100
AcDbEntity
  8
Lines
100
AcDbText
 10
7975.453682
 20
5338.872338
 30
279.392986
 40
1.0
  1
106
100
AcDbAttribute
  2
Code
 70
     0
  0
ATTRIB
  5
1398
100
AcDbEntity
  8
Lines
100
AcDbText
 10
7975.453682
 20
5337.472341
 30
279.392986
 40
1.0
  1
85.159
100
AcDbAttribute
  2
Elevation
 70
     0
  0
SEQEND
  5
1399
100
AcDbEntity
  8
Lines
  0
INSERT
  5
1400
100
AcDbEntity
  8
Lines
100
AcDbBlockReference
 62
     0
 66
     1
  2
DIAG_CROSS
 10
7949.024341
 20
5334.307889
 30
285.785387
 41
0.019832
 42
0.019832
 43
0.019832
  0
ATTRIB
  5
1401
100
AcDbEntity
  8
Lines
100
AcDbText
 10
7949.424340
 20
5334.707888
 30
285.785387
 40
1.0
  1
247
100
AcDbAttribute
  2
Name
 70
     0
  0
ATTRIB
  5
1402
100
AcDbEntity
  8
Lines
100
AcDbText
 10
7949.424340
 20
5332.907892
 30
285.785387
 40
1.0
  1
106
100
AcDbAttribute
  2
Code
 70
     0
  0
ATTRIB
  5
1403
100
AcDbEntity
  8
Lines
100
AcDbText
 10
7949.424340
 20
5331.507895
 30
285.785387
 40
1.0
  1
87.108
100
AcDbAttribute
  2
Elevation
 70
     0
  0
SEQEND
  5
1404
100
AcDbEntity
  8
Lines
  0
INSERT
  5
1405
100
AcDbEntity
  8
Lines
100
AcDbBlockReference
 62
     0
 66
     1
  2
DIAG_CROSS
 10
7946.564819
 20
5341.943792
 30
285.214027
 41
0.019832
 42
0.019832
 43
0.019832
  0
ATTRIB
  5
1406
100
AcDbEntity
  8
Lines
100
AcDbText
 10
7946.964818
 20
5342.343791
 30
285.214027
 40
1.0
  1
248
100
AcDbAttribute
  2
Name
 70
     0
  0
ATTRIB
  5
1407
100
AcDbEntity
  8
Lines
100
AcDbText
 10
7946.964818
 20
5340.543795
 30
285.214027
 40
1.0
  1
107
100
AcDbAttribute
  2
Code
 70
     0
  0
ATTRIB
  5
1408
100
AcDbEntity
  8
Lines
100
AcDbText
 10
7946.964818
 20
5339.143798
 30
285.214027
 40
1.0
  1
86.933
100
AcDbAttribute
  2
Elevation
 70
     0
  0
SEQEND
  5
1409
100
AcDbEntity
  8
Lines
  0
INSERT
  5
1410
100
AcDbEntity
  8
Lines
100
AcDbBlockReference
 62
     0
 66
     1
  2
DIAG_CROSS
 10
7946.700746
 20
5347.278834
 30
281.773086
 41
0.019832
 42
0.019832
 43
0.019832
  0
ATTRIB
  5
1411
100
AcDbEntity
  8
Lines
100
AcDbText
 10
7947.100745
 20
5347.678833
 30
281.773086
 40
1.0
  1
249
100
AcDbAttribute
  2
Name
 70
     0
  0
ATTRIB
  5
1412
100
AcDbEntity
  8
Lines
100
AcDbText
 10
7947.100745
 20
5345.878837
 30
281.773086
 40
1.0
  1
117
100
AcDbAttribute
  2
Code
 70
     0
  0
ATTRIB
  5
1413
100
AcDbEntity
  8
Lines
100
AcDbText
 10
7947.100745
 20
5344.478840
 30
281.773086
 40
1.0
  1
85.885
100
AcDbAttribute
  2
Elevation
 70
     0
  0
SEQEND
  5
1414
100
AcDbEntity
  8
Lines
  0
INSERT
  5
1415
100
AcDbEntity
  8
Lines
100
AcDbBlockReference
 62
     0
 66
     1
  2
DIAG_CROSS
 10
7918.169524
 20
5333.995409
 30
292.386850
 41
0.019832
 42
0.019832
 43
0.019832
  0
ATTRIB
  5
1416
100
AcDbEntity
  8
Lines
100
AcDbText
 10
7918.569524
 20
5334.395408
 30
292.386850
 40
1.0
  1
250
100
AcDbAttribute
  2
Name
 70
     0
  0
ATTRIB
  5
1417
100
AcDbEntity
  8
Lines
100
AcDbText
 10
7918.569524
 20
5332.595412
 30
292.386850
 40
1.0
  1
106
100
AcDbAttribute
  2
Code
 70
     0
  0
ATTRIB
  5
1418
100
AcDbEntity
  8
Lines
100
AcDbText
 10
7918.569524
 20
5331.195415
 30
292.386850
 40
1.0
  1
89.120
100
AcDbAttribute
  2
Elevation
 70
     0
  0
SEQEND
  5
1419
100
AcDbEntity
  8
Lines
  0
INSERT
  5
1420
100
AcDbEntity
  8
Lines
100
AcDbBlockReference
 62
     0
 66
     1
  2
DIAG_CROSS
 10
7918.021220
 20
5341.052374
 30
291.518599
 41
0.019832
 42
0.019832
 43
0.019832
  0
ATTRIB
  5
1421
100
AcDbEntity
  8
Lines
100
AcDbText
 10
7918.421219
 20
5341.452373
 30
291.518599
 40
1.0
  1
251
100
AcDbAttribute
  2
Name
 70
     0
  0
ATTRIB
  5
1422
100
AcDbEntity
  8
Lines
100
AcDbText
 10
7918.421219
 20
5339.652377
 30
291.518599
 40
1.0
  1
107
100
AcDbAttribute
  2
Code
 70
     0
  0
ATTRIB
  5
1423
100
AcDbEntity
  8
Lines
100
AcDbText
 10
7918.421219
 20
5338.252380
 30
291.518599
 40
1.0
  1
88.855
100
AcDbAttribute
  2
Elevation
 70
     0
  0
SEQEND
  5
1424
100
AcDbEntity
  8
Lines
  0
INSERT
  5
1425
100
AcDbEntity
  8
Lines
100
AcDbBlockReference
 62
     0
 66
     1
  2
DIAG_CROSS
 10
7921.544989
 20
5350.397432
 30
285.615356
 41
0.019832
 42
0.019832
 43
0.019832
  0
ATTRIB
  5
1426
100
AcDbEntity
  8
Lines
100
AcDbText
 10
7921.944988
 20
5350.797431
 30
285.615356
 40
1.0
  1
252
100
AcDbAttribute
  2
Name
 70
     0
  0
ATTRIB
  5
1427
100
AcDbEntity
  8
Lines
100
AcDbText
 10
7921.944988
 20
5348.997435
 30
285.615356
 40
1.0
  1
117
100
AcDbAttribute
  2
Code
 70
     0
  0
ATTRIB
  5
1428
100
AcDbEntity
  8
Lines
100
AcDbText
 10
7921.944988
 20
5347.597438
 30
285.615356
 40
1.0
  1
87.056
100
AcDbAttribute
  2
Elevation
 70
     0
  0
SEQEND
  5
1429
100
AcDbEntity
  8
Lines
  0
INSERT
  5
1430
100
AcDbEntity
  8
Lines
100
AcDbBlockReference
 62
     0
 66
     1
  2
DIAG_CROSS
 10
7893.589343
 20
5331.702280
 30
297.693039
 41
0.019832
 42
0.019832
 43
0.019832
  0
ATTRIB
  5
1431
100
AcDbEntity
  8
Lines
100
AcDbText
 10
7893.989343
 20
5332.102279
 30
297.693039
 40
1.0
  1
253
100
AcDbAttribute
  2
Name
 70
     0
  0
ATTRIB
  5
1432
100
AcDbEntity
  8
Lines
100
AcDbText
 10
7893.989343
 20
5330.302283
 30
297.693039
 40
1.0
  1
106
100
AcDbAttribute
  2
Code
 70
     0
  0
ATTRIB
  5
1433
100
AcDbEntity
  8
Lines
100
AcDbText
 10
7893.989343
 20
5328.902286
 30
297.693039
 40
1.0
  1
90.737
100
AcDbAttribute
  2
Elevation
 70
     0
  0
SEQEND
  5
1434
100
AcDbEntity
  8
Lines
  0
INSERT
  5
1435
100
AcDbEntity
  8
Lines
100
AcDbBlockReference
 62
     0
 66
     1
  2
DIAG_CROSS
 10
7890.729010
 20
5338.399360
 30
297.111454
 41
0.019832
 42
0.019832
 43
0.019832
  0
ATTRIB
  5
1436
100
AcDbEntity
  8
Lines
100
AcDbText
 10
7891.129009
 20
5338.799359
 30
297.111454
 40
1.0
  1
254
100
AcDbAttribute
  2
Name
 70
     0
  0
ATTRIB
  5
1437
100
AcDbEntity
  8
Lines
100
AcDbText
 10
7891.129009
 20
5336.999363
 30
297.111454
 40
1.0
  1
107
100
AcDbAttribute
  2
Code
 70
     0
  0
ATTRIB
  5
1438
100
AcDbEntity
  8
Lines
100
AcDbText
 10
7891.129009
 20
5335.599366
 30
297.111454
 40
1.0
  1
90.560
100
AcDbAttribute
  2
Elevation
 70
     0
  0
SEQEND
  5
1439
100
AcDbEntity
  8
Lines
  0
INSERT
  5
1440
100
AcDbEntity
  8
Lines
100
AcDbBlockReference
 62
    24
 66
     1
  2
DIAG_CROSS
 10
7995.973680
 20
5339.551346
 30
278.930173
 41
0.019832
 42
0.019832
 43
0.019832
  0
ATTRIB
  5
1441
100
AcDbEntity
  8
Lines
100
AcDbText
 10
7996.373679
 20
5339.951346
 30
278.930173
 40
1.0
  1
255
100
AcDbAttribute
  2
Name
 70
     0
  0
ATTRIB
  5
1442
100
AcDbEntity
  8
Lines
100
AcDbText
 10
7996.373679
 20
5338.151349
 30
278.930173
 40
1.0
  1
145 B
100
AcDbAttribute
  2
Code
 70
     0
  0
ATTRIB
  5
1443
100
AcDbEntity
  8
Lines
100
AcDbText
 10
7996.373679
 20
5336.751352
 30
278.930173
 40
1.0
  1
85.018
100
AcDbAttribute
  2
Elevation
 70
     0
  0
SEQEND
  5
1444
100
AcDbEntity
  8
Lines
  0
INSERT
  5
1445
100
AcDbEntity
  8
Lines
100
AcDbBlockReference
 62
    24
 66
     1
  2
DIAG_CROSS
 10
7972.739599
 20
5332.029352
 30
284.695696
 41
0.019832
 42
0.019832
 43
0.019832
  0
ATTRIB
  5
1446
100
AcDbEntity
  8
Lines
100
AcDbText
 10
7973.139598
 20
5332.429351
 30
284.695696
 40
1.0
  1
256
100
AcDbAttribute
  2
Name
 70
     0
  0
ATTRIB
  5
1447
100
AcDbEntity
  8
Lines
100
AcDbText
 10
7973.139598
 20
5330.629355
 30
284.695696
 40
1.0
  1
145
100
AcDbAttribute
  2
Code
 70
     0
  0
ATTRIB
  5
1448
100
AcDbEntity
  8
Lines
100
AcDbText
 10
7973.139598
 20
5329.229358
 30
284.695696
 40
1.0
  1
86.775
100
AcDbAttribute
  2
Elevation
 70
     0
  0
SEQEND
  5
1449
100
AcDbEntity
  8
Lines
  0
INSERT
  5
1450
100
AcDbEntity
  8
Lines
100
AcDbBlockReference
 62
     0
 66
     1
  2
DIAG_CROSS
 10
7964.268181
 20
5310.050365
 30
295.269233
 41
0.019832
 42
0.019832
 43
0.019832
  0
ATTRIB
  5
1451
100
AcDbEntity
  8
Lines
100
AcDbText
 10
7964.668180
 20
5310.450364
 30
295.269233
 40
1.0
  1
257
100
AcDbAttribute
  2
Name
 70
     0
  0
ATTRIB
  5
1452
100
AcDbEntity
  8
Lines
100
AcDbText
 10
7964.668180
 20
5308.650368
 30
295.269233
 40
1.0
  1
117
100
AcDbAttribute
  2
Code
 70
     0
  0
ATTRIB
  5
1453
100
AcDbEntity
  8
Lines
100
AcDbText
 10
7964.668180
 20
5307.250371
 30
295.269233
 40
1.0
  1
89.998
100
AcDbAttribute
  2
Elevation
 70
     0
  0
SEQEND
  5
1454
100
AcDbEntity
  8
Lines
  0
INSERT
  5
1455
100
AcDbEntity
  8
Lines
100
AcDbBlockReference
 62
     0
 66
     1
  2
DIAG_CROSS
 10
7947.411605
 20
5288.138211
 30
307.113414
 41
0.019832
 42
0.019832
 43
0.019832
  0
ATTRIB
  5
1456
100
AcDbEntity
  8
Lines
100
AcDbText
 10
7947.811605
 20
5288.538211
 30
307.113414
 40
1.0
  1
258
100
AcDbAttribute
  2
Name
 70
     0
  0
ATTRIB
  5
1457
100
AcDbEntity
  8
Lines
100
AcDbText
 10
7947.811605
 20
5286.738214
 30
307.113414
 40
1.0
  1
117
100
AcDbAttribute
  2
Code
 70
     0
  0
ATTRIB
  5
1458
100
AcDbEntity
  8
Lines
100
AcDbText
 10
7947.811605
 20
5285.338217
 30
307.113414
 40
1.0
  1
93.608
100
AcDbAttribute
  2
Elevation
 70
     0
  0
SEQEND
  5
1459
100
AcDbEntity
  8
Lines
  0
INSERT
  5
1460
100
AcDbEntity
  8
Lines
100
AcDbBlockReference
 62
     0
 66
     1
  2
DIAG_CROSS
 10
7914.442948
 20
5288.715566
 30
313.866085
 41
0.019832
 42
0.019832
 43
0.019832
  0
ATTRIB
  5
1461
100
AcDbEntity
  8
Lines
100
AcDbText
 10
7914.842948
 20
5289.115565
 30
313.866085
 40
1.0
  1
259
100
AcDbAttribute
  2
Name
 70
     0
  0
ATTRIB
  5
1462
100
AcDbEntity
  8
Lines
100
AcDbText
 10
7914.842948
 20
5287.315568
 30
313.866085
 40
1.0
  1
117
100
AcDbAttribute
  2
Code
 70
     0
  0
ATTRIB
  5
1463
100
AcDbEntity
  8
Lines
100
AcDbText
 10
7914.842948
 20
5285.915571
 30
313.866085
 40
1.0
  1
95.667
100
AcDbAttribute
  2
Elevation
 70
     0
  0
SEQEND
  5
1464
100
AcDbEntity
  8
Lines
  0
INSERT
  5
1465
100
AcDbEntity
  8
Lines
100
AcDbBlockReference
 62
     0
 66
     1
  2
DIAG_CROSS
 10
7878.857187
 20
5289.976157
 30
317.367911
 41
0.019832
 42
0.019832
 43
0.019832
  0
ATTRIB
  5
1466
100
AcDbEntity
  8
Lines
100
AcDbText
 10
7879.257186
 20
5290.376156
 30
317.367911
 40
1.0
  1
260
100
AcDbAttribute
  2
Name
 70
     0
  0
ATTRIB
  5
1467
100
AcDbEntity
  8
Lines
100
AcDbText
 10
7879.257186
 20
5288.576160
 30
317.367911
 40
1.0
  1
117
100
AcDbAttribute
  2
Code
 70
     0
  0
ATTRIB
  5
1468
100
AcDbEntity
  8
Lines
100
AcDbText
 10
7879.257186
 20
5287.176163
 30
317.367911
 40
1.0
  1
96.734
100
AcDbAttribute
  2
Elevation
 70
     0
  0
SEQEND
  5
1469
100
AcDbEntity
  8
Lines
  0
INSERT
  5
1470
100
AcDbEntity
  8
Lines
100
AcDbBlockReference
 62
     0
 66
     1
  2
DIAG_CROSS
 10
7876.649170
 20
5308.116751
 30
310.485761
 41
0.019832
 42
0.019832
 43
0.019832
  0
ATTRIB
  5
1471
100
AcDbEntity
  8
Lines
100
AcDbText
 10
7877.049169
 20
5308.516750
 30
310.485761
 40
1.0
  1
261
100
AcDbAttribute
  2
Name
 70
     0
  0
ATTRIB
  5
1472
100
AcDbEntity
  8
Lines
100
AcDbText
 10
7877.049169
 20
5306.716754
 30
310.485761
 40
1.0
  1
117
100
AcDbAttribute
  2
Code
 70
     0
  0
ATTRIB
  5
1473
100
AcDbEntity
  8
Lines
100
AcDbText
 10
7877.049169
 20
5305.316757
 30
310.485761
 40
1.0
  1
94.636
100
AcDbAttribute
  2
Elevation
 70
     0
  0
SEQEND
  5
1474
100
AcDbEntity
  8
Lines
  0
INSERT
  5
1475
100
AcDbEntity
  8
Lines
100
AcDbBlockReference
 62
     0
 66
     1
  2
DIAG_CROSS
 10
7897.836461
 20
5318.181259
 30
304.714593
 41
0.019832
 42
0.019832
 43
0.019832
  0
ATTRIB
  5
1476
100
AcDbEntity
  8
Lines
100
AcDbText
 10
7898.236460
 20
5318.581258
 30
304.714593
 40
1.0
  1
262
100
AcDbAttribute
  2
Name
 70
     0
  0
ATTRIB
  5
1477
100
AcDbEntity
  8
Lines
100
AcDbText
 10
7898.236460
 20
5316.781262
 30
304.714593
 40
1.0
  1
117
100
AcDbAttribute
  2
Code
 70
     0
  0
ATTRIB
  5
1478
100
AcDbEntity
  8
Lines
100
AcDbText
 10
7898.236460
 20
5315.381264
 30
304.714593
 40
1.0
  1
92.877
100
AcDbAttribute
  2
Elevation
 70
     0
  0
SEQEND
  5
1479
100
AcDbEntity
  8
Lines
  0
INSERT
  5
1480
100
AcDbEntity
  8
Lines
100
AcDbBlockReference
 62
     0
 66
     1
  2
DIAG_CROSS
 10
7921.412328
 20
5315.310125
 30
301.551418
 41
0.019832
 42
0.019832
 43
0.019832
  0
ATTRIB
  5
1481
100
AcDbEntity
  8
Lines
100
AcDbText
 10
7921.812327
 20
5315.710125
 30
301.551418
 40
1.0
  1
263
100
AcDbAttribute
  2
Name
 70
     0
  0
ATTRIB
  5
1482
100
AcDbEntity
  8
Lines
100
AcDbText
 10
7921.812327
 20
5313.910128
 30
301.551418
 40
1.0
  1
117
100
AcDbAttribute
  2
Code
 70
     0
  0
ATTRIB
  5
1483
100
AcDbEntity
  8
Lines
100
AcDbText
 10
7921.812327
 20
5312.510131
 30
301.551418
 40
1.0
  1
91.913
100
AcDbAttribute
  2
Elevation
 70
     0
  0
SEQEND
  5
1484
100
AcDbEntity
  8
Lines
  0
INSERT
  5
1485
100
AcDbEntity
  8
Lines
100
AcDbBlockReference
 62
     0
 66
     1
  2
DIAG_CROSS
 10
7944.818881
 20
5321.139166
 30
293.680840
 41
0.019832
 42
0.019832
 43
0.019832
  0
ATTRIB
  5
1486
100
AcDbEntity
  8
Lines
100
AcDbText
 10
7945.218881
 20
5321.539166
 30
293.680840
 40
1.0
  1
264
100
AcDbAttribute
  2
Name
 70
     0
  0
ATTRIB
  5
1487
100
AcDbEntity
  8
Lines
100
AcDbText
 10
7945.218881
 20
5319.739169
 30
293.680840
 40
1.0
  1
117
100
AcDbAttribute
  2
Code
 70
     0
  0
ATTRIB
  5
1488
100
AcDbEntity
  8
Lines
100
AcDbText
 10
7945.218881
 20
5318.339172
 30
293.680840
 40
1.0
  1
89.514
100
AcDbAttribute
  2
Elevation
 70
     0
  0
SEQEND
  5
1489
100
AcDbEntity
  8
Lines
  0
INSERT
  5
1490
100
AcDbEntity
  8
Lines
100
AcDbBlockReference
 62
     0
 66
     1
  2
DIAG_CROSS
 10
7946.364090
 20
5305.463848
 30
300.445972
 41
0.019832
 42
0.019832
 43
0.019832
  0
ATTRIB
  5
1491
100
AcDbEntity
  8
Lines
100
AcDbText
 10
7946.764090
 20
5305.863847
 30
300.445972
 40
1.0
  1
265
100
AcDbAttribute
  2
Name
 70
     0
  0
ATTRIB
  5
1492
100
AcDbEntity
  8
Lines
100
AcDbText
 10
7946.764090
 20
5304.063850
 30
300.445972
 40
1.0
  1
117
100
AcDbAttribute
  2
Code
 70
     0
  0
ATTRIB
  5
1493
100
AcDbEntity
  8
Lines
100
AcDbText
 10
7946.764090
 20
5302.663853
 30
300.445972
 40
1.0
  1
91.576
100
AcDbAttribute
  2
Elevation
 70
     0
  0
SEQEND
  5
1494
100
AcDbEntity
  8
Lines
  0
INSERT
  5
1495
100
AcDbEntity
  8
Lines
100
AcDbBlockReference
 62
    24
 66
     1
  2
DIAG_CROSS
 10
7945.318727
 20
5330.078808
 30
289.708144
 41
0.019832
 42
0.019832
 43
0.019832
  0
ATTRIB
  5
1496
100
AcDbEntity
  8
Lines
100
AcDbText
 10
7945.718726
 20
5330.478807
 30
289.708144
 40
1.0
  1
266
100
AcDbAttribute
  2
Name
 70
     0
  0
ATTRIB
  5
1497
100
AcDbEntity
  8
Lines
100
AcDbText
 10
7945.718726
 20
5328.678811
 30
289.708144
 40
1.0
  1
145
100
AcDbAttribute
  2
Code
 70
     0
  0
ATTRIB
  5
1498
100
AcDbEntity
  8
Lines
100
AcDbText
 10
7945.718726
 20
5327.278814
 30
289.708144
 40
1.0
  1
88.303
100
AcDbAttribute
  2
Elevation
 70
     0
  0
SEQEND
  5
1499
100
AcDbEntity
  8
Lines
  0
INSERT
  5
1500
100
AcDbEntity
  8
Lines
100
AcDbBlockReference
 62
    24
 66
     1
  2
DIAG_CROSS
 10
7922.264629
 20
5329.396029
 30
295.044458
 41
0.019832
 42
0.019832
 43
0.019832
  0
ATTRIB
  5
1501
100
AcDbEntity
  8
Lines
100
AcDbText
 10
7922.664629
 20
5329.796028
 30
295.044458
 40
1.0
  1
267
100
AcDbAttribute
  2
Name
 70
     0
  0
ATTRIB
  5
1502
100
AcDbEntity
  8
Lines
100
AcDbText
 10
7922.664629
 20
5327.996032
 30
295.044458
 40
1.0
  1
145
100
AcDbAttribute
  2
Code
 70
     0
  0
ATTRIB
  5
1503
100
AcDbEntity
  8
Lines
100
AcDbText
 10
7922.664629
 20
5326.596035
 30
295.044458
 40
1.0
  1
89.930
100
AcDbAttribute
  2
Elevation
 70
     0
  0
SEQEND
  5
1504
100
AcDbEntity
  8
Lines
  0
INSERT
  5
1505
100
AcDbEntity
  8
Lines
100
AcDbBlockReference
 62
    24
 66
     1
  2
DIAG_CROSS
 10
7896.339909
 20
5330.317500
 30
299.876658
 41
0.019832
 42
0.019832
 43
0.019832
  0
ATTRIB
  5
1506
100
AcDbEntity
  8
Lines
100
AcDbText
 10
7896.739908
 20
5330.717499
 30
299.876658
 40
1.0
  1
268
100
AcDbAttribute
  2
Name
 70
     0
  0
ATTRIB
  5
1507
100
AcDbEntity
  8
Lines
100
AcDbText
 10
7896.739908
 20
5328.917503
 30
299.876658
 40
1.0
  1
145
100
AcDbAttribute
  2
Code
 70
     0
  0
ATTRIB
  5
1508
100
AcDbEntity
  8
Lines
100
AcDbText
 10
7896.739908
 20
5327.517506
 30
299.876658
 40
1.0
  1
91.403
100
AcDbAttribute
  2
Elevation
 70
     0
  0
SEQEND
  5
1509
100
AcDbEntity
  8
Lines
  0
INSERT
  5
1510
100
AcDbEntity
  8
Lines
100
AcDbBlockReference
 62
    24
 66
     1
  2
DIAG_CROSS
 10
7878.210724
 20
5318.009245
 30
306.906572
 41
0.019832
 42
0.019832
 43
0.019832
  0
ATTRIB
  5
1511
100
AcDbEntity
  8
Lines
100
AcDbText
 10
7878.610723
 20
5318.409245
 30
306.906572
 40
1.0
  1
269
100
AcDbAttribute
  2
Name
 70
     0
  0
ATTRIB
  5
1512
100
AcDbEntity
  8
Lines
100
AcDbText
 10
7878.610723
 20
5316.609248
 30
306.906572
 40
1.0
  1
145
100
AcDbAttribute
  2
Code
 70
     0
  0
ATTRIB
  5
1513
100
AcDbEntity
  8
Lines
100
AcDbText
 10
7878.610723
 20
5315.209251
 30
306.906572
 40
1.0
  1
93.545
100
AcDbAttribute
  2
Elevation
 70
     0
  0
SEQEND
  5
1514
100
AcDbEntity
  8
Lines
  0
INSERT
  5
1515
100
AcDbEntity
  8
Points
100
AcDbBlockReference
 66
     1
  2
DIAG_CROSS
 10
7805.838268
 20
5244.423232
 30
327.901908
 41
0.019832
 42
0.019832
 43
0.019832
  0
ATTRIB
  5
1516
100
AcDbEntity
  8
Points
100
AcDbText
 10
7806.238267
 20
5244.823231
 30
327.901908
 40
1.0
  1
18
100
AcDbAttribute
  2
Name
 70
     0
  0
ATTRIB
  5
1517
100
AcDbEntity
  8
Points
100
AcDbText
 10
7806.238267
 20
5243.023235
 30
327.901908
 40
1.0
  1
SPIKE
100
AcDbAttribute
  2
Code
 70
     0
  0
ATTRIB
  5
1518
100
AcDbEntity
  8
Points
100
AcDbText
 10
7806.238267
 20
5241.623238
 30
327.901908
 40
1.0
  1
99.945
100
AcDbAttribute
  2
Elevation
 70
     0
  0
SEQEND
  5
1519
100
AcDbEntity
  8
Points
  0
INSERT
  5
1520
100
AcDbEntity
  8
Points
100
AcDbBlockReference
 66
     1
  2
DIAG_CROSS
 10
7918.333600
 20
5377.334766
 30
274.353259
 41
0.019832
 42
0.019832
 43
0.019832
  0
ATTRIB
  5
1521
100
AcDbEntity
  8
Points
100
AcDbText
 10
7918.733599
 20
5377.734765
 30
274.353259
 40
1.0
  1
19
100
AcDbAttribute
  2
Name
 70
     0
  0
ATTRIB
  5
1522
100
AcDbEntity
  8
Points
100
AcDbText
 10
7918.733599
 20
5375.934768
 30
274.353259
 40
1.0
  1
FD IP
100
AcDbAttribute
  2
Code
 70
     0
  0
ATTRIB
  5
1523
100
AcDbEntity
  8
Points
100
AcDbText
 10
7918.733599
 20
5374.534771
 30
274.353259
 40
1.0
  1
83.623
100
AcDbAttribute
  2
Elevation
 70
     0
  0
SEQEND
  5
1524
100
AcDbEntity
  8
Points
  0
INSERT
  5
1525
100
AcDbEntity
  8
Lines
100
AcDbBlockReference
 62
     0
 66
     1
  2
DIAG_CROSS
 10
7918.551640
 20
5376.272997
 30
274.804546
 41
0.019832
 42
0.019832
 43
0.019832
  0
ATTRIB
  5
1526
100
AcDbEntity
  8
Lines
100
AcDbText
 10
7918.951639
 20
5376.672996
 30
274.804546
 40
1.0
  1
270
100
AcDbAttribute
  2
Name
 70
     0
  0
ATTRIB
  5
1527
100
AcDbEntity
  8
Lines
100
AcDbText
 10
7918.951639
 20
5374.873000
 30
274.804546
 40
1.0
  1
117
100
AcDbAttribute
  2
Code
 70
     0
  0
ATTRIB
  5
1528
100
AcDbEntity
  8
Lines
100
AcDbText
 10
7918.951639
 20
5373.473003
 30
274.804546
 40
1.0
  1
83.761
100
AcDbAttribute
  2
Elevation
 70
     0
  0
SEQEND
  5
1529
100
AcDbEntity
  8
Lines
  0
INSERT
  5
1530
100
AcDbEntity
  8
Lines
100
AcDbBlockReference
 62
     0
 66
     1
  2
DIAG_CROSS
 10
7904.795449
 20
5357.311476
 30
285.463061
 41
0.019832
 42
0.019832
 43
0.019832
  0
ATTRIB
  5
1531
100
AcDbEntity
  8
Lines
100
AcDbText
 10
7905.195448
 20
5357.711475
 30
285.463061
 40
1.0
  1
271
100
AcDbAttribute
  2
Name
 70
     0
  0
ATTRIB
  5
1532
100
AcDbEntity
  8
Lines
100
AcDbText
 10
7905.195448
 20
5355.911479
 30
285.463061
 40
1.0
  1
117
100
AcDbAttribute
  2
Code
 70
     0
  0
ATTRIB
  5
1533
100
AcDbEntity
  8
Lines
100
AcDbText
 10
7905.195448
 20
5354.511481
 30
285.463061
 40
1.0
  1
87.009
100
AcDbAttribute
  2
Elevation
 70
     0
  0
SEQEND
  5
1534
100
AcDbEntity
  8
Lines
  0
INSERT
  5
1535
100
AcDbEntity
  8
Lines
100
AcDbBlockReference
 62
     0
 66
     1
  2
DIAG_CROSS
 10
7877.670755
 20
5354.480656
 30
288.335848
 41
0.019832
 42
0.019832
 43
0.019832
  0
ATTRIB
  5
1536
100
AcDbEntity
  8
Lines
100
AcDbText
 10
7878.070754
 20
5354.880655
 30
288.335848
 40
1.0
  1
272
100
AcDbAttribute
  2
Name
 70
     0
  0
ATTRIB
  5
1537
100
AcDbEntity
  8
Lines
100
AcDbText
 10
7878.070754
 20
5353.080659
 30
288.335848
 40
1.0
  1
117
100
AcDbAttribute
  2
Code
 70
     0
  0
ATTRIB
  5
1538
100
AcDbEntity
  8
Lines
100
AcDbText
 10
7878.070754
 20
5351.680661
 30
288.335848
 40
1.0
  1
87.885
100
AcDbAttribute
  2
Elevation
 70
     0
  0
SEQEND
  5
1539
100
AcDbEntity
  8
Lines
  0
INSERT
  5
1540
100
AcDbEntity
  8
Lines
100
AcDbBlockReference
 62
     0
 66
     1
  2
DIAG_CROSS
 10
7846.651903
 20
5343.297152
 30
294.211740
 41
0.019832
 42
0.019832
 43
0.019832
  0
ATTRIB
  5
1541
100
AcDbEntity
  8
Lines
100
AcDbText
 10
7847.051902
 20
5343.697151
 30
294.211740
 40
1.0
  1
273
100
AcDbAttribute
  2
Name
 70
     0
  0
ATTRIB
  5
1542
100
AcDbEntity
  8
Lines
100
AcDbText
 10
7847.051902
 20
5341.897155
 30
294.211740
 40
1.0
  1
117
100
AcDbAttribute
  2
Code
 70
     0
  0
ATTRIB
  5
1543
100
AcDbEntity
  8
Lines
100
AcDbText
 10
7847.051902
 20
5340.497158
 30
294.211740
 40
1.0
  1
89.676
100
AcDbAttribute
  2
Elevation
 70
     0
  0
SEQEND
  5
1544
100
AcDbEntity
  8
Lines
  0
INSERT
  5
1545
100
AcDbEntity
  8
Lines
100
AcDbBlockReference
 62
     0
 66
     1
  2
DIAG_CROSS
 10
7832.675696
 20
5340.025104
 30
295.470373
 41
0.019832
 42
0.019832
 43
0.019832
  0
ATTRIB
  5
1546
100
AcDbEntity
  8
Lines
100
AcDbText
 10
7833.075695
 20
5340.425104
 30
295.470373
 40
1.0
  1
274
100
AcDbAttribute
  2
Name
 70
     0
  0
ATTRIB
  5
1547
100
AcDbEntity
  8
Lines
100
AcDbText
 10
7833.075695
 20
5338.625107
 30
295.470373
 40
1.0
  1
117
100
AcDbAttribute
  2
Code
 70
     0
  0
ATTRIB
  5
1548
100
AcDbEntity
  8
Lines
100
AcDbText
 10
7833.075695
 20
5337.225110
 30
295.470373
 40
1.0
  1
90.060
100
AcDbAttribute
  2
Elevation
 70
     0
  0
SEQEND
  5
1549
100
AcDbEntity
  8
Lines
  0
INSERT
  5
1550
100
AcDbEntity
  8
Lines
100
AcDbBlockReference
 62
     0
 66
     1
  2
DIAG_CROSS
 10
7813.609641
 20
5331.907821
 30
299.562127
 41
0.019832
 42
0.019832
 43
0.019832
  0
ATTRIB
  5
1551
100
AcDbEntity
  8
Lines
100
AcDbText
 10
7814.009640
 20
5332.307820
 30
299.562127
 40
1.0
  1
275
100
AcDbAttribute
  2
Name
 70
     0
  0
ATTRIB
  5
1552
100
AcDbEntity
  8
Lines
100
AcDbText
 10
7814.009640
 20
5330.507824
 30
299.562127
 40
1.0
  1
117
100
AcDbAttribute
  2
Code
 70
     0
  0
ATTRIB
  5
1553
100
AcDbEntity
  8
Lines
100
AcDbText
 10
7814.009640
 20
5329.107826
 30
299.562127
 40
1.0
  1
91.307
100
AcDbAttribute
  2
Elevation
 70
     0
  0
SEQEND
  5
1554
100
AcDbEntity
  8
Lines
  0
INSERT
  5
1555
100
AcDbEntity
  8
Lines
100
AcDbBlockReference
 62
     0
 66
     1
  2
DIAG_CROSS
 10
7791.244244
 20
5318.574285
 30
304.946420
 41
0.019832
 42
0.019832
 43
0.019832
  0
ATTRIB
  5
1556
100
AcDbEntity
  8
Lines
100
AcDbText
 10
7791.644243
 20
5318.974285
 30
304.946420
 40
1.0
  1
276
100
AcDbAttribute
  2
Name
 70
     0
  0
ATTRIB
  5
1557
100
AcDbEntity
  8
Lines
100
AcDbText
 10
7791.644243
 20
5317.174288
 30
304.946420
 40
1.0
  1
117
100
AcDbAttribute
  2
Code
 70
     0
  0
ATTRIB
  5
1558
100
AcDbEntity
  8
Lines
100
AcDbText
 10
7791.644243
 20
5315.774291
 30
304.946420
 40
1.0
  1
92.948
100
AcDbAttribute
  2
Elevation
 70
     0
  0
SEQEND
  5
1559
100
AcDbEntity
  8
Lines
  0
INSERT
  5
1560
100
AcDbEntity
  8
Lines
100
AcDbBlockReference
 62
     0
 66
     1
  2
DIAG_CROSS
 10
7865.699748
 20
5328.047551
 30
302.127513
 41
0.019832
 42
0.019832
 43
0.019832
  0
ATTRIB
  5
1561
100
AcDbEntity
  8
Lines
100
AcDbText
 10
7866.099747
 20
5328.447550
 30
302.127513
 40
1.0
  1
277
100
AcDbAttribute
  2
Name
 70
     0
  0
ATTRIB
  5
1562
100
AcDbEntity
  8
Lines
100
AcDbText
 10
7866.099747
 20
5326.647554
 30
302.127513
 40
1.0
  1
107
100
AcDbAttribute
  2
Code
 70
     0
  0
ATTRIB
  5
1563
100
AcDbEntity
  8
Lines
100
AcDbText
 10
7866.099747
 20
5325.247557
 30
302.127513
 40
1.0
  1
92.089
100
AcDbAttribute
  2
Elevation
 70
     0
  0
SEQEND
  5
1564
100
AcDbEntity
  8
Lines
  0
INSERT
  5
1565
100
AcDbEntity
  8
Lines
100
AcDbBlockReference
 62
     0
 66
     1
  2
DIAG_CROSS
 10
7868.323592
 20
5321.175670
 30
303.154347
 41
0.019832
 42
0.019832
 43
0.019832
  0
ATTRIB
  5
1566
100
AcDbEntity
  8
Lines
100
AcDbText
 10
7868.723591
 20
5321.575669
 30
303.154347
 40
1.0
  1
278
100
AcDbAttribute
  2
Name
 70
     0
  0
ATTRIB
  5
1567
100
AcDbEntity
  8
Lines
100
AcDbText
 10
7868.723591
 20
5319.775672
 30
303.154347
 40
1.0
  1
106
100
AcDbAttribute
  2
Code
 70
     0
  0
ATTRIB
  5
1568
100
AcDbEntity
  8
Lines
100
AcDbText
 10
7868.723591
 20
5318.375675
 30
303.154347
 40
1.0
  1
92.402
100
AcDbAttribute
  2
Elevation
 70
     0
  0
SEQEND
  5
1569
100
AcDbEntity
  8
Lines
  0
INSERT
  5
1570
100
AcDbEntity
  8
Lines
100
AcDbBlockReference
 62
     0
 66
     1
  2
DIAG_CROSS
 10
7845.355889
 20
5312.833765
 30
307.538091
 41
0.019832
 42
0.019832
 43
0.019832
  0
ATTRIB
  5
1571
100
AcDbEntity
  8
Lines
100
AcDbText
 10
7845.755889
 20
5313.233764
 30
307.538091
 40
1.0
  1
279
100
AcDbAttribute
  2
Name
 70
     0
  0
ATTRIB
  5
1572
100
AcDbEntity
  8
Lines
100
AcDbText
 10
7845.755889
 20
5311.433768
 30
307.538091
 40
1.0
  1
106
100
AcDbAttribute
  2
Code
 70
     0
  0
ATTRIB
  5
1573
100
AcDbEntity
  8
Lines
100
AcDbText
 10
7845.755889
 20
5310.033771
 30
307.538091
 40
1.0
  1
93.738
100
AcDbAttribute
  2
Elevation
 70
     0
  0
SEQEND
  5
1574
100
AcDbEntity
  8
Lines
  0
INSERT
  5
1575
100
AcDbEntity
  8
Lines
100
AcDbBlockReference
 62
     0
 66
     1
  2
DIAG_CROSS
 10
7842.450184
 20
5319.698007
 30
306.887669
 41
0.019832
 42
0.019832
 43
0.019832
  0
ATTRIB
  5
1576
100
AcDbEntity
  8
Lines
100
AcDbText
 10
7842.850183
 20
5320.098006
 30
306.887669
 40
1.0
  1
280
100
AcDbAttribute
  2
Name
 70
     0
  0
ATTRIB
  5
1577
100
AcDbEntity
  8
Lines
100
AcDbText
 10
7842.850183
 20
5318.298010
 30
306.887669
 40
1.0
  1
107
100
AcDbAttribute
  2
Code
 70
     0
  0
ATTRIB
  5
1578
100
AcDbEntity
  8
Lines
100
AcDbText
 10
7842.850183
 20
5316.898012
 30
306.887669
 40
1.0
  1
93.540
100
AcDbAttribute
  2
Elevation
 70
     0
  0
SEQEND
  5
1579
100
AcDbEntity
  8
Lines
  0
INSERT
  5
1580
100
AcDbEntity
  8
Lines
100
AcDbBlockReference
 62
     0
 66
     1
  2
DIAG_CROSS
 10
7815.784440
 20
5310.926717
 30
310.808041
 41
0.019832
 42
0.019832
 43
0.019832
  0
ATTRIB
  5
1581
100
AcDbEntity
  8
Lines
100
AcDbText
 10
7816.184439
 20
5311.326716
 30
310.808041
 40
1.0
  1
281
100
AcDbAttribute
  2
Name
 70
     0
  0
ATTRIB
  5
1582
100
AcDbEntity
  8
Lines
100
AcDbText
 10
7816.184439
 20
5309.526720
 30
310.808041
 40
1.0
  1
107
100
AcDbAttribute
  2
Code
 70
     0
  0
ATTRIB
  5
1583
100
AcDbEntity
  8
Lines
100
AcDbText
 10
7816.184439
 20
5308.126723
 30
310.808041
 40
1.0
  1
94.734
100
AcDbAttribute
  2
Elevation
 70
     0
  0
SEQEND
  5
1584
100
AcDbEntity
  8
Lines
  0
INSERT
  5
1585
100
AcDbEntity
  8
Lines
100
AcDbBlockReference
 62
     0
 66
     1
  2
DIAG_CROSS
 10
7819.399379
 20
5304.202455
 30
311.329842
 41
0.019832
 42
0.019832
 43
0.019832
  0
ATTRIB
  5
1586
100
AcDbEntity
  8
Lines
100
AcDbText
 10
7819.799378
 20
5304.602454
 30
311.329842
 40
1.0
  1
282
100
AcDbAttribute
  2
Name
 70
     0
  0
ATTRIB
  5
1587
100
AcDbEntity
  8
Lines
100
AcDbText
 10
7819.799378
 20
5302.802458
 30
311.329842
 40
1.0
  1
106
100
AcDbAttribute
  2
Code
 70
     0
  0
ATTRIB
  5
1588
100
AcDbEntity
  8
Lines
100
AcDbText
 10
7819.799378
 20
5301.402461
 30
311.329842
 40
1.0
  1
94.894
100
AcDbAttribute
  2
Elevation
 70
     0
  0
SEQEND
  5
1589
100
AcDbEntity
  8
Lines
  0
INSERT
  5
1590
100
AcDbEntity
  8
Lines
100
AcDbBlockReference
 62
     0
 66
     1
  2
DIAG_CROSS
 10
7813.221471
 20
5300.835651
 30
312.576133
 41
0.019832
 42
0.019832
 43
0.019832
  0
ATTRIB
  5
1591
100
AcDbEntity
  8
Lines
100
AcDbText
 10
7813.621470
 20
5301.235650
 30
312.576133
 40
1.0
  1
283
100
AcDbAttribute
  2
Name
 70
     0
  0
ATTRIB
  5
1592
100
AcDbEntity
  8
Lines
100
AcDbText
 10
7813.621470
 20
5299.435654
 30
312.576133
 40
1.0
  1
106 E
100
AcDbAttribute
  2
Code
 70
     0
  0
ATTRIB
  5
1593
100
AcDbEntity
  8
Lines
100
AcDbText
 10
7813.621470
 20
5298.035657
 30
312.576133
 40
1.0
  1
95.273
100
AcDbAttribute
  2
Elevation
 70
     0
  0
SEQEND
  5
1594
100
AcDbEntity
  8
Lines
  0
INSERT
  5
1595
100
AcDbEntity
  8
Lines
100
AcDbBlockReference
 62
     0
 66
     1
  2
DIAG_CROSS
 10
7806.536555
 20
5305.466413
 30
312.023698
 41
0.019832
 42
0.019832
 43
0.019832
  0
ATTRIB
  5
1596
100
AcDbEntity
  8
Lines
100
AcDbText
 10
7806.936554
 20
5305.866412
 30
312.023698
 40
1.0
  1
284
100
AcDbAttribute
  2
Name
 70
     0
  0
ATTRIB
  5
1597
100
AcDbEntity
  8
Lines
100
AcDbText
 10
7806.936554
 20
5304.066416
 30
312.023698
 40
1.0
  1
107 E
100
AcDbAttribute
  2
Code
 70
     0
  0
ATTRIB
  5
1598
100
AcDbEntity
  8
Lines
100
AcDbText
 10
7806.936554
 20
5302.666419
 30
312.023698
 40
1.0
  1
95.105
100
AcDbAttribute
  2
Elevation
 70
     0
  0
SEQEND
  5
1599
100
AcDbEntity
  8
Lines
  0
INSERT
  5
1600
100
AcDbEntity
  8
Lines
100
AcDbBlockReference
 62
    24
 66
     1
  2
DIAG_CROSS
 10
7858.688069
 20
5311.903437
 30
308.721899
 41
0.019832
 42
0.019832
 43
0.019832
  0
ATTRIB
  5
1601
100
AcDbEntity
  8
Lines
100
AcDbText
 10
7859.088068
 20
5312.303437
 30
308.721899
 40
1.0
  1
285
100
AcDbAttribute
  2
Name
 70
     0
  0
ATTRIB
  5
1602
100
AcDbEntity
  8
Lines
100
AcDbText
 10
7859.088068
 20
5310.503440
 30
308.721899
 40
1.0
  1
145
100
AcDbAttribute
  2
Code
 70
     0
  0
ATTRIB
  5
1603
100
AcDbEntity
  8
Lines
100
AcDbText
 10
7859.088068
 20
5309.103443
 30
308.721899
 40
1.0
  1
94.099
100
AcDbAttribute
  2
Elevation
 70
     0
  0
SEQEND
  5
1604
100
AcDbEntity
  8
Lines
  0
INSERT
  5
1605
100
AcDbEntity
  8
Lines
100
AcDbBlockReference
 62
    24
 66
     1
  2
DIAG_CROSS
 10
7843.560956
 20
5310.038607
 30
310.772495
 41
0.019832
 42
0.019832
 43
0.019832
  0
ATTRIB
  5
1606
100
AcDbEntity
  8
Lines
100
AcDbText
 10
7843.960955
 20
5310.438606
 30
310.772495
 40
1.0
  1
286
100
AcDbAttribute
  2
Name
 70
     0
  0
ATTRIB
  5
1607
100
AcDbEntity
  8
Lines
100
AcDbText
 10
7843.960955
 20
5308.638610
 30
310.772495
 40
1.0
  1
145
100
AcDbAttribute
  2
Code
 70
     0
  0
ATTRIB
  5
1608
100
AcDbEntity
  8
Lines
100
AcDbText
 10
7843.960955
 20
5307.238613
 30
310.772495
 40
1.0
  1
94.724
100
AcDbAttribute
  2
Elevation
 70
     0
  0
SEQEND
  5
1609
100
AcDbEntity
  8
Lines
  0
INSERT
  5
1610
100
AcDbEntity
  8
Lines
100
AcDbBlockReference
 62
    24
 66
     1
  2
DIAG_CROSS
 10
7830.767491
 20
5304.775265
 30
313.059134
 41
0.019832
 42
0.019832
 43
0.019832
  0
ATTRIB
  5
1611
100
AcDbEntity
  8
Lines
100
AcDbText
 10
7831.167490
 20
5305.175264
 30
313.059134
 40
1.0
  1
287
100
AcDbAttribute
  2
Name
 70
     0
  0
ATTRIB
  5
1612
100
AcDbEntity
  8
Lines
100
AcDbText
 10
7831.167490
 20
5303.375268
 30
313.059134
 40
1.0
  1
145
100
AcDbAttribute
  2
Code
 70
     0
  0
ATTRIB
  5
1613
100
AcDbEntity
  8
Lines
100
AcDbText
 10
7831.167490
 20
5301.975271
 30
313.059134
 40
1.0
  1
95.421
100
AcDbAttribute
  2
Elevation
 70
     0
  0
SEQEND
  5
1614
100
AcDbEntity
  8
Lines
  0
INSERT
  5
1615
100
AcDbEntity
  8
Lines
100
AcDbBlockReference
 62
    24
 66
     1
  2
DIAG_CROSS
 10
7830.761398
 20
5304.742639
 30
313.059296
 41
0.019832
 42
0.019832
 43
0.019832
  0
ATTRIB
  5
1616
100
AcDbEntity
  8
Lines
100
AcDbText
 10
7831.161397
 20
5305.142639
 30
313.059296
 40
1.0
  1
288
100
AcDbAttribute
  2
Name
 70
     0
  0
ATTRIB
  5
1617
100
AcDbEntity
  8
Lines
100
AcDbText
 10
7831.161397
 20
5303.342642
 30
313.059296
 40
1.0
  1
145
100
AcDbAttribute
  2
Code
 70
     0
  0
ATTRIB
  5
1618
100
AcDbEntity
  8
Lines
100
AcDbText
 10
7831.161397
 20
5301.942645
 30
313.059296
 40
1.0
  1
95.421
100
AcDbAttribute
  2
Elevation
 70
     0
  0
SEQEND
  5
1619
100
AcDbEntity
  8
Lines
  0
INSERT
  5
1620
100
AcDbEntity
  8
Lines
100
AcDbBlockReference
 62
    24
 66
     1
  2
DIAG_CROSS
 10
7812.532668
 20
5297.404439
 30
314.676733
 41
0.019832
 42
0.019832
 43
0.019832
  0
ATTRIB
  5
1621
100
AcDbEntity
  8
Lines
100
AcDbText
 10
7812.932667
 20
5297.804438
 30
314.676733
 40
1.0
  1
289
100
AcDbAttribute
  2
Name
 70
     0
  0
ATTRIB
  5
1622
100
AcDbEntity
  8
Lines
100
AcDbText
 10
7812.932667
 20
5296.004442
 30
314.676733
 40
1.0
  1
145 E
100
AcDbAttribute
  2
Code
 70
     0
  0
ATTRIB
  5
1623
100
AcDbEntity
  8
Lines
100
AcDbText
 10
7812.932667
 20
5294.604445
 30
314.676733
 40
1.0
  1
95.914
100
AcDbAttribute
  2
Elevation
 70
     0
  0
SEQEND
  5
1624
100
AcDbEntity
  8
Lines
  0
INSERT
  5
1625
100
AcDbEntity
  8
Lines
100
AcDbBlockReference
 62
     0
 66
     1
  2
DIAG_CROSS
 10
7812.759530
 20
5283.408766
 30
318.593678
 41
0.019832
 42
0.019832
 43
0.019832
  0
ATTRIB
  5
1626
100
AcDbEntity
  8
Lines
100
AcDbText
 10
7813.159530
 20
5283.808765
 30
318.593678
 40
1.0
  1
290
100
AcDbAttribute
  2
Name
 70
     0
  0
ATTRIB
  5
1627
100
AcDbEntity
  8
Lines
100
AcDbText
 10
7813.159530
 20
5282.008768
 30
318.593678
 40
1.0
  1
117
100
AcDbAttribute
  2
Code
 70
     0
  0
ATTRIB
  5
1628
100
AcDbEntity
  8
Lines
100
AcDbText
 10
7813.159530
 20
5280.608771
 30
318.593678
 40
1.0
  1
97.108
100
AcDbAttribute
  2
Elevation
 70
     0
  0
SEQEND
  5
1629
100
AcDbEntity
  8
Lines
  0
INSERT
  5
1630
100
AcDbEntity
  8
Lines
100
AcDbBlockReference
 62
     0
 66
     1
  2
DIAG_CROSS
 10
7830.632520
 20
5277.790436
 30
320.052738
 41
0.019832
 42
0.019832
 43
0.019832
  0
ATTRIB
  5
1631
100
AcDbEntity
  8
Lines
100
AcDbText
 10
7831.032519
 20
5278.190435
 30
320.052738
 40
1.0
  1
291
100
AcDbAttribute
  2
Name
 70
     0
  0
ATTRIB
  5
1632
100
AcDbEntity
  8
Lines
100
AcDbText
 10
7831.032519
 20
5276.390439
 30
320.052738
 40
1.0
  1
117
100
AcDbAttribute
  2
Code
 70
     0
  0
ATTRIB
  5
1633
100
AcDbEntity
  8
Lines
100
AcDbText
 10
7831.032519
 20
5274.990442
 30
320.052738
 40
1.0
  1
97.552
100
AcDbAttribute
  2
Elevation
 70
     0
  0
SEQEND
  5
1634
100
AcDbEntity
  8
Lines
  0
INSERT
  5
1635
100
AcDbEntity
  8
Lines
100
AcDbBlockReference
 62
     0
 66
     1
  2
DIAG_CROSS
 10
7867.548520
 20
5288.414995
 30
319.002170
 41
0.019832
 42
0.019832
 43
0.019832
  0
ATTRIB
  5
1636
100
AcDbEntity
  8
Lines
100
AcDbText
 10
7867.948520
 20
5288.814994
 30
319.002170
 40
1.0
  1
292
100
AcDbAttribute
  2
Name
 70
     0
  0
ATTRIB
  5
1637
100
AcDbEntity
  8
Lines
100
AcDbText
 10
7867.948520
 20
5287.014998
 30
319.002170
 40
1.0
  1
117
100
AcDbAttribute
  2
Code
 70
     0
  0
ATTRIB
  5
1638
100
AcDbEntity
  8
Lines
100
AcDbText
 10
7867.948520
 20
5285.615001
 30
319.002170
 40
1.0
  1
97.232
100
AcDbAttribute
  2
Elevation
 70
     0
  0
SEQEND
  5
1639
100
AcDbEntity
  8
Lines
  0
INSERT
  5
1640
100
AcDbEntity
  8
Lines
100
AcDbBlockReference
 62
     0
 66
     1
  2
DIAG_CROSS
 10
7847.958305
 20
5297.469595
 30
316.420854
 41
0.019832
 42
0.019832
 43
0.019832
  0
ATTRIB
  5
1641
100
AcDbEntity
  8
Lines
100
AcDbText
 10
7848.358304
 20
5297.869594
 30
316.420854
 40
1.0
  1
293
100
AcDbAttribute
  2
Name
 70
     0
  0
ATTRIB
  5
1642
100
AcDbEntity
  8
Lines
100
AcDbText
 10
7848.358304
 20
5296.069598
 30
316.420854
 40
1.0
  1
117
100
AcDbAttribute
  2
Code
 70
     0
  0
ATTRIB
  5
1643
100
AcDbEntity
  8
Lines
100
AcDbText
 10
7848.358304
 20
5294.669601
 30
316.420854
 40
1.0
  1
96.445
100
AcDbAttribute
  2
Elevation
 70
     0
  0
SEQEND
  5
1644
100
AcDbEntity
  8
Lines
  0
INSERT
  5
1645
100
AcDbEntity
  8
Lines
100
AcDbBlockReference
 62
     0
 66
     1
  2
DIAG_CROSS
 10
7834.264081
 20
5300.633198
 30
314.684576
 41
0.019832
 42
0.019832
 43
0.019832
  0
ATTRIB
  5
1646
100
AcDbEntity
  8
Lines
100
AcDbText
 10
7834.664080
 20
5301.033197
 30
314.684576
 40
1.0
  1
294
100
AcDbAttribute
  2
Name
 70
     0
  0
ATTRIB
  5
1647
100
AcDbEntity
  8
Lines
100
AcDbText
 10
7834.664080
 20
5299.233201
 30
314.684576
 40
1.0
  1
117
100
AcDbAttribute
  2
Code
 70
     0
  0
ATTRIB
  5
1648
100
AcDbEntity
  8
Lines
100
AcDbText
 10
7834.664080
 20
5297.833204
 30
314.684576
 40
1.0
  1
95.916
100
AcDbAttribute
  2
Elevation
 70
     0
  0
SEQEND
  5
1649
100
AcDbEntity
  8
Lines
  0
INSERT
  5
1650
100
AcDbEntity
  8
Lines
100
AcDbBlockReference
 62
     0
 66
     1
  2
DIAG_CROSS
 10
7838.441076
 20
5290.792109
 30
317.418239
 41
0.019832
 42
0.019832
 43
0.019832
  0
ATTRIB
  5
1651
100
AcDbEntity
  8
Lines
100
AcDbText
 10
7838.841076
 20
5291.192108
 30
317.418239
 40
1.0
  1
295
100
AcDbAttribute
  2
Name
 70
     0
  0
ATTRIB
  5
1652
100
AcDbEntity
  8
Lines
100
AcDbText
 10
7838.841076
 20
5289.392112
 30
317.418239
 40
1.0
  1
117
100
AcDbAttribute
  2
Code
 70
     0
  0
ATTRIB
  5
1653
100
AcDbEntity
  8
Lines
100
AcDbText
 10
7838.841076
 20
5287.992115
 30
317.418239
 40
1.0
  1
96.749
100
AcDbAttribute
  2
Elevation
 70
     0
  0
SEQEND
  5
1654
100
AcDbEntity
  8
Lines
  0
INSERT
  5
1655
100
AcDbEntity
  8
Lines
100
AcDbBlockReference
 62
     0
 66
     1
  2
DIAG_CROSS
 10
7843.139844
 20
5277.592758
 30
320.631548
 41
0.019832
 42
0.019832
 43
0.019832
  0
ATTRIB
  5
1656
100
AcDbEntity
  8
Lines
100
AcDbText
 10
7843.539843
 20
5277.992757
 30
320.631548
 40
1.0
  1
296
100
AcDbAttribute
  2
Name
 70
     0
  0
ATTRIB
  5
1657
100
AcDbEntity
  8
Lines
100
AcDbText
 10
7843.539843
 20
5276.192760
 30
320.631548
 40
1.0
  1
117
100
AcDbAttribute
  2
Code
 70
     0
  0
ATTRIB
  5
1658
100
AcDbEntity
  8
Lines
100
AcDbText
 10
7843.539843
 20
5274.792763
 30
320.631548
 40
1.0
  1
97.729
100
AcDbAttribute
  2
Elevation
 70
     0
  0
SEQEND
  5
1659
100
AcDbEntity
  8
Lines
  0
INSERT
  5
1660
100
AcDbEntity
  8
Lines
100
AcDbBlockReference
 62
     0
 66
     1
  2
DIAG_CROSS
 10
7862.780804
 20
5276.862761
 30
320.709324
 41
0.019832
 42
0.019832
 43
0.019832
  0
ATTRIB
  5
1661
100
AcDbEntity
  8
Lines
100
AcDbText
 10
7863.180803
 20
5277.262760
 30
320.709324
 40
1.0
  1
297
100
AcDbAttribute
  2
Name
 70
     0
  0
ATTRIB
  5
1662
100
AcDbEntity
  8
Lines
100
AcDbText
 10
7863.180803
 20
5275.462764
 30
320.709324
 40
1.0
  1
117
100
AcDbAttribute
  2
Code
 70
     0
  0
ATTRIB
  5
1663
100
AcDbEntity
  8
Lines
100
AcDbText
 10
7863.180803
 20
5274.062767
 30
320.709324
 40
1.0
  1
97.752
100
AcDbAttribute
  2
Elevation
 70
     0
  0
SEQEND
  5
1664
100
AcDbEntity
  8
Lines
  0
INSERT
  5
1665
100
AcDbEntity
  8
Lines
100
AcDbBlockReference
 62
     0
 66
     1
  2
DIAG_CROSS
 10
7887.860765
 20
5278.522884
 30
320.103036
 41
0.019832
 42
0.019832
 43
0.019832
  0
ATTRIB
  5
1666
100
AcDbEntity
  8
Lines
100
AcDbText
 10
7888.260765
 20
5278.922884
 30
320.103036
 40
1.0
  1
298
100
AcDbAttribute
  2
Name
 70
     0
  0
ATTRIB
  5
1667
100
AcDbEntity
  8
Lines
100
AcDbText
 10
7888.260765
 20
5277.122887
 30
320.103036
 40
1.0
  1
117
100
AcDbAttribute
  2
Code
 70
     0
  0
ATTRIB
  5
1668
100
AcDbEntity
  8
Lines
100
AcDbText
 10
7888.260765
 20
5275.722890
 30
320.103036
 40
1.0
  1
97.568
100
AcDbAttribute
  2
Elevation
 70
     0
  0
SEQEND
  5
1669
100
AcDbEntity
  8
Lines
  0
INSERT
  5
1670
100
AcDbEntity
  8
Lines
100
AcDbBlockReference
 62
     0
 66
     1
  2
DIAG_CROSS
 10
7897.341854
 20
5293.855347
 30
315.067659
 41
0.019832
 42
0.019832
 43
0.019832
  0
ATTRIB
  5
1671
100
AcDbEntity
  8
Lines
100
AcDbText
 10
7897.741853
 20
5294.255346
 30
315.067659
 40
1.0
  1
299
100
AcDbAttribute
  2
Name
 70
     0
  0
ATTRIB
  5
1672
100
AcDbEntity
  8
Lines
100
AcDbText
 10
7897.741853
 20
5292.455349
 30
315.067659
 40
1.0
  1
117
100
AcDbAttribute
  2
Code
 70
     0
  0
ATTRIB
  5
1673
100
AcDbEntity
  8
Lines
100
AcDbText
 10
7897.741853
 20
5291.055352
 30
315.067659
 40
1.0
  1
96.033
100
AcDbAttribute
  2
Elevation
 70
     0
  0
SEQEND
  5
1674
100
AcDbEntity
  8
Lines
  0
INSERT
  5
1675
100
AcDbEntity
  8
Lines
100
AcDbBlockReference
 62
     0
 66
     1
  2
DIAG_CROSS
 10
7895.468265
 20
5278.765431
 30
319.525119
 41
0.019832
 42
0.019832
 43
0.019832
  0
ATTRIB
  5
1676
100
AcDbEntity
  8
Lines
100
AcDbText
 10
7895.868264
 20
5279.165430
 30
319.525119
 40
1.0
  1
300
100
AcDbAttribute
  2
Name
 70
     0
  0
ATTRIB
  5
1677
100
AcDbEntity
  8
Lines
100
AcDbText
 10
7895.868264
 20
5277.365433
 30
319.525119
 40
1.0
  1
117
100
AcDbAttribute
  2
Code
 70
     0
  0
ATTRIB
  5
1678
100
AcDbEntity
  8
Lines
100
AcDbText
 10
7895.868264
 20
5275.965436
 30
319.525119
 40
1.0
  1
97.391
100
AcDbAttribute
  2
Elevation
 70
     0
  0
SEQEND
  5
1679
100
AcDbEntity
  8
Lines
  0
INSERT
  5
1680
100
AcDbEntity
  8
Lines
100
AcDbBlockReference
 62
     0
 66
     1
  2
DIAG_CROSS
 10
7913.633246
 20
5271.469132
 30
318.306272
 41
0.019832
 42
0.019832
 43
0.019832
  0
ATTRIB
  5
1681
100
AcDbEntity
  8
Lines
100
AcDbText
 10
7914.033245
 20
5271.869131
 30
318.306272
 40
1.0
  1
301
100
AcDbAttribute
  2
Name
 70
     0
  0
ATTRIB
  5
1682
100
AcDbEntity
  8
Lines
100
AcDbText
 10
7914.033245
 20
5270.069135
 30
318.306272
 40
1.0
  1
117
100
AcDbAttribute
  2
Code
 70
     0
  0
ATTRIB
  5
1683
100
AcDbEntity
  8
Lines
100
AcDbText
 10
7914.033245
 20
5268.669137
 30
318.306272
 40
1.0
  1
97.020
100
AcDbAttribute
  2
Elevation
 70
     0
  0
SEQEND
  5
1684
100
AcDbEntity
  8
Lines
  0
INSERT
  5
1685
100
AcDbEntity
  8
Points
100
AcDbBlockReference
 66
     1
  2
DIAG_CROSS
 10
7730.515164
 20
5091.137647
 30
371.063617
 41
0.019832
 42
0.019832
 43
0.019832
  0
ATTRIB
  5
1686
100
AcDbEntity
  8
Points
100
AcDbText
 10
7730.915164
 20
5091.537647
 30
371.063617
 40
1.0
  1
20
100
AcDbAttribute
  2
Name
 70
     0
  0
ATTRIB
  5
1687
100
AcDbEntity
  8
Points
100
AcDbText
 10
7730.915164
 20
5089.737650
 30
371.063617
 40
1.0
  1
FD IP
100
AcDbAttribute
  2
Code
 70
     0
  0
ATTRIB
  5
1688
100
AcDbEntity
  8
Points
100
AcDbText
 10
7730.915164
 20
5088.337653
 30
371.063617
 40
1.0
  1
113.100
100
AcDbAttribute
  2
Elevation
 70
     0
  0
SEQEND
  5
1689
100
AcDbEntity
  8
Points
  0
INSERT
  5
1690
100
AcDbEntity
  8
Lines
100
AcDbBlockReference
 62
     0
 66
     1
  2
DIAG_CROSS
 10
7743.285407
 20
5084.227158
 30
369.038091
 41
0.019832
 42
0.019832
 43
0.019832
  0
ATTRIB
  5
1691
100
AcDbEntity
  8
Lines
100
AcDbText
 10
7743.685407
 20
5084.627157
 30
369.038091
 40
1.0
  1
302
100
AcDbAttribute
  2
Name
 70
     0
  0
ATTRIB
  5
1692
100
AcDbEntity
  8
Lines
100
AcDbText
 10
7743.685407
 20
5082.827161
 30
369.038091
 40
1.0
  1
117
100
AcDbAttribute
  2
Code
 70
     0
  0
ATTRIB
  5
1693
100
AcDbEntity
  8
Lines
100
AcDbText
 10
7743.685407
 20
5081.427164
 30
369.038091
 40
1.0
  1
112.483
100
AcDbAttribute
  2
Elevation
 70
     0
  0
SEQEND
  5
1694
100
AcDbEntity
  8
Lines
  0
INSERT
  5
1695
100
AcDbEntity
  8
Lines
100
AcDbBlockReference
 62
     0
 66
     1
  2
DIAG_CROSS
 10
7727.761862
 20
5088.000501
 30
371.435546
 41
0.019832
 42
0.019832
 43
0.019832
  0
ATTRIB
  5
1696
100
AcDbEntity
  8
Lines
100
AcDbText
 10
7728.161862
 20
5088.400501
 30
371.435546
 40
1.0
  1
303
100
AcDbAttribute
  2
Name
 70
     0
  0
ATTRIB
  5
1697
100
AcDbEntity
  8
Lines
100
AcDbText
 10
7728.161862
 20
5086.600504
 30
371.435546
 40
1.0
  1
117
100
AcDbAttribute
  2
Code
 70
     0
  0
ATTRIB
  5
1698
100
AcDbEntity
  8
Lines
100
AcDbText
 10
7728.161862
 20
5085.200507
 30
371.435546
 40
1.0
  1
113.214
100
AcDbAttribute
  2
Elevation
 70
     0
  0
SEQEND
  5
1699
100
AcDbEntity
  8
Lines
  0
INSERT
  5
1700
100
AcDbEntity
  8
Lines
100
AcDbBlockReference
 62
     0
 66
     1
  2
DIAG_CROSS
 10
7738.495339
 20
5109.461076
 30
365.811698
 41
0.019832
 42
0.019832
 43
0.019832
  0
ATTRIB
  5
1701
100
AcDbEntity
  8
Lines
100
AcDbText
 10
7738.895339
 20
5109.861076
 30
365.811698
 40
1.0
  1
304
100
AcDbAttribute
  2
Name
 70
     0
  0
ATTRIB
  5
1702
100
AcDbEntity
  8
Lines
100
AcDbText
 10
7738.895339
 20
5108.061079
 30
365.811698
 40
1.0
  1
117
100
AcDbAttribute
  2
Code
 70
     0
  0
ATTRIB
  5
1703
100
AcDbEntity
  8
Lines
100
AcDbText
 10
7738.895339
 20
5106.661082
 30
365.811698
 40
1.0
  1
111.500
100
AcDbAttribute
  2
Elevation
 70
     0
  0
SEQEND
  5
1704
100
AcDbEntity
  8
Lines
  0
INSERT
  5
1705
100
AcDbEntity
  8
Lines
100
AcDbBlockReference
 62
     0
 66
     1
  2
DIAG_CROSS
 10
7756.779822
 20
5100.871767
 30
364.238020
 41
0.019832
 42
0.019832
 43
0.019832
  0
ATTRIB
  5
1706
100
AcDbEntity
  8
Lines
100
AcDbText
 10
7757.179822
 20
5101.271766
 30
364.238020
 40
1.0
  1
305
100
AcDbAttribute
  2
Name
 70
     0
  0
ATTRIB
  5
1707
100
AcDbEntity
  8
Lines
100
AcDbText
 10
7757.179822
 20
5099.471770
 30
364.238020
 40
1.0
  1
117
100
AcDbAttribute
  2
Code
 70
     0
  0
ATTRIB
  5
1708
100
AcDbEntity
  8
Lines
100
AcDbText
 10
7757.179822
 20
5098.071772
 30
364.238020
 40
1.0
  1
111.020
100
AcDbAttribute
  2
Elevation
 70
     0
  0
SEQEND
  5
1709
100
AcDbEntity
  8
Lines
  0
INSERT
  5
1710
100
AcDbEntity
  8
Lines
100
AcDbBlockReference
 62
     0
 66
     1
  2
DIAG_CROSS
 10
7774.160468
 20
5127.382106
 30
355.091665
 41
0.019832
 42
0.019832
 43
0.019832
  0
ATTRIB
  5
1711
100
AcDbEntity
  8
Lines
100
AcDbText
 10
7774.560467
 20
5127.782106
 30
355.091665
 40
1.0
  1
306
100
AcDbAttribute
  2
Name
 70
     0
  0
ATTRIB
  5
1712
100
AcDbEntity
  8
Lines
100
AcDbText
 10
7774.560467
 20
5125.982109
 30
355.091665
 40
1.0
  1
117
100
AcDbAttribute
  2
Code
 70
     0
  0
ATTRIB
  5
1713
100
AcDbEntity
  8
Lines
100
AcDbText
 10
7774.560467
 20
5124.582112
 30
355.091665
 40
1.0
  1
108.232
100
AcDbAttribute
  2
Elevation
 70
     0
  0
SEQEND
  5
1714
100
AcDbEntity
  8
Lines
  0
INSERT
  5
1715
100
AcDbEntity
  8
Lines
100
AcDbBlockReference
 62
     0
 66
     1
  2
DIAG_CROSS
 10
7763.140185
 20
5140.290424
 30
354.747928
 41
0.019832
 42
0.019832
 43
0.019832
  0
ATTRIB
  5
1716
100
AcDbEntity
  8
Lines
100
AcDbText
 10
7763.540184
 20
5140.690423
 30
354.747928
 40
1.0
  1
307
100
AcDbAttribute
  2
Name
 70
     0
  0
ATTRIB
  5
1717
100
AcDbEntity
  8
Lines
100
AcDbText
 10
7763.540184
 20
5138.890427
 30
354.747928
 40
1.0
  1
117
100
AcDbAttribute
  2
Code
 70
     0
  0
ATTRIB
  5
1718
100
AcDbEntity
  8
Lines
100
AcDbText
 10
7763.540184
 20
5137.490430
 30
354.747928
 40
1.0
  1
108.127
100
AcDbAttribute
  2
Elevation
 70
     0
  0
SEQEND
  5
1719
100
AcDbEntity
  8
Lines
  0
INSERT
  5
1720
100
AcDbEntity
  8
Lines
100
AcDbBlockReference
 62
     0
 66
     1
  2
DIAG_CROSS
 10
7746.430824
 20
5152.769171
 30
350.057303
 41
0.019832
 42
0.019832
 43
0.019832
  0
ATTRIB
  5
1721
100
AcDbEntity
  8
Lines
100
AcDbText
 10
7746.830823
 20
5153.169170
 30
350.057303
 40
1.0
  1
308
100
AcDbAttribute
  2
Name
 70
     0
  0
ATTRIB
  5
1722
100
AcDbEntity
  8
Lines
100
AcDbText
 10
7746.830823
 20
5151.369174
 30
350.057303
 40
1.0
  1
117
100
AcDbAttribute
  2
Code
 70
     0
  0
ATTRIB
  5
1723
100
AcDbEntity
  8
Lines
100
AcDbText
 10
7746.830823
 20
5149.969177
 30
350.057303
 40
1.0
  1
106.698
100
AcDbAttribute
  2
Elevation
 70
     0
  0
SEQEND
  5
1724
100
AcDbEntity
  8
Lines
  0
INSERT
  5
1725
100
AcDbEntity
  8
Lines
100
AcDbBlockReference
 62
     0
 66
     1
  2
DIAG_CROSS
 10
7759.860760
 20
5175.343115
 30
344.203038
 41
0.019832
 42
0.019832
 43
0.019832
  0
ATTRIB
  5
1726
100
AcDbEntity
  8
Lines
100
AcDbText
 10
7760.260760
 20
5175.743115
 30
344.203038
 40
1.0
  1
309
100
AcDbAttribute
  2
Name
 70
     0
  0
ATTRIB
  5
1727
100
AcDbEntity
  8
Lines
100
AcDbText
 10
7760.260760
 20
5173.943118
 30
344.203038
 40
1.0
  1
117
100
AcDbAttribute
  2
Code
 70
     0
  0
ATTRIB
  5
1728
100
AcDbEntity
  8
Lines
100
AcDbText
 10
7760.260760
 20
5172.543121
 30
344.203038
 40
1.0
  1
104.913
100
AcDbAttribute
  2
Elevation
 70
     0
  0
SEQEND
  5
1729
100
AcDbEntity
  8
Lines
  0
INSERT
  5
1730
100
AcDbEntity
  8
Lines
100
AcDbBlockReference
 62
     0
 66
     1
  2
DIAG_CROSS
 10
7772.722295
 20
5173.667297
 30
346.178486
 41
0.019832
 42
0.019832
 43
0.019832
  0
ATTRIB
  5
1731
100
AcDbEntity
  8
Lines
100
AcDbText
 10
7773.122294
 20
5174.067296
 30
346.178486
 40
1.0
  1
310
100
AcDbAttribute
  2
Name
 70
     0
  0
ATTRIB
  5
1732
100
AcDbEntity
  8
Lines
100
AcDbText
 10
7773.122294
 20
5172.267300
 30
346.178486
 40
1.0
  1
117
100
AcDbAttribute
  2
Code
 70
     0
  0
ATTRIB
  5
1733
100
AcDbEntity
  8
Lines
100
AcDbText
 10
7773.122294
 20
5170.867302
 30
346.178486
 40
1.0
  1
105.515
100
AcDbAttribute
  2
Elevation
 70
     0
  0
SEQEND
  5
1734
100
AcDbEntity
  8
Lines
  0
INSERT
  5
1735
100
AcDbEntity
  8
Lines
100
AcDbBlockReference
 62
     0
 66
     1
  2
DIAG_CROSS
 10
7785.404267
 20
5170.061024
 30
345.905344
 41
0.019832
 42
0.019832
 43
0.019832
  0
ATTRIB
  5
1736
100
AcDbEntity
  8
Lines
100
AcDbText
 10
7785.804266
 20
5170.461023
 30
345.905344
 40
1.0
  1
311
100
AcDbAttribute
  2
Name
 70
     0
  0
ATTRIB
  5
1737
100
AcDbEntity
  8
Lines
100
AcDbText
 10
7785.804266
 20
5168.661027
 30
345.905344
 40
1.0
  1
117
100
AcDbAttribute
  2
Code
 70
     0
  0
ATTRIB
  5
1738
100
AcDbEntity
  8
Lines
100
AcDbText
 10
7785.804266
 20
5167.261030
 30
345.905344
 40
1.0
  1
105.432
100
AcDbAttribute
  2
Elevation
 70
     0
  0
SEQEND
  5
1739
100
AcDbEntity
  8
Lines
  0
INSERT
  5
1740
100
AcDbEntity
  8
Lines
100
AcDbBlockReference
 62
     0
 66
     1
  2
DIAG_CROSS
 10
7806.594132
 20
5164.610800
 30
339.081515
 41
0.019832
 42
0.019832
 43
0.019832
  0
ATTRIB
  5
1741
100
AcDbEntity
  8
Lines
100
AcDbText
 10
7806.994131
 20
5165.010800
 30
339.081515
 40
1.0
  1
312
100
AcDbAttribute
  2
Name
 70
     0
  0
ATTRIB
  5
1742
100
AcDbEntity
  8
Lines
100
AcDbText
 10
7806.994131
 20
5163.210803
 30
339.081515
 40
1.0
  1
117
100
AcDbAttribute
  2
Code
 70
     0
  0
ATTRIB
  5
1743
100
AcDbEntity
  8
Lines
100
AcDbText
 10
7806.994131
 20
5161.810806
 30
339.081515
 40
1.0
  1
103.352
100
AcDbAttribute
  2
Elevation
 70
     0
  0
SEQEND
  5
1744
100
AcDbEntity
  8
Lines
  0
INSERT
  5
1745
100
AcDbEntity
  8
Lines
100
AcDbBlockReference
 62
     0
 66
     1
  2
DIAG_CROSS
 10
7812.523673
 20
5186.603147
 30
333.072101
 41
0.019832
 42
0.019832
 43
0.019832
  0
ATTRIB
  5
1746
100
AcDbEntity
  8
Lines
100
AcDbText
 10
7812.923672
 20
5187.003146
 30
333.072101
 40
1.0
  1
313
100
AcDbAttribute
  2
Name
 70
     0
  0
ATTRIB
  5
1747
100
AcDbEntity
  8
Lines
100
AcDbText
 10
7812.923672
 20
5185.203150
 30
333.072101
 40
1.0
  1
117
100
AcDbAttribute
  2
Code
 70
     0
  0
ATTRIB
  5
1748
100
AcDbEntity
  8
Lines
100
AcDbText
 10
7812.923672
 20
5183.803153
 30
333.072101
 40
1.0
  1
101.521
100
AcDbAttribute
  2
Elevation
 70
     0
  0
SEQEND
  5
1749
100
AcDbEntity
  8
Lines
  0
INSERT
  5
1750
100
AcDbEntity
  8
Lines
100
AcDbBlockReference
 62
     0
 66
     1
  2
DIAG_CROSS
 10
7797.340590
 20
5194.436768
 30
337.765524
 41
0.019832
 42
0.019832
 43
0.019832
  0
ATTRIB
  5
1751
100
AcDbEntity
  8
Lines
100
AcDbText
 10
7797.740589
 20
5194.836767
 30
337.765524
 40
1.0
  1
314
100
AcDbAttribute
  2
Name
 70
     0
  0
ATTRIB
  5
1752
100
AcDbEntity
  8
Lines
100
AcDbText
 10
7797.740589
 20
5193.036770
 30
337.765524
 40
1.0
  1
117
100
AcDbAttribute
  2
Code
 70
     0
  0
ATTRIB
  5
1753
100
AcDbEntity
  8
Lines
100
AcDbText
 10
7797.740589
 20
5191.636773
 30
337.765524
 40
1.0
  1
102.951
100
AcDbAttribute
  2
Elevation
 70
     0
  0
SEQEND
  5
1754
100
AcDbEntity
  8
Lines
  0
INSERT
  5
1755
100
AcDbEntity
  8
Lines
100
AcDbBlockReference
 62
     0
 66
     1
  2
DIAG_CROSS
 10
7780.596682
 20
5203.867035
 30
335.895561
 41
0.019832
 42
0.019832
 43
0.019832
  0
ATTRIB
  5
1756
100
AcDbEntity
  8
Lines
100
AcDbText
 10
7780.996681
 20
5204.267034
 30
335.895561
 40
1.0
  1
315
100
AcDbAttribute
  2
Name
 70
     0
  0
ATTRIB
  5
1757
100
AcDbEntity
  8
Lines
100
AcDbText
 10
7780.996681
 20
5202.467038
 30
335.895561
 40
1.0
  1
117
100
AcDbAttribute
  2
Code
 70
     0
  0
ATTRIB
  5
1758
100
AcDbEntity
  8
Lines
100
AcDbText
 10
7780.996681
 20
5201.067040
 30
335.895561
 40
1.0
  1
102.381
100
AcDbAttribute
  2
Elevation
 70
     0
  0
SEQEND
  5
1759
100
AcDbEntity
  8
Lines
  0
INSERT
  5
1760
100
AcDbEntity
  8
Lines
100
AcDbBlockReference
 62
     0
 66
     1
  2
DIAG_CROSS
 10
7762.157167
 20
5219.002390
 30
329.908287
 41
0.019832
 42
0.019832
 43
0.019832
  0
ATTRIB
  5
1761
100
AcDbEntity
  8
Lines
100
AcDbText
 10
7762.557166
 20
5219.402389
 30
329.908287
 40
1.0
  1
316
100
AcDbAttribute
  2
Name
 70
     0
  0
ATTRIB
  5
1762
100
AcDbEntity
  8
Lines
100
AcDbText
 10
7762.557166
 20
5217.602392
 30
329.908287
 40
1.0
  1
117
100
AcDbAttribute
  2
Code
 70
     0
  0
ATTRIB
  5
1763
100
AcDbEntity
  8
Lines
100
AcDbText
 10
7762.557166
 20
5216.202395
 30
329.908287
 40
1.0
  1
100.556
100
AcDbAttribute
  2
Elevation
 70
     0
  0
SEQEND
  5
1764
100
AcDbEntity
  8
Lines
  0
INSERT
  5
1765
100
AcDbEntity
  8
Points
100
AcDbBlockReference
 66
     1
  2
DIAG_CROSS
 10
7766.323041
 20
5222.341433
 30
330.202664
 41
0.019832
 42
0.019832
 43
0.019832
  0
ATTRIB
  5
1766
100
AcDbEntity
  8
Points
100
AcDbText
 10
7766.723040
 20
5222.741432
 30
330.202664
 40
1.0
  1
21
100
AcDbAttribute
  2
Name
 70
     0
  0
ATTRIB
  5
1767
100
AcDbEntity
  8
Points
100
AcDbText
 10
7766.723040
 20
5220.941436
 30
330.202664
 40
1.0
  1
FD IP
100
AcDbAttribute
  2
Code
 70
     0
  0
ATTRIB
  5
1768
100
AcDbEntity
  8
Points
100
AcDbText
 10
7766.723040
 20
5219.541438
 30
330.202664
 40
1.0
  1
100.646
100
AcDbAttribute
  2
Elevation
 70
     0
  0
SEQEND
  5
1769
100
AcDbEntity
  8
Points
  0
INSERT
  5
1770
100
AcDbEntity
  8
Lines
100
AcDbBlockReference
 62
     0
 66
     1
  2
DIAG_CROSS
 10
7742.000864
 20
5195.836023
 30
330.313356
 41
0.019832
 42
0.019832
 43
0.019832
  0
ATTRIB
  5
1771
100
AcDbEntity
  8
Lines
100
AcDbText
 10
7742.400863
 20
5196.236022
 30
330.313356
 40
1.0
  1
317
100
AcDbAttribute
  2
Name
 70
     0
  0
ATTRIB
  5
1772
100
AcDbEntity
  8
Lines
100
AcDbText
 10
7742.400863
 20
5194.436026
 30
330.313356
 40
1.0
  1
117
100
AcDbAttribute
  2
Code
 70
     0
  0
ATTRIB
  5
1773
100
AcDbEntity
  8
Lines
100
AcDbText
 10
7742.400863
 20
5193.036029
 30
330.313356
 40
1.0
  1
100.680
100
AcDbAttribute
  2
Elevation
 70
     0
  0
SEQEND
  5
1774
100
AcDbEntity
  8
Lines
  0
INSERT
  5
1775
100
AcDbEntity
  8
Lines
100
AcDbBlockReference
 62
     0
 66
     1
  2
DIAG_CROSS
 10
7769.754782
 20
5247.445320
 30
324.647794
 41
0.019832
 42
0.019832
 43
0.019832
  0
ATTRIB
  5
1776
100
AcDbEntity
  8
Lines
100
AcDbText
 10
7770.154781
 20
5247.845320
 30
324.647794
 40
1.0
  1
318
100
AcDbAttribute
  2
Name
 70
     0
  0
ATTRIB
  5
1777
100
AcDbEntity
  8
Lines
100
AcDbText
 10
7770.154781
 20
5246.045323
 30
324.647794
 40
1.0
  1
117
100
AcDbAttribute
  2
Code
 70
     0
  0
ATTRIB
  5
1778
100
AcDbEntity
  8
Lines
100
AcDbText
 10
7770.154781
 20
5244.645326
 30
324.647794
 40
1.0
  1
98.953
100
AcDbAttribute
  2
Elevation
 70
     0
  0
SEQEND
  5
1779
100
AcDbEntity
  8
Lines
  0
INSERT
  5
1780
100
AcDbEntity
  8
Lines
100
AcDbBlockReference
 62
     0
 66
     1
  2
DIAG_CROSS
 10
7755.024258
 20
5245.356850
 30
319.661915
 41
0.019832
 42
0.019832
 43
0.019832
  0
ATTRIB
  5
1781
100
AcDbEntity
  8
Lines
100
AcDbText
 10
7755.424258
 20
5245.756849
 30
319.661915
 40
1.0
  1
319
100
AcDbAttribute
  2
Name
 70
     0
  0
ATTRIB
  5
1782
100
AcDbEntity
  8
Lines
100
AcDbText
 10
7755.424258
 20
5243.956853
 30
319.661915
 40
1.0
  1
117
100
AcDbAttribute
  2
Code
 70
     0
  0
ATTRIB
  5
1783
100
AcDbEntity
  8
Lines
100
AcDbText
 10
7755.424258
 20
5242.556855
 30
319.661915
 40
1.0
  1
97.433
100
AcDbAttribute
  2
Elevation
 70
     0
  0
SEQEND
  5
1784
100
AcDbEntity
  8
Lines
  0
INSERT
  5
1785
100
AcDbEntity
  8
Lines
100
AcDbBlockReference
 62
     0
 66
     1
  2
DIAG_CROSS
 10
7773.660203
 20
5263.794186
 30
321.517552
 41
0.019832
 42
0.019832
 43
0.019832
  0
ATTRIB
  5
1786
100
AcDbEntity
  8
Lines
100
AcDbText
 10
7774.060202
 20
5264.194185
 30
321.517552
 40
1.0
  1
320
100
AcDbAttribute
  2
Name
 70
     0
  0
ATTRIB
  5
1787
100
AcDbEntity
  8
Lines
100
AcDbText
 10
7774.060202
 20
5262.394189
 30
321.517552
 40
1.0
  1
117
100
AcDbAttribute
  2
Code
 70
     0
  0
ATTRIB
  5
1788
100
AcDbEntity
  8
Lines
100
AcDbText
 10
7774.060202
 20
5260.994192
 30
321.517552
 40
1.0
  1
97.999
100
AcDbAttribute
  2
Elevation
 70
     0
  0
SEQEND
  5
1789
100
AcDbEntity
  8
Lines
  0
INSERT
  5
1790
100
AcDbEntity
  8
Lines
100
AcDbBlockReference
 62
     0
 66
     1
  2
DIAG_CROSS
 10
7768.224483
 20
5278.591719
 30
315.652016
 41
0.019832
 42
0.019832
 43
0.019832
  0
ATTRIB
  5
1791
100
AcDbEntity
  8
Lines
100
AcDbText
 10
7768.624483
 20
5278.991718
 30
315.652016
 40
1.0
  1
321
100
AcDbAttribute
  2
Name
 70
     0
  0
ATTRIB
  5
1792
100
AcDbEntity
  8
Lines
100
AcDbText
 10
7768.624483
 20
5277.191722
 30
315.652016
 40
1.0
  1
117
100
AcDbAttribute
  2
Code
 70
     0
  0
ATTRIB
  5
1793
100
AcDbEntity
  8
Lines
100
AcDbText
 10
7768.624483
 20
5275.791725
 30
315.652016
 40
1.0
  1
96.211
100
AcDbAttribute
  2
Elevation
 70
     0
  0
SEQEND
  5
1794
100
AcDbEntity
  8
Lines
  0
INSERT
  5
1795
100
AcDbEntity
  8
Lines
100
AcDbBlockReference
 62
     0
 66
     1
  2
DIAG_CROSS
 10
7791.435574
 20
5283.209639
 30
317.759938
 41
0.019832
 42
0.019832
 43
0.019832
  0
ATTRIB
  5
1796
100
AcDbEntity
  8
Lines
100
AcDbText
 10
7791.835573
 20
5283.609639
 30
317.759938
 40
1.0
  1
322
100
AcDbAttribute
  2
Name
 70
     0
  0
ATTRIB
  5
1797
100
AcDbEntity
  8
Lines
100
AcDbText
 10
7791.835573
 20
5281.809642
 30
317.759938
 40
1.0
  1
117
100
AcDbAttribute
  2
Code
 70
     0
  0
ATTRIB
  5
1798
100
AcDbEntity
  8
Lines
100
AcDbText
 10
7791.835573
 20
5280.409645
 30
317.759938
 40
1.0
  1
96.853
100
AcDbAttribute
  2
Elevation
 70
     0
  0
SEQEND
  5
1799
100
AcDbEntity
  8
Lines
  0
INSERT
  5
1800
100
AcDbEntity
  8
Lines
100
AcDbBlockReference
 62
     0
 66
     1
  2
DIAG_CROSS
 10
7798.296357
 20
5279.179451
 30
318.819208
 41
0.019832
 42
0.019832
 43
0.019832
  0
ATTRIB
  5
1801
100
AcDbEntity
  8
Lines
100
AcDbText
 10
7798.696356
 20
5279.579450
 30
318.819208
 40
1.0
  1
323
100
AcDbAttribute
  2
Name
 70
     0
  0
ATTRIB
  5
1802
100
AcDbEntity
  8
Lines
100
AcDbText
 10
7798.696356
 20
5277.779454
 30
318.819208
 40
1.0
  1
117
100
AcDbAttribute
  2
Code
 70
     0
  0
ATTRIB
  5
1803
100
AcDbEntity
  8
Lines
100
AcDbText
 10
7798.696356
 20
5276.379456
 30
318.819208
 40
1.0
  1
97.176
100
AcDbAttribute
  2
Elevation
 70
     0
  0
SEQEND
  5
1804
100
AcDbEntity
  8
Lines
  0
INSERT
  5
1805
100
AcDbEntity
  8
Lines
100
AcDbBlockReference
 62
     0
 66
     1
  2
DIAG_CROSS
 10
7802.831751
 20
5275.907556
 30
320.436981
 41
0.019832
 42
0.019832
 43
0.019832
  0
ATTRIB
  5
1806
100
AcDbEntity
  8
Lines
100
AcDbText
 10
7803.231750
 20
5276.307555
 30
320.436981
 40
1.0
  1
324
100
AcDbAttribute
  2
Name
 70
     0
  0
ATTRIB
  5
1807
100
AcDbEntity
  8
Lines
100
AcDbText
 10
7803.231750
 20
5274.507559
 30
320.436981
 40
1.0
  1
117
100
AcDbAttribute
  2
Code
 70
     0
  0
ATTRIB
  5
1808
100
AcDbEntity
  8
Lines
100
AcDbText
 10
7803.231750
 20
5273.107562
 30
320.436981
 40
1.0
  1
97.669
100
AcDbAttribute
  2
Elevation
 70
     0
  0
SEQEND
  5
1809
100
AcDbEntity
  8
Lines
  0
INSERT
  5
1810
100
AcDbEntity
  8
Lines
100
AcDbBlockReference
 62
     0
 66
     1
  2
DIAG_CROSS
 10
7821.866913
 20
5264.590782
 30
323.857088
 41
0.019832
 42
0.019832
 43
0.019832
  0
ATTRIB
  5
1811
100
AcDbEntity
  8
Lines
100
AcDbText
 10
7822.266912
 20
5264.990781
 30
323.857088
 40
1.0
  1
325
100
AcDbAttribute
  2
Name
 70
     0
  0
ATTRIB
  5
1812
100
AcDbEntity
  8
Lines
100
AcDbText
 10
7822.266912
 20
5263.190785
 30
323.857088
 40
1.0
  1
117
100
AcDbAttribute
  2
Code
 70
     0
  0
ATTRIB
  5
1813
100
AcDbEntity
  8
Lines
100
AcDbText
 10
7822.266912
 20
5261.790787
 30
323.857088
 40
1.0
  1
98.712
100
AcDbAttribute
  2
Elevation
 70
     0
  0
SEQEND
  5
1814
100
AcDbEntity
  8
Lines
  0
INSERT
  5
1815
100
AcDbEntity
  8
Lines
100
AcDbBlockReference
 62
     0
 66
     1
  2
DIAG_CROSS
 10
7836.468249
 20
5270.999189
 30
321.254619
 41
0.019832
 42
0.019832
 43
0.019832
  0
ATTRIB
  5
1816
100
AcDbEntity
  8
Lines
100
AcDbText
 10
7836.868248
 20
5271.399188
 30
321.254619
 40
1.0
  1
326
100
AcDbAttribute
  2
Name
 70
     0
  0
ATTRIB
  5
1817
100
AcDbEntity
  8
Lines
100
AcDbText
 10
7836.868248
 20
5269.599191
 30
321.254619
 40
1.0
  1
117
100
AcDbAttribute
  2
Code
 70
     0
  0
ATTRIB
  5
1818
100
AcDbEntity
  8
Lines
100
AcDbText
 10
7836.868248
 20
5268.199194
 30
321.254619
 40
1.0
  1
97.919
100
AcDbAttribute
  2
Elevation
 70
     0
  0
SEQEND
  5
1819
100
AcDbEntity
  8
Lines
  0
INSERT
  5
1820
100
AcDbEntity
  8
Lines
100
AcDbBlockReference
 62
     0
 66
     1
  2
DIAG_CROSS
 10
7851.763749
 20
5252.280030
 30
322.692971
 41
0.019832
 42
0.019832
 43
0.019832
  0
ATTRIB
  5
1821
100
AcDbEntity
  8
Lines
100
AcDbText
 10
7852.163748
 20
5252.680029
 30
322.692971
 40
1.0
  1
327
100
AcDbAttribute
  2
Name
 70
     0
  0
ATTRIB
  5
1822
100
AcDbEntity
  8
Lines
100
AcDbText
 10
7852.163748
 20
5250.880032
 30
322.692971
 40
1.0
  1
117
100
AcDbAttribute
  2
Code
 70
     0
  0
ATTRIB
  5
1823
100
AcDbEntity
  8
Lines
100
AcDbText
 10
7852.163748
 20
5249.480035
 30
322.692971
 40
1.0
  1
98.357
100
AcDbAttribute
  2
Elevation
 70
     0
  0
SEQEND
  5
1824
100
AcDbEntity
  8
Lines
  0
INSERT
  5
1825
100
AcDbEntity
  8
Lines
100
AcDbBlockReference
 62
     0
 66
     1
  2
DIAG_CROSS
 10
7865.872563
 20
5232.947865
 30
321.372207
 41
0.019832
 42
0.019832
 43
0.019832
  0
ATTRIB
  5
1826
100
AcDbEntity
  8
Lines
100
AcDbText
 10
7866.272562
 20
5233.347864
 30
321.372207
 40
1.0
  1
328
100
AcDbAttribute
  2
Name
 70
     0
  0
ATTRIB
  5
1827
100
AcDbEntity
  8
Lines
100
AcDbText
 10
7866.272562
 20
5231.547867
 30
321.372207
 40
1.0
  1
117
100
AcDbAttribute
  2
Code
 70
     0
  0
ATTRIB
  5
1828
100
AcDbEntity
  8
Lines
100
AcDbText
 10
7866.272562
 20
5230.147870
 30
321.372207
 40
1.0
  1
97.954
100
AcDbAttribute
  2
Elevation
 70
     0
  0
SEQEND
  5
1829
100
AcDbEntity
  8
Lines
  0
INSERT
  5
1830
100
AcDbEntity
  8
Lines
100
AcDbBlockReference
 62
     0
 66
     1
  2
DIAG_CROSS
 10
7862.329186
 20
5223.257802
 30
321.093124
 41
0.019832
 42
0.019832
 43
0.019832
  0
ATTRIB
  5
1831
100
AcDbEntity
  8
Lines
100
AcDbText
 10
7862.729186
 20
5223.657801
 30
321.093124
 40
1.0
  1
329
100
AcDbAttribute
  2
Name
 70
     0
  0
ATTRIB
  5
1832
100
AcDbEntity
  8
Lines
100
AcDbText
 10
7862.729186
 20
5221.857805
 30
321.093124
 40
1.0
  1
117
100
AcDbAttribute
  2
Code
 70
     0
  0
ATTRIB
  5
1833
100
AcDbEntity
  8
Lines
100
AcDbText
 10
7862.729186
 20
5220.457807
 30
321.093124
 40
1.0
  1
97.869
100
AcDbAttribute
  2
Elevation
 70
     0
  0
SEQEND
  5
1834
100
AcDbEntity
  8
Lines
  0
INSERT
  5
1835
100
AcDbEntity
  8
Lines
100
AcDbBlockReference
 62
     0
 66
     1
  2
DIAG_CROSS
 10
7865.043009
 20
5205.429467
 30
317.135792
 41
0.019832
 42
0.019832
 43
0.019832
  0
ATTRIB
  5
1836
100
AcDbEntity
  8
Lines
100
AcDbText
 10
7865.443008
 20
5205.829466
 30
317.135792
 40
1.0
  1
330
100
AcDbAttribute
  2
Name
 70
     0
  0
ATTRIB
  5
1837
100
AcDbEntity
  8
Lines
100
AcDbText
 10
7865.443008
 20
5204.029469
 30
317.135792
 40
1.0
  1
117
100
AcDbAttribute
  2
Code
 70
     0
  0
ATTRIB
  5
1838
100
AcDbEntity
  8
Lines
100
AcDbText
 10
7865.443008
 20
5202.629472
 30
317.135792
 40
1.0
  1
96.663
100
AcDbAttribute
  2
Elevation
 70
     0
  0
SEQEND
  5
1839
100
AcDbEntity
  8
Lines
  0
INSERT
  5
1840
100
AcDbEntity
  8
Lines
100
AcDbBlockReference
 62
     0
 66
     1
  2
DIAG_CROSS
 10
7885.039387
 20
5194.147343
 30
310.328736
 41
0.019832
 42
0.019832
 43
0.019832
  0
ATTRIB
  5
1841
100
AcDbEntity
  8
Lines
100
AcDbText
 10
7885.439387
 20
5194.547342
 30
310.328736
 40
1.0
  1
331
100
AcDbAttribute
  2
Name
 70
     0
  0
ATTRIB
  5
1842
100
AcDbEntity
  8
Lines
100
AcDbText
 10
7885.439387
 20
5192.747346
 30
310.328736
 40
1.0
  1
117
100
AcDbAttribute
  2
Code
 70
     0
  0
ATTRIB
  5
1843
100
AcDbEntity
  8
Lines
100
AcDbText
 10
7885.439387
 20
5191.347349
 30
310.328736
 40
1.0
  1
94.588
100
AcDbAttribute
  2
Elevation
 70
     0
  0
SEQEND
  5
1844
100
AcDbEntity
  8
Lines
  0
INSERT
  5
1845
100
AcDbEntity
  8
Lines
100
AcDbBlockReference
 62
     0
 66
     1
  2
DIAG_CROSS
 10
7853.878336
 20
5192.076679
 30
316.878410
 41
0.019832
 42
0.019832
 43
0.019832
  0
ATTRIB
  5
1846
100
AcDbEntity
  8
Lines
100
AcDbText
 10
7854.278336
 20
5192.476678
 30
316.878410
 40
1.0
  1
332
100
AcDbAttribute
  2
Name
 70
     0
  0
ATTRIB
  5
1847
100
AcDbEntity
  8
Lines
100
AcDbText
 10
7854.278336
 20
5190.676682
 30
316.878410
 40
1.0
  1
117
100
AcDbAttribute
  2
Code
 70
     0
  0
ATTRIB
  5
1848
100
AcDbEntity
  8
Lines
100
AcDbText
 10
7854.278336
 20
5189.276685
 30
316.878410
 40
1.0
  1
96.585
100
AcDbAttribute
  2
Elevation
 70
     0
  0
SEQEND
  5
1849
100
AcDbEntity
  8
Lines
  0
INSERT
  5
1850
100
AcDbEntity
  8
Lines
100
AcDbBlockReference
 62
     0
 66
     1
  2
DIAG_CROSS
 10
7835.702320
 20
5181.392674
 30
322.368209
 41
0.019832
 42
0.019832
 43
0.019832
  0
ATTRIB
  5
1851
100
AcDbEntity
  8
Lines
100
AcDbText
 10
7836.102319
 20
5181.792674
 30
322.368209
 40
1.0
  1
333
100
AcDbAttribute
  2
Name
 70
     0
  0
ATTRIB
  5
1852
100
AcDbEntity
  8
Lines
100
AcDbText
 10
7836.102319
 20
5179.992677
 30
322.368209
 40
1.0
  1
117
100
AcDbAttribute
  2
Code
 70
     0
  0
ATTRIB
  5
1853
100
AcDbEntity
  8
Lines
100
AcDbText
 10
7836.102319
 20
5178.592680
 30
322.368209
 40
1.0
  1
98.258
100
AcDbAttribute
  2
Elevation
 70
     0
  0
SEQEND
  5
1854
100
AcDbEntity
  8
Lines
  0
INSERT
  5
1855
100
AcDbEntity
  8
Lines
100
AcDbBlockReference
 62
     0
 66
     1
  2
DIAG_CROSS
 10
7826.162949
 20
5200.744715
 30
328.174069
 41
0.019832
 42
0.019832
 43
0.019832
  0
ATTRIB
  5
1856
100
AcDbEntity
  8
Lines
100
AcDbText
 10
7826.562948
 20
5201.144714
 30
328.174069
 40
1.0
  1
334
100
AcDbAttribute
  2
Name
 70
     0
  0
ATTRIB
  5
1857
100
AcDbEntity
  8
Lines
100
AcDbText
 10
7826.562948
 20
5199.344718
 30
328.174069
 40
1.0
  1
117
100
AcDbAttribute
  2
Code
 70
     0
  0
ATTRIB
  5
1858
100
AcDbEntity
  8
Lines
100
AcDbText
 10
7826.562948
 20
5197.944720
 30
328.174069
 40
1.0
  1
100.028
100
AcDbAttribute
  2
Elevation
 70
     0
  0
SEQEND
  5
1859
100
AcDbEntity
  8
Lines
  0
INSERT
  5
1860
100
AcDbEntity
  8
Lines
100
AcDbBlockReference
 62
     0
 66
     1
  2
DIAG_CROSS
 10
7831.558566
 20
5218.393232
 30
327.149234
 41
0.019832
 42
0.019832
 43
0.019832
  0
ATTRIB
  5
1861
100
AcDbEntity
  8
Lines
100
AcDbText
 10
7831.958565
 20
5218.793231
 30
327.149234
 40
1.0
  1
335
100
AcDbAttribute
  2
Name
 70
     0
  0
ATTRIB
  5
1862
100
AcDbEntity
  8
Lines
100
AcDbText
 10
7831.958565
 20
5216.993234
 30
327.149234
 40
1.0
  1
117
100
AcDbAttribute
  2
Code
 70
     0
  0
ATTRIB
  5
1863
100
AcDbEntity
  8
Lines
100
AcDbText
 10
7831.958565
 20
5215.593237
 30
327.149234
 40
1.0
  1
99.715
100
AcDbAttribute
  2
Elevation
 70
     0
  0
SEQEND
  5
1864
100
AcDbEntity
  8
Lines
  0
INSERT
  5
1865
100
AcDbEntity
  8
Lines
100
AcDbBlockReference
 62
     0
 66
     1
  2
DIAG_CROSS
 10
7814.611455
 20
5222.321701
 30
329.801097
 41
0.019832
 42
0.019832
 43
0.019832
  0
ATTRIB
  5
1866
100
AcDbEntity
  8
Lines
100
AcDbText
 10
7815.011454
 20
5222.721700
 30
329.801097
 40
1.0
  1
336
100
AcDbAttribute
  2
Name
 70
     0
  0
ATTRIB
  5
1867
100
AcDbEntity
  8
Lines
100
AcDbText
 10
7815.011454
 20
5220.921703
 30
329.801097
 40
1.0
  1
117
100
AcDbAttribute
  2
Code
 70
     0
  0
ATTRIB
  5
1868
100
AcDbEntity
  8
Lines
100
AcDbText
 10
7815.011454
 20
5219.521706
 30
329.801097
 40
1.0
  1
100.524
100
AcDbAttribute
  2
Elevation
 70
     0
  0
SEQEND
  5
1869
100
AcDbEntity
  8
Lines
  0
INSERT
  5
1870
100
AcDbEntity
  8
Lines
100
AcDbBlockReference
 62
     0
 66
     1
  2
DIAG_CROSS
 10
7800.841709
 20
5215.597752
 30
331.975518
 41
0.019832
 42
0.019832
 43
0.019832
  0
ATTRIB
  5
1871
100
AcDbEntity
  8
Lines
100
AcDbText
 10
7801.241708
 20
5215.997751
 30
331.975518
 40
1.0
  1
337
100
AcDbAttribute
  2
Name
 70
     0
  0
ATTRIB
  5
1872
100
AcDbEntity
  8
Lines
100
AcDbText
 10
7801.241708
 20
5214.197755
 30
331.975518
 40
1.0
  1
117
100
AcDbAttribute
  2
Code
 70
     0
  0
ATTRIB
  5
1873
100
AcDbEntity
  8
Lines
100
AcDbText
 10
7801.241708
 20
5212.797758
 30
331.975518
 40
1.0
  1
101.186
100
AcDbAttribute
  2
Elevation
 70
     0
  0
SEQEND
  5
1874
100
AcDbEntity
  8
Lines
  0
INSERT
  5
1875
100
AcDbEntity
  8
Lines
100
AcDbBlockReference
 62
     0
 66
     1
  2
DIAG_CROSS
 10
7790.937874
 20
5231.951588
 30
329.305345
 41
0.019832
 42
0.019832
 43
0.019832
  0
ATTRIB
  5
1876
100
AcDbEntity
  8
Lines
100
AcDbText
 10
7791.337873
 20
5232.351587
 30
329.305345
 40
1.0
  1
338
100
AcDbAttribute
  2
Name
 70
     0
  0
ATTRIB
  5
1877
100
AcDbEntity
  8
Lines
100
AcDbText
 10
7791.337873
 20
5230.551591
 30
329.305345
 40
1.0
  1
117
100
AcDbAttribute
  2
Code
 70
     0
  0
ATTRIB
  5
1878
100
AcDbEntity
  8
Lines
100
AcDbText
 10
7791.337873
 20
5229.151593
 30
329.305345
 40
1.0
  1
100.372
100
AcDbAttribute
  2
Elevation
 70
     0
  0
SEQEND
  5
1879
100
AcDbEntity
  8
Lines
  0
INSERT
  5
1880
100
AcDbEntity
  8
Points
100
AcDbBlockReference
 66
     1
  2
DIAG_CROSS
 10
7796.431365
 20
5246.571962
 30
327.370712
 41
0.019832
 42
0.019832
 43
0.019832
  0
ATTRIB
  5
1881
100
AcDbEntity
  8
Points
100
AcDbText
 10
7796.831365
 20
5246.971961
 30
327.370712
 40
1.0
  1
339
100
AcDbAttribute
  2
Name
 70
     0
  0
ATTRIB
  5
1882
100
AcDbEntity
  8
Points
100
AcDbText
 10
7796.831365
 20
5245.171965
 30
327.370712
 40
1.0
  1
4.97
100
AcDbAttribute
  2
Code
 70
     0
  0
ATTRIB
  5
1883
100
AcDbEntity
  8
Points
100
AcDbText
 10
7796.831365
 20
5243.771968
 30
327.370712
 40
1.0
  1
99.783
100
AcDbAttribute
  2
Elevation
 70
     0
  0
SEQEND
  5
1884
100
AcDbEntity
  8
Points
  0
INSERT
  5
1885
100
AcDbEntity
  8
Lines
100
AcDbBlockReference
 62
     0
 66
     1
  2
DIAG_CROSS
 10
7823.488827
 20
5245.960352
 30
327.478305
 41
0.019832
 42
0.019832
 43
0.019832
  0
ATTRIB
  5
1886
100
AcDbEntity
  8
Lines
100
AcDbText
 10
7823.888827
 20
5246.360351
 30
327.478305
 40
1.0
  1
340
100
AcDbAttribute
  2
Name
 70
     0
  0
ATTRIB
  5
1887
100
AcDbEntity
  8
Lines
100
AcDbText
 10
7823.888827
 20
5244.560355
 30
327.478305
 40
1.0
  1
117
100
AcDbAttribute
  2
Code
 70
     0
  0
ATTRIB
  5
1888
100
AcDbEntity
  8
Lines
100
AcDbText
 10
7823.888827
 20
5243.160357
 30
327.478305
 40
1.0
  1
99.816
100
AcDbAttribute
  2
Elevation
 70
     0
  0
SEQEND
  5
1889
100
AcDbEntity
  8
Lines
  0
INSERT
  5
1890
100
AcDbEntity
  8
Lines
100
AcDbBlockReference
 62
     0
 66
     1
  2
DIAG_CROSS
 10
7834.968344
 20
5240.016105
 30
327.322557
 41
0.019832
 42
0.019832
 43
0.019832
  0
ATTRIB
  5
1891
100
AcDbEntity
  8
Lines
100
AcDbText
 10
7835.368343
 20
5240.416104
 30
327.322557
 40
1.0
  1
341
100
AcDbAttribute
  2
Name
 70
     0
  0
ATTRIB
  5
1892
100
AcDbEntity
  8
Lines
100
AcDbText
 10
7835.368343
 20
5238.616107
 30
327.322557
 40
1.0
  1
117
100
AcDbAttribute
  2
Code
 70
     0
  0
ATTRIB
  5
1893
100
AcDbEntity
  8
Lines
100
AcDbText
 10
7835.368343
 20
5237.216110
 30
327.322557
 40
1.0
  1
99.768
100
AcDbAttribute
  2
Elevation
 70
     0
  0
SEQEND
  5
1894
100
AcDbEntity
  8
Lines
  0
INSERT
  5
1895
100
AcDbEntity
  8
Lines
100
AcDbBlockReference
 62
     0
 66
     1
  2
DIAG_CROSS
 10
7841.146874
 20
5226.882833
 30
325.552466
 41
0.019832
 42
0.019832
 43
0.019832
  0
ATTRIB
  5
1896
100
AcDbEntity
  8
Lines
100
AcDbText
 10
7841.546874
 20
5227.282832
 30
325.552466
 40
1.0
  1
342
100
AcDbAttribute
  2
Name
 70
     0
  0
ATTRIB
  5
1897
100
AcDbEntity
  8
Lines
100
AcDbText
 10
7841.546874
 20
5225.482836
 30
325.552466
 40
1.0
  1
117
100
AcDbAttribute
  2
Code
 70
     0
  0
ATTRIB
  5
1898
100
AcDbEntity
  8
Lines
100
AcDbText
 10
7841.546874
 20
5224.082839
 30
325.552466
 40
1.0
  1
99.229
100
AcDbAttribute
  2
Elevation
 70
     0
  0
SEQEND
  5
1899
100
AcDbEntity
  8
Lines
  0
INSERT
  5
1900
100
AcDbEntity
  8
Lines
100
AcDbBlockReference
 62
     0
 66
     1
  2
DIAG_CROSS
 10
7900.625545
 20
5205.788504
 30
313.324256
 41
0.019832
 42
0.019832
 43
0.019832
  0
ATTRIB
  5
1901
100
AcDbEntity
  8
Lines
100
AcDbText
 10
7901.025544
 20
5206.188503
 30
313.324256
 40
1.0
  1
343
100
AcDbAttribute
  2
Name
 70
     0
  0
ATTRIB
  5
1902
100
AcDbEntity
  8
Lines
100
AcDbText
 10
7901.025544
 20
5204.388507
 30
313.324256
 40
1.0
  1
117
100
AcDbAttribute
  2
Code
 70
     0
  0
ATTRIB
  5
1903
100
AcDbEntity
  8
Lines
100
AcDbText
 10
7901.025544
 20
5202.988510
 30
313.324256
 40
1.0
  1
95.501
100
AcDbAttribute
  2
Elevation
 70
     0
  0
SEQEND
  5
1904
100
AcDbEntity
  8
Lines
  0
INSERT
  5
1905
100
AcDbEntity
  8
Lines
100
AcDbBlockReference
 62
     0
 66
     1
  2
DIAG_CROSS
 10
7902.827414
 20
5227.370465
 30
317.736910
 41
0.019832
 42
0.019832
 43
0.019832
  0
ATTRIB
  5
1906
100
AcDbEntity
  8
Lines
100
AcDbText
 10
7903.227413
 20
5227.770464
 30
317.736910
 40
1.0
  1
344
100
AcDbAttribute
  2
Name
 70
     0
  0
ATTRIB
  5
1907
100
AcDbEntity
  8
Lines
100
AcDbText
 10
7903.227413
 20
5225.970468
 30
317.736910
 40
1.0
  1
117
100
AcDbAttribute
  2
Code
 70
     0
  0
ATTRIB
  5
1908
100
AcDbEntity
  8
Lines
100
AcDbText
 10
7903.227413
 20
5224.570471
 30
317.736910
 40
1.0
  1
96.846
100
AcDbAttribute
  2
Elevation
 70
     0
  0
SEQEND
  5
1909
100
AcDbEntity
  8
Lines
  0
INSERT
  5
1910
100
AcDbEntity
  8
Lines
100
AcDbBlockReference
 62
     0
 66
     1
  2
DIAG_CROSS
 10
7901.344275
 20
5250.993104
 30
320.791549
 41
0.019832
 42
0.019832
 43
0.019832
  0
ATTRIB
  5
1911
100
AcDbEntity
  8
Lines
100
AcDbText
 10
7901.744275
 20
5251.393103
 30
320.791549
 40
1.0
  1
345
100
AcDbAttribute
  2
Name
 70
     0
  0
ATTRIB
  5
1912
100
AcDbEntity
  8
Lines
100
AcDbText
 10
7901.744275
 20
5249.593107
 30
320.791549
 40
1.0
  1
117
100
AcDbAttribute
  2
Code
 70
     0
  0
ATTRIB
  5
1913
100
AcDbEntity
  8
Lines
100
AcDbText
 10
7901.744275
 20
5248.193110
 30
320.791549
 40
1.0
  1
97.777
100
AcDbAttribute
  2
Elevation
 70
     0
  0
SEQEND
  5
1914
100
AcDbEntity
  8
Lines
  0
INSERT
  5
1915
100
AcDbEntity
  8
Lines
100
AcDbBlockReference
 62
     0
 66
     1
  2
DIAG_CROSS
 10
7923.416269
 20
5246.365467
 30
317.959165
 41
0.019832
 42
0.019832
 43
0.019832
  0
ATTRIB
  5
1916
100
AcDbEntity
  8
Lines
100
AcDbText
 10
7923.816268
 20
5246.765466
 30
317.959165
 40
1.0
  1
346
100
AcDbAttribute
  2
Name
 70
     0
  0
ATTRIB
  5
1917
100
AcDbEntity
  8
Lines
100
AcDbText
 10
7923.816268
 20
5244.965470
 30
317.959165
 40
1.0
  1
117
100
AcDbAttribute
  2
Code
 70
     0
  0
ATTRIB
  5
1918
100
AcDbEntity
  8
Lines
100
AcDbText
 10
7923.816268
 20
5243.565473
 30
317.959165
 40
1.0
  1
96.914
100
AcDbAttribute
  2
Elevation
 70
     0
  0
SEQEND
  5
1919
100
AcDbEntity
  8
Lines
  0
INSERT
  5
1920
100
AcDbEntity
  8
Lines
100
AcDbBlockReference
 62
     0
 66
     1
  2
DIAG_CROSS
 10
7911.641088
 20
5208.955226
 30
313.211562
 41
0.019832
 42
0.019832
 43
0.019832
  0
ATTRIB
  5
1921
100
AcDbEntity
  8
Lines
100
AcDbText
 10
7912.041087
 20
5209.355225
 30
313.211562
 40
1.0
  1
347
100
AcDbAttribute
  2
Name
 70
     0
  0
ATTRIB
  5
1922
100
AcDbEntity
  8
Lines
100
AcDbText
 10
7912.041087
 20
5207.555229
 30
313.211562
 40
1.0
  1
117
100
AcDbAttribute
  2
Code
 70
     0
  0
ATTRIB
  5
1923
100
AcDbEntity
  8
Lines
100
AcDbText
 10
7912.041087
 20
5206.155231
 30
313.211562
 40
1.0
  1
95.467
100
AcDbAttribute
  2
Elevation
 70
     0
  0
SEQEND
  5
1924
100
AcDbEntity
  8
Lines
  0
INSERT
  5
1925
100
AcDbEntity
  8
Lines
100
AcDbBlockReference
 62
     0
 66
     1
  2
DIAG_CROSS
 10
7891.558513
 20
5179.683315
 30
304.321308
 41
0.019832
 42
0.019832
 43
0.019832
  0
ATTRIB
  5
1926
100
AcDbEntity
  8
Lines
100
AcDbText
 10
7891.958512
 20
5180.083314
 30
304.321308
 40
1.0
  1
348
100
AcDbAttribute
  2
Name
 70
     0
  0
ATTRIB
  5
1927
100
AcDbEntity
  8
Lines
100
AcDbText
 10
7891.958512
 20
5178.283318
 30
304.321308
 40
1.0
  1
117
100
AcDbAttribute
  2
Code
 70
     0
  0
ATTRIB
  5
1928
100
AcDbEntity
  8
Lines
100
AcDbText
 10
7891.958512
 20
5176.883321
 30
304.321308
 40
1.0
  1
92.757
100
AcDbAttribute
  2
Elevation
 70
     0
  0
SEQEND
  5
1929
100
AcDbEntity
  8
Lines
  0
INSERT
  5
1930
100
AcDbEntity
  8
Lines
100
AcDbBlockReference
 62
     0
 66
     1
  2
DIAG_CROSS
 10
7868.687721
 20
5158.190409
 30
299.785793
 41
0.019832
 42
0.019832
 43
0.019832
  0
ATTRIB
  5
1931
100
AcDbEntity
  8
Lines
100
AcDbText
 10
7869.087720
 20
5158.590408
 30
299.785793
 40
1.0
  1
349
100
AcDbAttribute
  2
Name
 70
     0
  0
ATTRIB
  5
1932
100
AcDbEntity
  8
Lines
100
AcDbText
 10
7869.087720
 20
5156.790411
 30
299.785793
 40
1.0
  1
117
100
AcDbAttribute
  2
Code
 70
     0
  0
ATTRIB
  5
1933
100
AcDbEntity
  8
Lines
100
AcDbText
 10
7869.087720
 20
5155.390414
 30
299.785793
 40
1.0
  1
91.375
100
AcDbAttribute
  2
Elevation
 70
     0
  0
SEQEND
  5
1934
100
AcDbEntity
  8
Lines
  0
INSERT
  5
1935
100
AcDbEntity
  8
Lines
100
AcDbBlockReference
 62
     0
 66
     1
  2
DIAG_CROSS
 10
7861.565186
 20
5140.277725
 30
304.892048
 41
0.019832
 42
0.019832
 43
0.019832
  0
ATTRIB
  5
1936
100
AcDbEntity
  8
Lines
100
AcDbText
 10
7861.965186
 20
5140.677724
 30
304.892048
 40
1.0
  1
350
100
AcDbAttribute
  2
Name
 70
     0
  0
ATTRIB
  5
1937
100
AcDbEntity
  8
Lines
100
AcDbText
 10
7861.965186
 20
5138.877727
 30
304.892048
 40
1.0
  1
117
100
AcDbAttribute
  2
Code
 70
     0
  0
ATTRIB
  5
1938
100
AcDbEntity
  8
Lines
100
AcDbText
 10
7861.965186
 20
5137.477730
 30
304.892048
 40
1.0
  1
92.931
100
AcDbAttribute
  2
Elevation
 70
     0
  0
SEQEND
  5
1939
100
AcDbEntity
  8
Lines
  0
INSERT
  5
1940
100
AcDbEntity
  8
Lines
100
AcDbBlockReference
 62
     0
 66
     1
  2
DIAG_CROSS
 10
7879.979319
 20
5118.482040
 30
295.581385
 41
0.019832
 42
0.019832
 43
0.019832
  0
ATTRIB
  5
1941
100
AcDbEntity
  8
Lines
100
AcDbText
 10
7880.379318
 20
5118.882039
 30
295.581385
 40
1.0
  1
351
100
AcDbAttribute
  2
Name
 70
     0
  0
ATTRIB
  5
1942
100
AcDbEntity
  8
Lines
100
AcDbText
 10
7880.379318
 20
5117.082043
 30
295.581385
 40
1.0
  1
117
100
AcDbAttribute
  2
Code
 70
     0
  0
ATTRIB
  5
1943
100
AcDbEntity
  8
Lines
100
AcDbText
 10
7880.379318
 20
5115.682045
 30
295.581385
 40
1.0
  1
90.093
100
AcDbAttribute
  2
Elevation
 70
     0
  0
SEQEND
  5
1944
100
AcDbEntity
  8
Lines
  0
INSERT
  5
1945
100
AcDbEntity
  8
Lines
100
AcDbBlockReference
 62
     0
 66
     1
  2
DIAG_CROSS
 10
7894.748490
 20
5129.771856
 30
288.759437
 41
0.019832
 42
0.019832
 43
0.019832
  0
ATTRIB
  5
1946
100
AcDbEntity
  8
Lines
100
AcDbText
 10
7895.148489
 20
5130.171855
 30
288.759437
 40
1.0
  1
352
100
AcDbAttribute
  2
Name
 70
     0
  0
ATTRIB
  5
1947
100
AcDbEntity
  8
Lines
100
AcDbText
 10
7895.148489
 20
5128.371859
 30
288.759437
 40
1.0
  1
117
100
AcDbAttribute
  2
Code
 70
     0
  0
ATTRIB
  5
1948
100
AcDbEntity
  8
Lines
100
AcDbText
 10
7895.148489
 20
5126.971862
 30
288.759437
 40
1.0
  1
88.014
100
AcDbAttribute
  2
Elevation
 70
     0
  0
SEQEND
  5
1949
100
AcDbEntity
  8
Lines
  0
INSERT
  5
1950
100
AcDbEntity
  8
Lines
100
AcDbBlockReference
 62
     0
 66
     1
  2
DIAG_CROSS
 10
7917.761570
 20
5128.533819
 30
282.312556
 41
0.019832
 42
0.019832
 43
0.019832
  0
ATTRIB
  5
1951
100
AcDbEntity
  8
Lines
100
AcDbText
 10
7918.161569
 20
5128.933818
 30
282.312556
 40
1.0
  1
353
100
AcDbAttribute
  2
Name
 70
     0
  0
ATTRIB
  5
1952
100
AcDbEntity
  8
Lines
100
AcDbText
 10
7918.161569
 20
5127.133822
 30
282.312556
 40
1.0
  1
117
100
AcDbAttribute
  2
Code
 70
     0
  0
ATTRIB
  5
1953
100
AcDbEntity
  8
Lines
100
AcDbText
 10
7918.161569
 20
5125.733825
 30
282.312556
 40
1.0
  1
86.049
100
AcDbAttribute
  2
Elevation
 70
     0
  0
SEQEND
  5
1954
100
AcDbEntity
  8
Lines
  0
INSERT
  5
1955
100
AcDbEntity
  8
Lines
100
AcDbBlockReference
 62
     0
 66
     1
  2
DIAG_CROSS
 10
7934.526242
 20
5140.906722
 30
287.191797
 41
0.019832
 42
0.019832
 43
0.019832
  0
ATTRIB
  5
1956
100
AcDbEntity
  8
Lines
100
AcDbText
 10
7934.926241
 20
5141.306721
 30
287.191797
 40
1.0
  1
354
100
AcDbAttribute
  2
Name
 70
     0
  0
ATTRIB
  5
1957
100
AcDbEntity
  8
Lines
100
AcDbText
 10
7934.926241
 20
5139.506724
 30
287.191797
 40
1.0
  1
117
100
AcDbAttribute
  2
Code
 70
     0
  0
ATTRIB
  5
1958
100
AcDbEntity
  8
Lines
100
AcDbText
 10
7934.926241
 20
5138.106727
 30
287.191797
 40
1.0
  1
87.536
100
AcDbAttribute
  2
Elevation
 70
     0
  0
SEQEND
  5
1959
100
AcDbEntity
  8
Lines
  0
INSERT
  5
1960
100
AcDbEntity
  8
Lines
100
AcDbBlockReference
 62
     0
 66
     1
  2
DIAG_CROSS
 10
7956.561689
 20
5148.720049
 30
288.606403
 41
0.019832
 42
0.019832
 43
0.019832
  0
ATTRIB
  5
1961
100
AcDbEntity
  8
Lines
100
AcDbText
 10
7956.961688
 20
5149.120048
 30
288.606403
 40
1.0
  1
355
100
AcDbAttribute
  2
Name
 70
     0
  0
ATTRIB
  5
1962
100
AcDbEntity
  8
Lines
100
AcDbText
 10
7956.961688
 20
5147.320052
 30
288.606403
 40
1.0
  1
117
100
AcDbAttribute
  2
Code
 70
     0
  0
ATTRIB
  5
1963
100
AcDbEntity
  8
Lines
100
AcDbText
 10
7956.961688
 20
5145.920055
 30
288.606403
 40
1.0
  1
87.967
100
AcDbAttribute
  2
Elevation
 70
     0
  0
SEQEND
  5
1964
100
AcDbEntity
  8
Lines
  0
INSERT
  5
1965
100
AcDbEntity
  8
Lines
100
AcDbBlockReference
 62
     0
 66
     1
  2
DIAG_CROSS
 10
7982.022282
 20
5162.420840
 30
289.849663
 41
0.019832
 42
0.019832
 43
0.019832
  0
ATTRIB
  5
1966
100
AcDbEntity
  8
Lines
100
AcDbText
 10
7982.422281
 20
5162.820839
 30
289.849663
 40
1.0
  1
356
100
AcDbAttribute
  2
Name
 70
     0
  0
ATTRIB
  5
1967
100
AcDbEntity
  8
Lines
100
AcDbText
 10
7982.422281
 20
5161.020843
 30
289.849663
 40
1.0
  1
117
100
AcDbAttribute
  2
Code
 70
     0
  0
ATTRIB
  5
1968
100
AcDbEntity
  8
Lines
100
AcDbText
 10
7982.422281
 20
5159.620845
 30
289.849663
 40
1.0
  1
88.346
100
AcDbAttribute
  2
Elevation
 70
     0
  0
SEQEND
  5
1969
100
AcDbEntity
  8
Lines
  0
INSERT
  5
1970
100
AcDbEntity
  8
Lines
100
AcDbBlockReference
 62
     0
 66
     1
  2
DIAG_CROSS
 10
7992.756518
 20
5189.455395
 30
295.121976
 41
0.019832
 42
0.019832
 43
0.019832
  0
ATTRIB
  5
1971
100
AcDbEntity
  8
Lines
100
AcDbText
 10
7993.156517
 20
5189.855394
 30
295.121976
 40
1.0
  1
357
100
AcDbAttribute
  2
Name
 70
     0
  0
ATTRIB
  5
1972
100
AcDbEntity
  8
Lines
100
AcDbText
 10
7993.156517
 20
5188.055398
 30
295.121976
 40
1.0
  1
117
100
AcDbAttribute
  2
Code
 70
     0
  0
ATTRIB
  5
1973
100
AcDbEntity
  8
Lines
100
AcDbText
 10
7993.156517
 20
5186.655401
 30
295.121976
 40
1.0
  1
89.953
100
AcDbAttribute
  2
Elevation
 70
     0
  0
SEQEND
  5
1974
100
AcDbEntity
  8
Lines
  0
INSERT
  5
1975
100
AcDbEntity
  8
Lines
100
AcDbBlockReference
 62
     0
 66
     1
  2
DIAG_CROSS
 10
7972.820701
 20
5196.505393
 30
302.322544
 41
0.019832
 42
0.019832
 43
0.019832
  0
ATTRIB
  5
1976
100
AcDbEntity
  8
Lines
100
AcDbText
 10
7973.220701
 20
5196.905392
 30
302.322544
 40
1.0
  1
358
100
AcDbAttribute
  2
Name
 70
     0
  0
ATTRIB
  5
1977
100
AcDbEntity
  8
Lines
100
AcDbText
 10
7973.220701
 20
5195.105396
 30
302.322544
 40
1.0
  1
117
100
AcDbAttribute
  2
Code
 70
     0
  0
ATTRIB
  5
1978
100
AcDbEntity
  8
Lines
100
AcDbText
 10
7973.220701
 20
5193.705398
 30
302.322544
 40
1.0
  1
92.148
100
AcDbAttribute
  2
Elevation
 70
     0
  0
SEQEND
  5
1979
100
AcDbEntity
  8
Lines
  0
INSERT
  5
1980
100
AcDbEntity
  8
Lines
100
AcDbBlockReference
 62
     0
 66
     1
  2
DIAG_CROSS
 10
7962.666435
 20
5213.593455
 30
307.734885
 41
0.019832
 42
0.019832
 43
0.019832
  0
ATTRIB
  5
1981
100
AcDbEntity
  8
Lines
100
AcDbText
 10
7963.066434
 20
5213.993454
 30
307.734885
 40
1.0
  1
359
100
AcDbAttribute
  2
Name
 70
     0
  0
ATTRIB
  5
1982
100
AcDbEntity
  8
Lines
100
AcDbText
 10
7963.066434
 20
5212.193458
 30
307.734885
 40
1.0
  1
117
100
AcDbAttribute
  2
Code
 70
     0
  0
ATTRIB
  5
1983
100
AcDbEntity
  8
Lines
100
AcDbText
 10
7963.066434
 20
5210.793460
 30
307.734885
 40
1.0
  1
93.798
100
AcDbAttribute
  2
Elevation
 70
     0
  0
SEQEND
  5
1984
100
AcDbEntity
  8
Lines
  0
INSERT
  5
1985
100
AcDbEntity
  8
Lines
100
AcDbBlockReference
 62
     0
 66
     1
  2
DIAG_CROSS
 10
7939.212073
 20
5223.224670
 30
313.628652
 41
0.019832
 42
0.019832
 43
0.019832
  0
ATTRIB
  5
1986
100
AcDbEntity
  8
Lines
100
AcDbText
 10
7939.612073
 20
5223.624669
 30
313.628652
 40
1.0
  1
360
100
AcDbAttribute
  2
Name
 70
     0
  0
ATTRIB
  5
1987
100
AcDbEntity
  8
Lines
100
AcDbText
 10
7939.612073
 20
5221.824673
 30
313.628652
 40
1.0
  1
117
100
AcDbAttribute
  2
Code
 70
     0
  0
ATTRIB
  5
1988
100
AcDbEntity
  8
Lines
100
AcDbText
 10
7939.612073
 20
5220.424676
 30
313.628652
 40
1.0
  1
95.594
100
AcDbAttribute
  2
Elevation
 70
     0
  0
SEQEND
  5
1989
100
AcDbEntity
  8
Lines
  0
INSERT
  5
1990
100
AcDbEntity
  8
Lines
100
AcDbBlockReference
 62
     0
 66
     1
  2
DIAG_CROSS
 10
7953.180315
 20
5197.542886
 30
306.400232
 41
0.019832
 42
0.019832
 43
0.019832
  0
ATTRIB
  5
1991
100
AcDbEntity
  8
Lines
100
AcDbText
 10
7953.580315
 20
5197.942885
 30
306.400232
 40
1.0
  1
361
100
AcDbAttribute
  2
Name
 70
     0
  0
ATTRIB
  5
1992
100
AcDbEntity
  8
Lines
100
AcDbText
 10
7953.580315
 20
5196.142888
 30
306.400232
 40
1.0
  1
117
100
AcDbAttribute
  2
Code
 70
     0
  0
ATTRIB
  5
1993
100
AcDbEntity
  8
Lines
100
AcDbText
 10
7953.580315
 20
5194.742891
 30
306.400232
 40
1.0
  1
93.391
100
AcDbAttribute
  2
Elevation
 70
     0
  0
SEQEND
  5
1994
100
AcDbEntity
  8
Lines
  0
INSERT
  5
1995
100
AcDbEntity
  8
Lines
100
AcDbBlockReference
 62
     0
 66
     1
  2
DIAG_CROSS
 10
7944.660405
 20
5179.590134
 30
302.365243
 41
0.019832
 42
0.019832
 43
0.019832
  0
ATTRIB
  5
1996
100
AcDbEntity
  8
Lines
100
AcDbText
 10
7945.060405
 20
5179.990134
 30
302.365243
 40
1.0
  1
362
100
AcDbAttribute
  2
Name
 70
     0
  0
ATTRIB
  5
1997
100
AcDbEntity
  8
Lines
100
AcDbText
 10
7945.060405
 20
5178.190137
 30
302.365243
 40
1.0
  1
117
100
AcDbAttribute
  2
Code
 70
     0
  0
ATTRIB
  5
1998
100
AcDbEntity
  8
Lines
100
AcDbText
 10
7945.060405
 20
5176.790140
 30
302.365243
 40
1.0
  1
92.161
100
AcDbAttribute
  2
Elevation
 70
     0
  0
SEQEND
  5
1999
100
AcDbEntity
  8
Lines
  0
INSERT
  5
2000
100
AcDbEntity
  8
Lines
100
AcDbBlockReference
 62
     0
 66
     1
  2
DIAG_CROSS
 10
7924.010650
 20
5168.049992
 30
299.659480
 41
0.019832
 42
0.019832
 43
0.019832
  0
ATTRIB
  5
2001
100
AcDbEntity
  8
Lines
100
AcDbText
 10
7924.410649
 20
5168.449991
 30
299.659480
 40
1.0
  1
363
100
AcDbAttribute
  2
Name
 70
     0
  0
ATTRIB
  5
2002
100
AcDbEntity
  8
Lines
100
AcDbText
 10
7924.410649
 20
5166.649995
 30
299.659480
 40
1.0
  1
117
100
AcDbAttribute
  2
Code
 70
     0
  0
ATTRIB
  5
2003
100
AcDbEntity
  8
Lines
100
AcDbText
 10
7924.410649
 20
5165.249998
 30
299.659480
 40
1.0
  1
91.336
100
AcDbAttribute
  2
Elevation
 70
     0
  0
SEQEND
  5
2004
100
AcDbEntity
  8
Lines
  0
INSERT
  5
2005
100
AcDbEntity
  8
Lines
100
AcDbBlockReference
 62
     0
 66
     1
  2
DIAG_CROSS
 10
7907.643799
 20
5157.773534
 30
296.123538
 41
0.019832
 42
0.019832
 43
0.019832
  0
ATTRIB
  5
2006
100
AcDbEntity
  8
Lines
100
AcDbText
 10
7908.043798
 20
5158.173533
 30
296.123538
 40
1.0
  1
364
100
AcDbAttribute
  2
Name
 70
     0
  0
ATTRIB
  5
2007
100
AcDbEntity
  8
Lines
100
AcDbText
 10
7908.043798
 20
5156.373537
 30
296.123538
 40
1.0
  1
117
100
AcDbAttribute
  2
Code
 70
     0
  0
ATTRIB
  5
2008
100
AcDbEntity
  8
Lines
100
AcDbText
 10
7908.043798
 20
5154.973539
 30
296.123538
 40
1.0
  1
90.259
100
AcDbAttribute
  2
Elevation
 70
     0
  0
SEQEND
  5
2009
100
AcDbEntity
  8
Lines
  0
INSERT
  5
2010
100
AcDbEntity
  8
Lines
100
AcDbBlockReference
 62
     0
 66
     1
  2
DIAG_CROSS
 10
7924.869867
 20
5188.658140
 30
307.347519
 41
0.019832
 42
0.019832
 43
0.019832
  0
ATTRIB
  5
2011
100
AcDbEntity
  8
Lines
100
AcDbText
 10
7925.269866
 20
5189.058139
 30
307.347519
 40
1.0
  1
365
100
AcDbAttribute
  2
Name
 70
     0
  0
ATTRIB
  5
2012
100
AcDbEntity
  8
Lines
100
AcDbText
 10
7925.269866
 20
5187.258143
 30
307.347519
 40
1.0
  1
117
100
AcDbAttribute
  2
Code
 70
     0
  0
ATTRIB
  5
2013
100
AcDbEntity
  8
Lines
100
AcDbText
 10
7925.269866
 20
5185.858145
 30
307.347519
 40
1.0
  1
93.680
100
AcDbAttribute
  2
Elevation
 70
     0
  0
SEQEND
  5
2014
100
AcDbEntity
  8
Lines
  0
INSERT
  5
2015
100
AcDbEntity
  8
Lines
100
AcDbBlockReference
 62
     0
 66
     1
  2
DIAG_CROSS
 10
7925.367728
 20
5200.353048
 30
310.762951
 41
0.019832
 42
0.019832
 43
0.019832
  0
ATTRIB
  5
2016
100
AcDbEntity
  8
Lines
100
AcDbText
 10
7925.767727
 20
5200.753047
 30
310.762951
 40
1.0
  1
366
100
AcDbAttribute
  2
Name
 70
     0
  0
ATTRIB
  5
2017
100
AcDbEntity
  8
Lines
100
AcDbText
 10
7925.767727
 20
5198.953051
 30
310.762951
 40
1.0
  1
117
100
AcDbAttribute
  2
Code
 70
     0
  0
ATTRIB
  5
2018
100
AcDbEntity
  8
Lines
100
AcDbText
 10
7925.767727
 20
5197.553054
 30
310.762951
 40
1.0
  1
94.721
100
AcDbAttribute
  2
Elevation
 70
     0
  0
SEQEND
  5
2019
100
AcDbEntity
  8
Lines
  0
INSERT
  5
2020
100
AcDbEntity
  8
Lines
100
AcDbBlockReference
 62
     0
 66
     1
  2
DIAG_CROSS
 10
7913.528899
 20
5199.237393
 30
311.103807
 41
0.019832
 42
0.019832
 43
0.019832
  0
ATTRIB
  5
2021
100
AcDbEntity
  8
Lines
100
AcDbText
 10
7913.928898
 20
5199.637392
 30
311.103807
 40
1.0
  1
367
100
AcDbAttribute
  2
Name
 70
     0
  0
ATTRIB
  5
2022
100
AcDbEntity
  8
Lines
100
AcDbText
 10
7913.928898
 20
5197.837396
 30
311.103807
 40
1.0
  1
117
100
AcDbAttribute
  2
Code
 70
     0
  0
ATTRIB
  5
2023
100
AcDbEntity
  8
Lines
100
AcDbText
 10
7913.928898
 20
5196.437398
 30
311.103807
 40
1.0
  1
94.825
100
AcDbAttribute
  2
Elevation
 70
     0
  0
SEQEND
  5
2024
100
AcDbEntity
  8
Lines
  0
LINE
  5
2025
100
AcDbEntity
  8
Lines
100
AcDbLine
 62
     0
 10
8017.268722
 20
5017.157983
 30
224.107559
 11
8020.072153
 21
5034.823489
 31
228.073597
  0
LINE
  5
2026
100
AcDbEntity
  8
Lines
100
AcDbLine
 62
     0
 10
8005.339475
 20
5019.163187
 30
225.282639
 11
8010.856928
 21
5037.772674
 31
229.118188
  0
LINE
  5
2027
100
AcDbEntity
  8
Lines
100
AcDbLine
 62
     0
 10
8010.856928
 20
5037.772674
 30
229.118188
 11
8018.999181
 21
5059.711387
 31
231.639106
  0
LINE
  5
2028
100
AcDbEntity
  8
Lines
100
AcDbLine
 62
     0
 10
8020.072153
 20
5034.823489
 30
228.073597
 11
8026.142365
 21
5052.941333
 31
229.852089
  0
LINE
  5
2029
100
AcDbEntity
  8
Lines
100
AcDbLine
 62
     0
 10
8026.142365
 20
5052.941333
 30
229.852089
 11
8039.952626
 21
5065.026606
 31
231.853725
  0
LINE
  5
2030
100
AcDbEntity
  8
Lines
100
AcDbLine
 62
     0
 10
8018.999181
 20
5059.711387
 30
231.639106
 11
8033.853242
 21
5071.536595
 31
232.683756
  0
LINE
  5
2031
100
AcDbEntity
  8
Lines
100
AcDbLine
 62
     0
 10
8033.853242
 20
5071.536595
 30
232.683756
 11
8056.492173
 21
5084.311673
 31
234.963707
  0
LINE
  5
2032
100
AcDbEntity
  8
Lines
100
AcDbLine
 62
     0
 10
8039.952626
 20
5065.026606
 30
231.853725
 11
8060.375571
 21
5077.576017
 31
234.224626
  0
LINE
  5
2033
100
AcDbEntity
  8
Lines
100
AcDbLine
 62
     0
 10
8060.375571
 20
5077.576017
 30
234.224626
 11
8080.332724
 21
5089.745882
 31
236.681222
  0
LINE
  5
2034
100
AcDbEntity
  8
Lines
100
AcDbLine
 62
     0
 10
8056.492173
 20
5084.311673
 30
234.963707
 11
8076.046232
 21
5096.201587
 31
237.036194
  0
LINE
  5
2035
100
AcDbEntity
  8
Lines
100
AcDbLine
 62
     0
 10
8076.046232
 20
5096.201587
 30
237.036194
 11
8095.941938
 21
5111.925432
 31
238.872363
  0
LINE
  5
2036
100
AcDbEntity
  8
Lines
100
AcDbLine
 62
     0
 10
8080.332724
 20
5089.745882
 30
236.681222
 11
8102.282497
 21
5105.890745
 31
238.018936
  0
LINE
  5
2037
100
AcDbEntity
  8
Lines
100
AcDbLine
 62
     0
 10
8102.282497
 20
5105.890745
 30
238.018936
 11
8120.034898
 21
5124.881988
 31
239.328778
  0
LINE
  5
2038
100
AcDbEntity
  8
Lines
100
AcDbLine
 62
     0
 10
8095.941938
 20
5111.925432
 30
238.872363
 11
8114.251669
 21
5130.724232
 31
240.095929
  0
LINE
  5
2039
100
AcDbEntity
  8
Lines
100
AcDbLine
 62
    24
  6
DASHED
 10
8017.671376
 20
5070.635460
 30
238.671069
 11
8030.988086
 21
5075.263963
 31
237.660734
  0
LINE
  5
2040
100
AcDbEntity
  8
Lines
100
AcDbLine
 62
    24
  6
DASHED
 10
8030.988086
 20
5075.263963
 30
237.660734
 11
8053.362442
 21
5090.192260
 31
240.735913
  0
LINE
  5
2041
100
AcDbEntity
  8
Lines
100
AcDbLine
 62
    24
  6
DASHED
 10
8053.362442
 20
5090.192260
 30
240.735913
 11
8073.834920
 21
5100.559472
 31
241.918965
  0
LINE
  5
2042
100
AcDbEntity
  8
Lines
100
AcDbLine
 62
    24
  6
DASHED
 10
8073.834920
 20
5100.559472
 30
241.918965
 11
8093.468880
 21
5117.515676
 31
243.802099
  0
LINE
  5
2043
100
AcDbEntity
  8
Lines
100
AcDbLine
 62
    24
  6
DASHED
 10
8093.468880
 20
5117.515676
 30
243.802099
 11
8104.704502
 21
5132.116754
 31
245.005778
  0
LINE
  5
2044
100
AcDbEntity
  8
Lines
100
AcDbLine
 62
     0
 10
8114.251669
 20
5130.724232
 30
240.095929
 11
8119.725987
 21
5140.253890
 31
240.975445
  0
LINE
  5
2045
100
AcDbEntity
  8
Lines
100
AcDbLine
 62
     0
 10
8119.725987
 20
5140.253890
 30
240.975445
 11
8124.069128
 21
5156.769778
 31
241.740981
  0
LINE
  5
2046
100
AcDbEntity
  8
Lines
100
AcDbLine
 62
     0
 10
8120.034898
 20
5124.881988
 30
239.328778
 11
8129.116896
 21
5180.427188
 31
241.907510
  0
LINE
  5
2047
100
AcDbEntity
  8
Lines
100
AcDbLine
 62
     0
 10
8124.069128
 20
5156.769778
 30
241.740981
 11
8120.975052
 21
5180.034132
 31
242.864829
  0
LINE
  5
2048
100
AcDbEntity
  8
Lines
100
AcDbLine
 62
     0
 10
8120.975052
 20
5180.034132
 30
242.864829
 11
8115.772275
 21
5200.683364
 31
244.513088
  0
LINE
  5
2049
100
AcDbEntity
  8
Lines
100
AcDbLine
 62
     0
 10
8129.116896
 20
5180.427188
 30
241.907510
 11
8123.156258
 21
5203.322735
 31
243.914355
  0
LINE
  5
2050
100
AcDbEntity
  8
Lines
100
AcDbLine
 62
    24
  6
DASHED
 10
8113.017899
 20
5200.264746
 30
247.304786
 11
8114.838188
 21
5179.581246
 31
246.822526
  0
LINE
  5
2051
100
AcDbEntity
  8
Lines
100
AcDbLine
 62
    24
  6
DASHED
 10
8114.838188
 20
5179.581246
 30
246.822526
 11
8114.926327
 21
5164.794570
 31
247.261465
  0
LINE
  5
2052
100
AcDbEntity
  8
Lines
100
AcDbLine
 62
    24
  6
DASHED
 10
8114.926327
 20
5164.794570
 30
247.261465
 11
8113.253229
 21
5144.509168
 31
245.132448
  0
LINE
  5
2053
100
AcDbEntity
  8
Lines
100
AcDbLine
 62
    24
  6
DASHED
 10
8113.253229
 20
5144.509168
 30
245.132448
 11
8097.891655
 21
5126.139229
 31
245.328449
  0
LINE
  5
2054
100
AcDbEntity
  8
Lines
100
AcDbLine
 62
     0
 10
8123.156258
 20
5203.322735
 30
243.914355
 11
8118.530464
 21
5222.919608
 31
245.368945
  0
LINE
  5
2055
100
AcDbEntity
  8
Lines
100
AcDbLine
 62
     0
 10
8115.772275
 20
5200.683364
 30
244.513088
 11
8109.553254
 21
5220.889116
 31
246.327890
  0
LINE
  5
2056
100
AcDbEntity
  8
Lines
100
AcDbLine
 62
     0
 10
8109.553254
 20
5220.889116
 30
246.327890
 11
8100.413240
 21
5243.275648
 31
249.147386
  0
LINE
  5
2057
100
AcDbEntity
  8
Lines
100
AcDbLine
 62
     0
 10
8118.530464
 20
5222.919608
 30
245.368945
 11
8108.957581
 21
5247.440659
 31
248.017439
  0
LINE
  5
2058
100
AcDbEntity
  8
Lines
100
AcDbLine
 62
     0
 10
8108.957581
 20
5247.440659
 30
248.017439
 11
8099.045275
 21
5273.933243
 31
250.891578
  0
LINE
  5
2059
100
AcDbEntity
  8
Lines
100
AcDbLine
 62
     0
 10
8100.413240
 20
5243.275648
 30
249.147386
 11
8091.726778
 21
5271.455037
 31
251.655318
  0
LINE
  5
2060
100
AcDbEntity
  8
Lines
100
AcDbLine
 62
     0
 10
8091.726778
 20
5271.455037
 30
251.655318
 11
8080.492303
 21
5295.414395
 31
255.238806
  0
LINE
  5
2061
100
AcDbEntity
  8
Lines
100
AcDbLine
 62
     0
 10
8099.045275
 20
5273.933243
 30
250.891578
 11
8086.991719
 21
5300.072122
 31
254.463593
  0
LINE
  5
2062
100
AcDbEntity
  8
Lines
100
AcDbLine
 62
     0
 10
8086.991719
 20
5300.072122
 30
254.463593
 11
8073.080844
 21
5321.842079
 31
257.146811
  0
LINE
  5
2063
100
AcDbEntity
  8
Lines
100
AcDbLine
 62
     0
 10
8080.492303
 20
5295.414395
 30
255.238806
 11
8065.659347
 21
5317.053615
 31
258.583294
  0
LINE
  5
2064
100
AcDbEntity
  8
Lines
100
AcDbLine
 62
    24
  6
DASHED
 10
8109.250811
 20
5204.308752
 30
248.890763
 11
8104.719250
 21
5221.335969
 31
250.034062
  0
LINE
  5
2065
100
AcDbEntity
  8
Lines
100
AcDbLine
 62
    24
  6
DASHED
 10
8104.719250
 20
5221.335969
 30
250.034062
 11
8097.460407
 21
5243.318688
 31
252.247111
  0
LINE
  5
2066
100
AcDbEntity
  8
Lines
100
AcDbLine
 62
    24
  6
DASHED
 10
8097.460407
 20
5243.318688
 30
252.247111
 11
8097.463282
 21
5243.308025
 31
252.248781
  0
LINE
  5
2067
100
AcDbEntity
  8
Lines
100
AcDbLine
 62
    24
  6
DASHED
 10
8097.463282
 20
5243.308025
 30
252.248781
 11
8088.112644
 21
5271.656717
 31
255.209884
  0
LINE
  5
2068
100
AcDbEntity
  8
Lines
100
AcDbLine
 62
    24
  6
DASHED
 10
8088.112644
 20
5271.656717
 30
255.209884
 11
8077.442222
 21
5296.004807
 31
257.852541
  0
LINE
  5
2069
100
AcDbEntity
  8
Lines
100
AcDbLine
 62
     0
 10
8073.080844
 20
5321.842079
 30
257.146811
 11
8061.024205
 21
5335.253281
 31
258.828574
  0
LINE
  5
2070
100
AcDbEntity
  8
Lines
100
AcDbLine
 62
     0
 10
8065.659347
 20
5317.053615
 30
258.583294
 11
8056.147256
 21
5329.940638
 31
259.912656
  0
LINE
  5
2071
100
AcDbEntity
  8
Lines
100
AcDbLine
 62
     0
 10
8056.147256
 20
5329.940638
 30
259.912656
 11
8045.877477
 21
5336.262416
 31
262.503522
  0
LINE
  5
2072
100
AcDbEntity
  8
Lines
100
AcDbLine
 62
     0
 10
8061.024205
 20
5335.253281
 30
258.828574
 11
8048.068338
 21
5343.563419
 31
262.266759
  0
LINE
  5
2073
100
AcDbEntity
  8
Lines
100
AcDbLine
 62
     0
 10
8045.877477
 20
5336.262416
 30
262.503522
 11
8025.770055
 21
5342.453023
 31
268.256001
  0
LINE
  5
2074
100
AcDbEntity
  8
Lines
100
AcDbLine
 62
     0
 10
8048.068338
 20
5343.563419
 30
262.266759
 11
8025.611096
 21
5350.682851
 31
268.190690
  0
LINE
  5
2075
100
AcDbEntity
  8
Lines
100
AcDbLine
 62
     0
 10
8025.611096
 20
5350.682851
 30
268.190690
 11
7998.687420
 21
5351.234192
 31
273.731956
  0
LINE
  5
2076
100
AcDbEntity
  8
Lines
100
AcDbLine
 62
     0
 10
8025.770055
 20
5342.453023
 30
268.256001
 11
7999.127995
 21
5343.026320
 31
274.821618
  0
LINE
  5
2077
100
AcDbEntity
  8
Lines
100
AcDbLine
 62
    24
  6
DASHED
 10
8075.248752
 20
5296.819217
 30
258.565640
 11
8061.862664
 21
5317.194525
 31
261.558298
  0
LINE
  5
2078
100
AcDbEntity
  8
Lines
100
AcDbLine
 62
    24
  6
DASHED
 10
8061.862664
 20
5317.194525
 30
261.558298
 11
8050.311312
 21
5330.085076
 31
263.503571
  0
LINE
  5
2079
100
AcDbEntity
  8
Lines
100
AcDbLine
 62
    24
  6
DASHED
 10
8050.311312
 20
5330.085076
 30
263.503571
 11
8035.040713
 21
5336.889398
 31
268.360533
  0
LINE
  5
2080
100
AcDbEntity
  8
Lines
100
AcDbLine
 62
    24
  6
DASHED
 10
8035.040713
 20
5336.889398
 30
268.360533
 11
8021.594985
 21
5339.573649
 31
272.519948
  0
LINE
  5
2081
100
AcDbEntity
  8
Lines
100
AcDbLine
 62
    24
  6
DASHED
 10
8021.594985
 20
5339.573649
 30
272.519948
 11
7998.377924
 21
5339.925551
 31
277.992496
  0
LINE
  5
2082
100
AcDbEntity
  8
Lines
100
AcDbLine
 62
     0
 10
7998.687420
 20
5351.234192
 30
273.731956
 11
7973.997475
 21
5348.293690
 31
278.222362
  0
LINE
  5
2083
100
AcDbEntity
  8
Lines
100
AcDbLine
 62
     0
 10
7999.127995
 20
5343.026320
 30
274.821618
 11
7975.053682
 21
5340.272336
 31
279.392986
  0
LINE
  5
2084
100
AcDbEntity
  8
Lines
100
AcDbLine
 62
     0
 10
7975.053682
 20
5340.272336
 30
279.392986
 11
7949.024341
 21
5334.307889
 31
285.785387
  0
LINE
  5
2085
100
AcDbEntity
  8
Lines
100
AcDbLine
 62
     0
 10
7973.997475
 20
5348.293690
 30
278.222362
 11
7946.564819
 21
5341.943792
 31
285.214027
  0
LINE
  5
2086
100
AcDbEntity
  8
Lines
100
AcDbLine
 62
     0
 10
7949.024341
 20
5334.307889
 30
285.785387
 11
7918.169524
 21
5333.995409
 31
292.386850
  0
LINE
  5
2087
100
AcDbEntity
  8
Lines
100
AcDbLine
 62
     0
 10
7946.564819
 20
5341.943792
 30
285.214027
 11
7918.021220
 21
5341.052374
 31
291.518599
  0
LINE
  5
2088
100
AcDbEntity
  8
Lines
100
AcDbLine
 62
     0
 10
7918.169524
 20
5333.995409
 30
292.386850
 11
7893.589343
 21
5331.702280
 31
297.693039
  0
LINE
  5
2089
100
AcDbEntity
  8
Lines
100
AcDbLine
 62
     0
 10
7918.021220
 20
5341.052374
 30
291.518599
 11
7890.729010
 21
5338.399360
 31
297.111454
  0
LINE
  5
2090
100
AcDbEntity
  8
Lines
100
AcDbLine
 62
    24
  6
DASHED
 10
7995.973680
 20
5339.551346
 30
278.930173
 11
7972.739599
 21
5332.029352
 31
284.695696
  0
LINE
  5
2091
100
AcDbEntity
  8
Lines
100
AcDbLine
 62
    24
  6
DASHED
 10
7972.739599
 20
5332.029352
 30
284.695696
 11
7945.318727
 21
5330.078808
 31
289.708144
  0
LINE
  5
2092
100
AcDbEntity
  8
Lines
100
AcDbLine
 62
    24
  6
DASHED
 10
7945.318727
 20
5330.078808
 30
289.708144
 11
7922.264629
 21
5329.396029
 31
295.044458
  0
LINE
  5
2093
100
AcDbEntity
  8
Lines
100
AcDbLine
 62
    24
  6
DASHED
 10
7922.264629
 20
5329.396029
 30
295.044458
 11
7896.339909
 21
5330.317500
 31
299.876658
  0
LINE
  5
2094
100
AcDbEntity
  8
Lines
100
AcDbLine
 62
    24
  6
DASHED
 10
7896.339909
 20
5330.317500
 30
299.876658
 11
7878.210724
 21
5318.009245
 31
306.906572
  0
LINE
  5
2095
100
AcDbEntity
  8
Lines
100
AcDbLine
 62
     0
 10
7890.729010
 20
5338.399360
 30
297.111454
 11
7865.699748
 21
5328.047551
 31
302.127513
  0
LINE
  5
2096
100
AcDbEntity
  8
Lines
100
AcDbLine
 62
     0
 10
7893.589343
 20
5331.702280
 30
297.693039
 11
7868.323592
 21
5321.175670
 31
303.154347
  0
LINE
  5
2097
100
AcDbEntity
  8
Lines
100
AcDbLine
 62
     0
 10
7868.323592
 20
5321.175670
 30
303.154347
 11
7845.355889
 21
5312.833765
 31
307.538091
  0
LINE
  5
2098
100
AcDbEntity
  8
Lines
100
AcDbLine
 62
     0
 10
7865.699748
 20
5328.047551
 30
302.127513
 11
7842.450184
 21
5319.698007
 31
306.887669
  0
LINE
  5
2099
100
AcDbEntity
  8
Lines
100
AcDbLine
 62
     0
 10
7842.450184
 20
5319.698007
 30
306.887669
 11
7815.784440
 21
5310.926717
 31
310.808041
  0
LINE
  5
2100
100
AcDbEntity
  8
Lines
100
AcDbLine
 62
     0
 10
7845.355889
 20
5312.833765
 30
307.538091
 11
7819.399379
 21
5304.202455
 31
311.329842
  0
LINE
  5
2101
100
AcDbEntity
  8
Lines
100
AcDbLine
 62
     0
 10
7819.399379
 20
5304.202455
 30
311.329842
 11
7813.221471
 21
5300.835651
 31
312.576133
  0
LINE
  5
2102
100
AcDbEntity
  8
Lines
100
AcDbLine
 62
     0
 10
7815.784440
 20
5310.926717
 30
310.808041
 11
7806.536555
 21
5305.466413
 31
312.023698
  0
LINE
  5
2103
100
AcDbEntity
  8
Lines
100
AcDbLine
 62
    24
  6
DASHED
 10
7878.210724
 20
5318.009245
 30
306.906572
 11
7858.688069
 21
5311.903437
 31
308.721899
  0
LINE
  5
2104
100
AcDbEntity
  8
Lines
100
AcDbLine
 62
    24
  6
DASHED
 10
7858.688069
 20
5311.903437
 30
308.721899
 11
7843.560956
 21
5310.038607
 31
310.772495
  0
LINE
  5
2105
100
AcDbEntity
  8
Lines
100
AcDbLine
 62
    24
  6
DASHED
 10
7843.560956
 20
5310.038607
 30
310.772495
 11
7830.767491
 21
5304.775265
 31
313.059134
  0
LINE
  5
2106
100
AcDbEntity
  8
Lines
100
AcDbLine
 62
    24
  6
DASHED
 10
7830.767491
 20
5304.775265
 30
313.059134
 11
7830.761398
 21
5304.742639
 31
313.059296
  0
LINE
  5
2107
100
AcDbEntity
  8
Lines
100
AcDbLine
 62
    24
  6
DASHED
 10
7830.761398
 20
5304.742639
 30
313.059296
 11
7812.532668
 21
5297.404439
 31
314.676733
  0
ENDSEC
  0
SECTION
  2
OBJECTS
  0
DICTIONARY
  5
C
100
AcDbDictionary
280
     0
281
     0
  3
ACAD_GROUP
350
D
  3
ACAD_MLINESTYLE
350
E
  3
ACAD_LAYOUT
350
25F
  3
ACAD_PLOTSETTINGS
350
263
  3
ACAD_PLOTSTYLENAME
350
260
  3
ACAD_WIPEOUT_VARS
350
264
  0
DICTIONARY
  5
D
102
{ACAD_REACTORS
330
C
102
}
100
AcDbDictionary
280
     0
281
     0
  0
DICTIONARY
  5
E
102
{ACAD_REACTORS
330
C
102
}
100
AcDbDictionary
280
     0
281
     0
  3
STANDARD
350
1C
  0
MLINESTYLE
  5
1C
102
{ACAD_REACTORS
330
E
102
}
100
AcDbMlineStyle
  2
STANDARD
 70
     0
  3

 62
     0
 51
90.0
 52
90.0
 71
     2
 49
0.5
 62
   256
  6
ByLayer
 49
-0.5
 62
   256
  6
ByLayer
  0
ACDBDICTIONARYWDFLT
  5
260
102
{ACAD_REACTORS
330
C
102
}
100
AcDbDictionary
281
     1
  3
Normal
350
25E
100
AcDbDictionaryWithDefault
340
25E
  0
ACDBPLACEHOLDER
  5
25E
102
{ACAD_REACTORS
330
260
102
}
  0
LAYOUT
  5
261
102
{ACAD_REACTORS
330
25F
102
}
100
AcDbPlotSettings
  1

  2

  4

  6

 40
0.0
 41
0.0
 42
0.0
 43
0.0
 44
0.0
 45
0.0
 46
0.0
 47
0.0
 48
0.0
 49
0.0
140
0.0
141
0.0
142
1.0
143
1.0
 70
  1024
 72
     0
 73
     0
 74
     0
  7

 75
     0
147
1.0
148
0.0
149
0.0
100
AcDbLayout
  1
Model
 70
     0
 71
     0
 10
0.0
 20
0.0
 11
0.0
 21
0.0
 12
0.0
 22
0.0
 32
0.0
 14
0.0
 24
0.0
 34
0.0
 15
0.0
 25
0.0
 35
0.0
146
0.0
 13
0.0
 23
0.0
 33
0.0
 16
0.0
 26
0.0
 36
0.0
 17
0.0
 27
0.0
 37
0.0
 76
     0
330
19
331
0
345
0
346
0
  0
LAYOUT
  5
262
102
{ACAD_REACTORS
330
25F
102
}
100
AcDbPlotSettings
  1

  2

  4

  6

 40
0.0
 41
0.0
 42
0.0
 43
0.0
 44
0.0
 45
0.0
 46
0.0
 47
0.0
 48
0.0
 49
0.0
140
0.0
141
0.0
142
1.0
143
1.0
 70
     0
 72
     0
 73
     0
 74
     0
  7

 75
     0
147
1.0
148
0.0
149
0.0
100
AcDbLayout
  1
Layout1
 70
     0
 71
     0
 10
0.0
 20
0.0
 11
0.0
 21
0.0
 12
0.0
 22
0.0
 32
0.0
 14
0.0
 24
0.0
 34
0.0
 15
0.0
 25
0.0
 35
0.0
146
0.0
 13
0.0
 23
0.0
 33
0.0
 16
0.0
 26
0.0
 36
0.0
 17
0.0
 27
0.0
 37
0.0
 76
     0
330
16
331
0
345
0
346
0
  0
DICTIONARY
  5
25F
102
{ACAD_REACTORS
330
C
102
}
100
AcDbDictionary
280
     0
281
     1
  3
Layout1
350
262
  3
Model
350
261
  0
DICTIONARY
  5
263
102
{ACAD_REACTORS
330
C
102
}
100
AcDbDictionary
280
     0
281
     1
  0
WIPEOUTVARIABLES
  5
264
100
AcDbWipeoutVariables
 70
     1
  0
ENDSEC
  0
EOF
