 999
Imperial - Created with Simple DXF 20190323
 999
Bits=0
 0
SECTION
 2
HEADER
 0
ENDSEC
 999
********************************
 0
SECTION
 2
BLOCKS
 0
BLOCK
 8
Layer0
 2
Component#4
 70
64
 10
0
 20
0
 30
-0.5
 0
POLYLINE
 8
Layer0
 70
1
 10
0
 20
9.0754
 30
-0.25
 39
-0.25
 66
1
 0
VERTEX
 8
Layer0
 10
0
 20
9.0754
 30
-0.25
 0
VERTEX
 8
Layer0
 10
6.9271
 20
9.0754
 30
-0.25
 0
VERTEX
 8
Layer0
 10
0.1498
 20
2.2981
 30
-0.25
 0
VERTEX
 8
Layer0
 10
2.4479
 20
0
 30
-0.25
 0
VERTEX
 8
Layer0
 10
9.5
 20
7.0521
 30
-0.25
 0
VERTEX
 8
Layer0
 10
9.5
 20
2.0754
 30
-0.25
 0
VERTEX
 8
Layer0
 10
12.75
 20
2.0754
 30
-0.25
 0
VERTEX
 8
Layer0
 10
12.75
 20
12.3254
 30
-0.25
 0
VERTEX
 8
Layer0
 10
0
 20
12.3254
 30
-0.25
 0
SEQEND
 999
********************************
 0
SEQEND
 0
ENDBLK
 999
********************************
 0
BLOCK
 8
Layer0
 2
Component#1
 70
64
 10
0
 20
0
 30
-0.5
 0
CIRCLE
 8
Layer0
 10
0.5313
 20
0.5313
 30
-0.5
 39
-0.25
 40
0.5312
 999
********************************
 0
SEQEND
 0
ENDBLK
 999
********************************
 0
BLOCK
 8
Layer0
 2
Component#1
 70
64
 10
0
 20
0
 30
-0.5
 0
CIRCLE
 8
Layer0
 10
0.5313
 20
0.5313
 30
-0.5
 39
-0.25
 40
0.5312
 999
********************************
 0
SEQEND
 0
ENDBLK
 999
********************************
 0
BLOCK
 8
Layer0
 2
Component#1
 70
64
 10
0
 20
0
 30
-0.5
 0
CIRCLE
 8
Layer0
 10
0.5313
 20
0.5313
 30
-0.5
 39
-0.25
 40
0.5312
 999
********************************
 0
SEQEND
 0
ENDBLK
 999
********************************
 0
BLOCK
 8
Layer0
 2
Component#1
 70
64
 10
0
 20
0
 30
-0.5
 0
CIRCLE
 8
Layer0
 10
0.5313
 20
0.5313
 30
-0.5
 39
-0.25
 40
0.5312
 999
********************************
 0
SEQEND
 0
ENDBLK
 999
********************************
 0
BLOCK
 8
Layer0
 2
Component#1
 70
64
 10
0
 20
0
 30
-0.5
 0
CIRCLE
 8
Layer0
 10
0.5313
 20
0.5313
 30
-0.5
 39
-0.25
 40
0.5312
 999
********************************
 0
SEQEND
 0
ENDBLK
 999
********************************
 0
BLOCK
 8
Layer0
 2
Component#1
 70
64
 10
0
 20
0
 30
-0.5
 0
CIRCLE
 8
Layer0
 10
0.5313
 20
0.5313
 30
-0.5
 39
-0.25
 40
0.5312
 999
********************************
 0
SEQEND
 0
ENDBLK
 999
********************************
 0
BLOCK
 8
Layer0
 2
Component#1
 70
64
 10
0
 20
0
 30
-0.5
 0
CIRCLE
 8
Layer0
 10
0.5313
 20
0.5313
 30
-0.5
 39
-0.25
 40
0.5312
 999
********************************
 0
SEQEND
 0
ENDBLK
 999
********************************
 0
BLOCK
 8
Layer0
 2
Component#4
 70
64
 10
0
 20
0
 30
-0.5
 0
POLYLINE
 8
Layer0
 70
1
 10
0
 20
9.0754
 30
-0.25
 39
-0.25
 66
1
 0
VERTEX
 8
Layer0
 10
0
 20
9.0754
 30
-0.25
 0
VERTEX
 8
Layer0
 10
6.9271
 20
9.0754
 30
-0.25
 0
VERTEX
 8
Layer0
 10
0.1498
 20
2.2981
 30
-0.25
 0
VERTEX
 8
Layer0
 10
2.4479
 20
0
 30
-0.25
 0
VERTEX
 8
Layer0
 10
9.5
 20
7.0521
 30
-0.25
 0
VERTEX
 8
Layer0
 10
9.5
 20
2.0754
 30
-0.25
 0
VERTEX
 8
Layer0
 10
12.75
 20
2.0754
 30
-0.25
 0
VERTEX
 8
Layer0
 10
12.75
 20
12.3254
 30
-0.25
 0
VERTEX
 8
Layer0
 10
0
 20
12.3254
 30
-0.25
 0
SEQEND
 999
********************************
 0
SEQEND
 0
ENDBLK
 999
********************************
 0
BLOCK
 8
Layer0
 2
Component#4
 70
64
 10
0
 20
0
 30
-0.5
 0
POLYLINE
 8
Layer0
 70
1
 10
0
 20
9.0754
 30
-0.25
 39
-0.25
 66
1
 0
VERTEX
 8
Layer0
 10
0
 20
9.0754
 30
-0.25
 0
VERTEX
 8
Layer0
 10
6.9271
 20
9.0754
 30
-0.25
 0
VERTEX
 8
Layer0
 10
0.1498
 20
2.2981
 30
-0.25
 0
VERTEX
 8
Layer0
 10
2.4479
 20
0
 30
-0.25
 0
VERTEX
 8
Layer0
 10
9.5
 20
7.0521
 30
-0.25
 0
VERTEX
 8
Layer0
 10
9.5
 20
2.0754
 30
-0.25
 0
VERTEX
 8
Layer0
 10
12.75
 20
2.0754
 30
-0.25
 0
VERTEX
 8
Layer0
 10
12.75
 20
12.3254
 30
-0.25
 0
VERTEX
 8
Layer0
 10
0
 20
12.3254
 30
-0.25
 0
SEQEND
 999
********************************
 0
SEQEND
 0
ENDBLK
 999
********************************
 0
BLOCK
 8
Layer0
 2
Component#4
 70
64
 10
0
 20
0
 30
-0.5
 0
POLYLINE
 8
Layer0
 70
1
 10
0
 20
9.0754
 30
-0.25
 39
-0.25
 66
1
 0
VERTEX
 8
Layer0
 10
0
 20
9.0754
 30
-0.25
 0
VERTEX
 8
Layer0
 10
6.9271
 20
9.0754
 30
-0.25
 0
VERTEX
 8
Layer0
 10
0.1498
 20
2.2981
 30
-0.25
 0
VERTEX
 8
Layer0
 10
2.4479
 20
0
 30
-0.25
 0
VERTEX
 8
Layer0
 10
9.5
 20
7.0521
 30
-0.25
 0
VERTEX
 8
Layer0
 10
9.5
 20
2.0754
 30
-0.25
 0
VERTEX
 8
Layer0
 10
12.75
 20
2.0754
 30
-0.25
 0
VERTEX
 8
Layer0
 10
12.75
 20
12.3254
 30
-0.25
 0
VERTEX
 8
Layer0
 10
0
 20
12.3254
 30
-0.25
 0
SEQEND
 999
********************************
 0
SEQEND
 0
ENDBLK
 999
********************************
 0
BLOCK
 8
Layer0
 2
Component#4
 70
64
 10
0
 20
0
 30
-0.5
 0
POLYLINE
 8
Layer0
 70
1
 10
0
 20
9.0754
 30
-0.25
 39
-0.25
 66
1
 0
VERTEX
 8
Layer0
 10
0
 20
9.0754
 30
-0.25
 0
VERTEX
 8
Layer0
 10
6.9271
 20
9.0754
 30
-0.25
 0
VERTEX
 8
Layer0
 10
0.1498
 20
2.2981
 30
-0.25
 0
VERTEX
 8
Layer0
 10
2.4479
 20
0
 30
-0.25
 0
VERTEX
 8
Layer0
 10
9.5
 20
7.0521
 30
-0.25
 0
VERTEX
 8
Layer0
 10
9.5
 20
2.0754
 30
-0.25
 0
VERTEX
 8
Layer0
 10
12.75
 20
2.0754
 30
-0.25
 0
VERTEX
 8
Layer0
 10
12.75
 20
12.3254
 30
-0.25
 0
VERTEX
 8
Layer0
 10
0
 20
12.3254
 30
-0.25
 0
SEQEND
 999
********************************
 0
SEQEND
 0
ENDBLK
 999
********************************
 0
BLOCK
 8
Layer0
 2
Component#4
 70
64
 10
0
 20
0
 30
-0.5
 0
POLYLINE
 8
Layer0
 70
1
 10
0
 20
9.0754
 30
-0.25
 39
-0.25
 66
1
 0
VERTEX
 8
Layer0
 10
0
 20
9.0754
 30
-0.25
 0
VERTEX
 8
Layer0
 10
6.9271
 20
9.0754
 30
-0.25
 0
VERTEX
 8
Layer0
 10
0.1498
 20
2.2981
 30
-0.25
 0
VERTEX
 8
Layer0
 10
2.4479
 20
0
 30
-0.25
 0
VERTEX
 8
Layer0
 10
9.5
 20
7.0521
 30
-0.25
 0
VERTEX
 8
Layer0
 10
9.5
 20
2.0754
 30
-0.25
 0
VERTEX
 8
Layer0
 10
12.75
 20
2.0754
 30
-0.25
 0
VERTEX
 8
Layer0
 10
12.75
 20
12.3254
 30
-0.25
 0
VERTEX
 8
Layer0
 10
0
 20
12.3254
 30
-0.25
 0
SEQEND
 999
********************************
 0
SEQEND
 0
ENDBLK
 999
********************************
 0
BLOCK
 8
Layer0
 2
Component#4
 70
64
 10
0
 20
0
 30
-0.5
 0
POLYLINE
 8
Layer0
 70
1
 10
0
 20
9.0754
 30
-0.25
 39
-0.25
 66
1
 0
VERTEX
 8
Layer0
 10
0
 20
9.0754
 30
-0.25
 0
VERTEX
 8
Layer0
 10
6.9271
 20
9.0754
 30
-0.25
 0
VERTEX
 8
Layer0
 10
0.1498
 20
2.2981
 30
-0.25
 0
VERTEX
 8
Layer0
 10
2.4479
 20
0
 30
-0.25
 0
VERTEX
 8
Layer0
 10
9.5
 20
7.0521
 30
-0.25
 0
VERTEX
 8
Layer0
 10
9.5
 20
2.0754
 30
-0.25
 0
VERTEX
 8
Layer0
 10
12.75
 20
2.0754
 30
-0.25
 0
VERTEX
 8
Layer0
 10
12.75
 20
12.3254
 30
-0.25
 0
VERTEX
 8
Layer0
 10
0
 20
12.3254
 30
-0.25
 0
SEQEND
 999
********************************
 0
SEQEND
 0
ENDBLK
 999
********************************
 0
BLOCK
 8
Layer0
 2
Component#4
 70
64
 10
0
 20
0
 30
-0.5
 0
POLYLINE
 8
Layer0
 70
1
 10
0
 20
9.0754
 30
-0.25
 39
-0.25
 66
1
 0
VERTEX
 8
Layer0
 10
0
 20
9.0754
 30
-0.25
 0
VERTEX
 8
Layer0
 10
6.9271
 20
9.0754
 30
-0.25
 0
VERTEX
 8
Layer0
 10
0.1498
 20
2.2981
 30
-0.25
 0
VERTEX
 8
Layer0
 10
2.4479
 20
0
 30
-0.25
 0
VERTEX
 8
Layer0
 10
9.5
 20
7.0521
 30
-0.25
 0
VERTEX
 8
Layer0
 10
9.5
 20
2.0754
 30
-0.25
 0
VERTEX
 8
Layer0
 10
12.75
 20
2.0754
 30
-0.25
 0
VERTEX
 8
Layer0
 10
12.75
 20
12.3254
 30
-0.25
 0
VERTEX
 8
Layer0
 10
0
 20
12.3254
 30
-0.25
 0
SEQEND
 999
********************************
 0
SEQEND
 0
ENDBLK
 999
********************************
 0
BLOCK
 8
Layer0
 2
Component#4
 70
64
 10
0
 20
0
 30
-0.5
 0
POLYLINE
 8
Layer0
 70
1
 10
0
 20
9.0754
 30
-0.25
 39
-0.25
 66
1
 0
VERTEX
 8
Layer0
 10
0
 20
9.0754
 30
-0.25
 0
VERTEX
 8
Layer0
 10
6.9271
 20
9.0754
 30
-0.25
 0
VERTEX
 8
Layer0
 10
0.1498
 20
2.2981
 30
-0.25
 0
VERTEX
 8
Layer0
 10
2.4479
 20
0
 30
-0.25
 0
VERTEX
 8
Layer0
 10
9.5
 20
7.0521
 30
-0.25
 0
VERTEX
 8
Layer0
 10
9.5
 20
2.0754
 30
-0.25
 0
VERTEX
 8
Layer0
 10
12.75
 20
2.0754
 30
-0.25
 0
VERTEX
 8
Layer0
 10
12.75
 20
12.3254
 30
-0.25
 0
VERTEX
 8
Layer0
 10
0
 20
12.3254
 30
-0.25
 0
SEQEND
 999
********************************
 0
SEQEND
 0
ENDBLK
 999
********************************
 0
BLOCK
 8
Layer0
 2
Component#4
 70
64
 10
0
 20
0
 30
-0.5
 0
POLYLINE
 8
Layer0
 70
1
 10
0
 20
9.0754
 30
-0.25
 39
-0.25
 66
1
 0
VERTEX
 8
Layer0
 10
0
 20
9.0754
 30
-0.25
 0
VERTEX
 8
Layer0
 10
6.9271
 20
9.0754
 30
-0.25
 0
VERTEX
 8
Layer0
 10
0.1498
 20
2.2981
 30
-0.25
 0
VERTEX
 8
Layer0
 10
2.4479
 20
0
 30
-0.25
 0
VERTEX
 8
Layer0
 10
9.5
 20
7.0521
 30
-0.25
 0
VERTEX
 8
Layer0
 10
9.5
 20
2.0754
 30
-0.25
 0
VERTEX
 8
Layer0
 10
12.75
 20
2.0754
 30
-0.25
 0
VERTEX
 8
Layer0
 10
12.75
 20
12.3254
 30
-0.25
 0
VERTEX
 8
Layer0
 10
0
 20
12.3254
 30
-0.25
 0
SEQEND
 999
********************************
 0
SEQEND
 0
ENDBLK
 999
********************************
 0
BLOCK
 8
Layer0
 2
Component#4
 70
64
 10
0
 20
0
 30
-0.5
 0
POLYLINE
 8
Layer0
 70
1
 10
0
 20
9.0754
 30
-0.25
 39
-0.25
 66
1
 0
VERTEX
 8
Layer0
 10
0
 20
9.0754
 30
-0.25
 0
VERTEX
 8
Layer0
 10
6.9271
 20
9.0754
 30
-0.25
 0
VERTEX
 8
Layer0
 10
0.1498
 20
2.2981
 30
-0.25
 0
VERTEX
 8
Layer0
 10
2.4479
 20
0
 30
-0.25
 0
VERTEX
 8
Layer0
 10
9.5
 20
7.0521
 30
-0.25
 0
VERTEX
 8
Layer0
 10
9.5
 20
2.0754
 30
-0.25
 0
VERTEX
 8
Layer0
 10
12.75
 20
2.0754
 30
-0.25
 0
VERTEX
 8
Layer0
 10
12.75
 20
12.3254
 30
-0.25
 0
VERTEX
 8
Layer0
 10
0
 20
12.3254
 30
-0.25
 0
SEQEND
 999
********************************
 0
SEQEND
 0
ENDBLK
 999
********************************
 0
BLOCK
 8
Layer0
 2
Component#4
 70
64
 10
0
 20
0
 30
-0.5
 0
POLYLINE
 8
Layer0
 70
1
 10
0
 20
9.0754
 30
-0.25
 39
-0.25
 66
1
 0
VERTEX
 8
Layer0
 10
0
 20
9.0754
 30
-0.25
 0
VERTEX
 8
Layer0
 10
6.9271
 20
9.0754
 30
-0.25
 0
VERTEX
 8
Layer0
 10
0.1498
 20
2.2981
 30
-0.25
 0
VERTEX
 8
Layer0
 10
2.4479
 20
0
 30
-0.25
 0
VERTEX
 8
Layer0
 10
9.5
 20
7.0521
 30
-0.25
 0
VERTEX
 8
Layer0
 10
9.5
 20
2.0754
 30
-0.25
 0
VERTEX
 8
Layer0
 10
12.75
 20
2.0754
 30
-0.25
 0
VERTEX
 8
Layer0
 10
12.75
 20
12.3254
 30
-0.25
 0
VERTEX
 8
Layer0
 10
0
 20
12.3254
 30
-0.25
 0
SEQEND
 999
********************************
 0
SEQEND
 0
ENDBLK
 999
********************************
 0
BLOCK
 8
Layer0
 2
Component#4
 70
64
 10
0
 20
0
 30
-0.5
 0
POLYLINE
 8
Layer0
 70
1
 10
0
 20
9.0754
 30
-0.25
 39
-0.25
 66
1
 0
VERTEX
 8
Layer0
 10
0
 20
9.0754
 30
-0.25
 0
VERTEX
 8
Layer0
 10
6.9271
 20
9.0754
 30
-0.25
 0
VERTEX
 8
Layer0
 10
0.1498
 20
2.2981
 30
-0.25
 0
VERTEX
 8
Layer0
 10
2.4479
 20
0
 30
-0.25
 0
VERTEX
 8
Layer0
 10
9.5
 20
7.0521
 30
-0.25
 0
VERTEX
 8
Layer0
 10
9.5
 20
2.0754
 30
-0.25
 0
VERTEX
 8
Layer0
 10
12.75
 20
2.0754
 30
-0.25
 0
VERTEX
 8
Layer0
 10
12.75
 20
12.3254
 30
-0.25
 0
VERTEX
 8
Layer0
 10
0
 20
12.3254
 30
-0.25
 0
SEQEND
 999
********************************
 0
SEQEND
 0
ENDBLK
 999
********************************
 0
BLOCK
 8
Layer0
 2
Component#4
 70
64
 10
0
 20
0
 30
-0.5
 0
POLYLINE
 8
Layer0
 70
1
 10
0
 20
9.0754
 30
-0.25
 39
-0.25
 66
1
 0
VERTEX
 8
Layer0
 10
0
 20
9.0754
 30
-0.25
 0
VERTEX
 8
Layer0
 10
6.9271
 20
9.0754
 30
-0.25
 0
VERTEX
 8
Layer0
 10
0.1498
 20
2.2981
 30
-0.25
 0
VERTEX
 8
Layer0
 10
2.4479
 20
0
 30
-0.25
 0
VERTEX
 8
Layer0
 10
9.5
 20
7.0521
 30
-0.25
 0
VERTEX
 8
Layer0
 10
9.5
 20
2.0754
 30
-0.25
 0
VERTEX
 8
Layer0
 10
12.75
 20
2.0754
 30
-0.25
 0
VERTEX
 8
Layer0
 10
12.75
 20
12.3254
 30
-0.25
 0
VERTEX
 8
Layer0
 10
0
 20
12.3254
 30
-0.25
 0
SEQEND
 999
********************************
 0
SEQEND
 0
ENDBLK
 999
********************************
 0
BLOCK
 8
Layer0
 2
Component#4
 70
64
 10
0
 20
0
 30
-0.5
 0
POLYLINE
 8
Layer0
 70
1
 10
0
 20
9.0754
 30
-0.25
 39
-0.25
 66
1
 0
VERTEX
 8
Layer0
 10
0
 20
9.0754
 30
-0.25
 0
VERTEX
 8
Layer0
 10
6.9271
 20
9.0754
 30
-0.25
 0
VERTEX
 8
Layer0
 10
0.1498
 20
2.2981
 30
-0.25
 0
VERTEX
 8
Layer0
 10
2.4479
 20
0
 30
-0.25
 0
VERTEX
 8
Layer0
 10
9.5
 20
7.0521
 30
-0.25
 0
VERTEX
 8
Layer0
 10
9.5
 20
2.0754
 30
-0.25
 0
VERTEX
 8
Layer0
 10
12.75
 20
2.0754
 30
-0.25
 0
VERTEX
 8
Layer0
 10
12.75
 20
12.3254
 30
-0.25
 0
VERTEX
 8
Layer0
 10
0
 20
12.3254
 30
-0.25
 0
SEQEND
 999
********************************
 0
SEQEND
 0
ENDBLK
 999
********************************
 0
BLOCK
 8
Layer0
 2
Component#4
 70
64
 10
0
 20
0
 30
-0.5
 0
POLYLINE
 8
Layer0
 70
1
 10
0
 20
9.0754
 30
-0.25
 39
-0.25
 66
1
 0
VERTEX
 8
Layer0
 10
0
 20
9.0754
 30
-0.25
 0
VERTEX
 8
Layer0
 10
6.9271
 20
9.0754
 30
-0.25
 0
VERTEX
 8
Layer0
 10
0.1498
 20
2.2981
 30
-0.25
 0
VERTEX
 8
Layer0
 10
2.4479
 20
0
 30
-0.25
 0
VERTEX
 8
Layer0
 10
9.5
 20
7.0521
 30
-0.25
 0
VERTEX
 8
Layer0
 10
9.5
 20
2.0754
 30
-0.25
 0
VERTEX
 8
Layer0
 10
12.75
 20
2.0754
 30
-0.25
 0
VERTEX
 8
Layer0
 10
12.75
 20
12.3254
 30
-0.25
 0
VERTEX
 8
Layer0
 10
0
 20
12.3254
 30
-0.25
 0
SEQEND
 999
********************************
 0
SEQEND
 0
ENDBLK
 999
********************************
 0
BLOCK
 8
Layer0
 2
Component#4
 70
64
 10
0
 20
0
 30
-0.5
 0
POLYLINE
 8
Layer0
 70
1
 10
0
 20
9.0754
 30
-0.25
 39
-0.25
 66
1
 0
VERTEX
 8
Layer0
 10
0
 20
9.0754
 30
-0.25
 0
VERTEX
 8
Layer0
 10
6.9271
 20
9.0754
 30
-0.25
 0
VERTEX
 8
Layer0
 10
0.1498
 20
2.2981
 30
-0.25
 0
VERTEX
 8
Layer0
 10
2.4479
 20
0
 30
-0.25
 0
VERTEX
 8
Layer0
 10
9.5
 20
7.0521
 30
-0.25
 0
VERTEX
 8
Layer0
 10
9.5
 20
2.0754
 30
-0.25
 0
VERTEX
 8
Layer0
 10
12.75
 20
2.0754
 30
-0.25
 0
VERTEX
 8
Layer0
 10
12.75
 20
12.3254
 30
-0.25
 0
VERTEX
 8
Layer0
 10
0
 20
12.3254
 30
-0.25
 0
SEQEND
 999
********************************
 0
SEQEND
 0
ENDBLK
 999
********************************
 0
BLOCK
 8
Layer0
 2
Component#4
 70
64
 10
0
 20
0
 30
-0.5
 0
POLYLINE
 8
Layer0
 70
1
 10
0
 20
9.0754
 30
-0.25
 39
-0.25
 66
1
 0
VERTEX
 8
Layer0
 10
0
 20
9.0754
 30
-0.25
 0
VERTEX
 8
Layer0
 10
6.9271
 20
9.0754
 30
-0.25
 0
VERTEX
 8
Layer0
 10
0.1498
 20
2.2981
 30
-0.25
 0
VERTEX
 8
Layer0
 10
2.4479
 20
0
 30
-0.25
 0
VERTEX
 8
Layer0
 10
9.5
 20
7.0521
 30
-0.25
 0
VERTEX
 8
Layer0
 10
9.5
 20
2.0754
 30
-0.25
 0
VERTEX
 8
Layer0
 10
12.75
 20
2.0754
 30
-0.25
 0
VERTEX
 8
Layer0
 10
12.75
 20
12.3254
 30
-0.25
 0
VERTEX
 8
Layer0
 10
0
 20
12.3254
 30
-0.25
 0
SEQEND
 999
********************************
 0
SEQEND
 0
ENDBLK
 999
********************************
 0
BLOCK
 8
Layer0
 2
Component#4
 70
64
 10
0
 20
0
 30
-0.5
 0
POLYLINE
 8
Layer0
 70
1
 10
0
 20
9.0754
 30
-0.25
 39
-0.25
 66
1
 0
VERTEX
 8
Layer0
 10
0
 20
9.0754
 30
-0.25
 0
VERTEX
 8
Layer0
 10
6.9271
 20
9.0754
 30
-0.25
 0
VERTEX
 8
Layer0
 10
0.1498
 20
2.2981
 30
-0.25
 0
VERTEX
 8
Layer0
 10
2.4479
 20
0
 30
-0.25
 0
VERTEX
 8
Layer0
 10
9.5
 20
7.0521
 30
-0.25
 0
VERTEX
 8
Layer0
 10
9.5
 20
2.0754
 30
-0.25
 0
VERTEX
 8
Layer0
 10
12.75
 20
2.0754
 30
-0.25
 0
VERTEX
 8
Layer0
 10
12.75
 20
12.3254
 30
-0.25
 0
VERTEX
 8
Layer0
 10
0
 20
12.3254
 30
-0.25
 0
SEQEND
 999
********************************
 0
SEQEND
 0
ENDBLK
 999
********************************
 0
BLOCK
 8
Layer0
 2
Component#4
 70
64
 10
0
 20
0
 30
-0.5
 0
POLYLINE
 8
Layer0
 70
1
 10
0
 20
9.0754
 30
-0.25
 39
-0.25
 66
1
 0
VERTEX
 8
Layer0
 10
0
 20
9.0754
 30
-0.25
 0
VERTEX
 8
Layer0
 10
6.9271
 20
9.0754
 30
-0.25
 0
VERTEX
 8
Layer0
 10
0.1498
 20
2.2981
 30
-0.25
 0
VERTEX
 8
Layer0
 10
2.4479
 20
0
 30
-0.25
 0
VERTEX
 8
Layer0
 10
9.5
 20
7.0521
 30
-0.25
 0
VERTEX
 8
Layer0
 10
9.5
 20
2.0754
 30
-0.25
 0
VERTEX
 8
Layer0
 10
12.75
 20
2.0754
 30
-0.25
 0
VERTEX
 8
Layer0
 10
12.75
 20
12.3254
 30
-0.25
 0
VERTEX
 8
Layer0
 10
0
 20
12.3254
 30
-0.25
 0
SEQEND
 999
********************************
 0
SEQEND
 0
ENDBLK
 999
********************************
 0
BLOCK
 8
Layer0
 2
Component#4
 70
64
 10
0
 20
0
 30
-0.5
 0
POLYLINE
 8
Layer0
 70
1
 10
0
 20
9.0754
 30
-0.25
 39
-0.25
 66
1
 0
VERTEX
 8
Layer0
 10
0
 20
9.0754
 30
-0.25
 0
VERTEX
 8
Layer0
 10
6.9271
 20
9.0754
 30
-0.25
 0
VERTEX
 8
Layer0
 10
0.1498
 20
2.2981
 30
-0.25
 0
VERTEX
 8
Layer0
 10
2.4479
 20
0
 30
-0.25
 0
VERTEX
 8
Layer0
 10
9.5
 20
7.0521
 30
-0.25
 0
VERTEX
 8
Layer0
 10
9.5
 20
2.0754
 30
-0.25
 0
VERTEX
 8
Layer0
 10
12.75
 20
2.0754
 30
-0.25
 0
VERTEX
 8
Layer0
 10
12.75
 20
12.3254
 30
-0.25
 0
VERTEX
 8
Layer0
 10
0
 20
12.3254
 30
-0.25
 0
SEQEND
 999
********************************
 0
SEQEND
 0
ENDBLK
 999
********************************
 0
BLOCK
 8
Layer0
 2
Component#4
 70
64
 10
0
 20
0
 30
-0.5
 0
POLYLINE
 8
Layer0
 70
1
 10
0
 20
9.0754
 30
-0.25
 39
-0.25
 66
1
 0
VERTEX
 8
Layer0
 10
0
 20
9.0754
 30
-0.25
 0
VERTEX
 8
Layer0
 10
6.9271
 20
9.0754
 30
-0.25
 0
VERTEX
 8
Layer0
 10
0.1498
 20
2.2981
 30
-0.25
 0
VERTEX
 8
Layer0
 10
2.4479
 20
0
 30
-0.25
 0
VERTEX
 8
Layer0
 10
9.5
 20
7.0521
 30
-0.25
 0
VERTEX
 8
Layer0
 10
9.5
 20
2.0754
 30
-0.25
 0
VERTEX
 8
Layer0
 10
12.75
 20
2.0754
 30
-0.25
 0
VERTEX
 8
Layer0
 10
12.75
 20
12.3254
 30
-0.25
 0
VERTEX
 8
Layer0
 10
0
 20
12.3254
 30
-0.25
 0
SEQEND
 999
********************************
 0
SEQEND
 0
ENDBLK
 999
********************************
 0
BLOCK
 8
Layer0
 2
Component#4
 70
64
 10
0
 20
0
 30
-0.5
 0
POLYLINE
 8
Layer0
 70
1
 10
0
 20
9.0754
 30
-0.25
 39
-0.25
 66
1
 0
VERTEX
 8
Layer0
 10
0
 20
9.0754
 30
-0.25
 0
VERTEX
 8
Layer0
 10
6.9271
 20
9.0754
 30
-0.25
 0
VERTEX
 8
Layer0
 10
0.1498
 20
2.2981
 30
-0.25
 0
VERTEX
 8
Layer0
 10
2.4479
 20
0
 30
-0.25
 0
VERTEX
 8
Layer0
 10
9.5
 20
7.0521
 30
-0.25
 0
VERTEX
 8
Layer0
 10
9.5
 20
2.0754
 30
-0.25
 0
VERTEX
 8
Layer0
 10
12.75
 20
2.0754
 30
-0.25
 0
VERTEX
 8
Layer0
 10
12.75
 20
12.3254
 30
-0.25
 0
VERTEX
 8
Layer0
 10
0
 20
12.3254
 30
-0.25
 0
SEQEND
 999
********************************
 0
SEQEND
 0
ENDBLK
 999
********************************
 0
BLOCK
 8
Layer0
 2
Component#4
 70
64
 10
0
 20
0
 30
-0.5
 0
POLYLINE
 8
Layer0
 70
1
 10
0
 20
9.0754
 30
-0.25
 39
-0.25
 66
1
 0
VERTEX
 8
Layer0
 10
0
 20
9.0754
 30
-0.25
 0
VERTEX
 8
Layer0
 10
6.9271
 20
9.0754
 30
-0.25
 0
VERTEX
 8
Layer0
 10
0.1498
 20
2.2981
 30
-0.25
 0
VERTEX
 8
Layer0
 10
2.4479
 20
0
 30
-0.25
 0
VERTEX
 8
Layer0
 10
9.5
 20
7.0521
 30
-0.25
 0
VERTEX
 8
Layer0
 10
9.5
 20
2.0754
 30
-0.25
 0
VERTEX
 8
Layer0
 10
12.75
 20
2.0754
 30
-0.25
 0
VERTEX
 8
Layer0
 10
12.75
 20
12.3254
 30
-0.25
 0
VERTEX
 8
Layer0
 10
0
 20
12.3254
 30
-0.25
 0
SEQEND
 999
********************************
 0
SEQEND
 0
ENDBLK
 999
********************************
 0
BLOCK
 8
Layer0
 2
Component#2
 70
64
 10
0
 20
0
 30
-0.5
 0
POLYLINE
 8
Layer0
 70
1
 10
10.25
 20
9.5
 30
-0.25
 39
-0.25
 66
1
 0
VERTEX
 8
Layer0
 10
10.25
 20
9.5
 30
-0.25
 0
VERTEX
 8
Layer0
 10
10.25
 20
12.75
 30
-0.25
 0
VERTEX
 8
Layer0
 10
0
 20
12.75
 30
-0.25
 0
VERTEX
 8
Layer0
 10
0
 20
0
 30
-0.25
 0
VERTEX
 8
Layer0
 10
3.25
 20
0
 30
-0.25
 0
VERTEX
 8
Layer0
 10
3.25
 20
9.5
 30
-0.25
 0
SEQEND
 999
********************************
 0
SEQEND
 0
ENDBLK
 999
********************************
 0
BLOCK
 8
Layer0
 2
Component#1
 70
64
 10
0
 20
0
 30
-0.5
 0
CIRCLE
 8
Layer0
 10
0.5313
 20
0.5313
 30
-0.5
 39
-0.25
 40
0.5312
 999
********************************
 0
SEQEND
 0
ENDBLK
 999
********************************
 0
BLOCK
 8
Layer0
 2
Component#1
 70
64
 10
0
 20
0
 30
-0.5
 0
CIRCLE
 8
Layer0
 10
0.5313
 20
0.5313
 30
-0.5
 39
-0.25
 40
0.5312
 999
********************************
 0
SEQEND
 0
ENDBLK
 999
********************************
 0
BLOCK
 8
Layer0
 2
Component#1
 70
64
 10
0
 20
0
 30
-0.5
 0
CIRCLE
 8
Layer0
 10
0.5313
 20
0.5313
 30
-0.5
 39
-0.25
 40
0.5312
 999
********************************
 0
SEQEND
 0
ENDBLK
 999
********************************
 0
BLOCK
 8
Layer0
 2
Component#1
 70
64
 10
0
 20
0
 30
-0.5
 0
CIRCLE
 8
Layer0
 10
0.5313
 20
0.5313
 30
-0.5
 39
-0.25
 40
0.5312
 999
********************************
 0
SEQEND
 0
ENDBLK
 999
********************************
 0
BLOCK
 8
Layer0
 2
Component#1
 70
64
 10
0
 20
0
 30
-0.5
 0
CIRCLE
 8
Layer0
 10
0.5313
 20
0.5313
 30
-0.5
 39
-0.25
 40
0.5312
 999
********************************
 0
SEQEND
 0
ENDBLK
 999
********************************
 0
BLOCK
 8
Layer0
 2
Component#2
 70
64
 10
0
 20
0
 30
-0.5
 0
POLYLINE
 8
Layer0
 70
1
 10
10.25
 20
9.5
 30
-0.25
 39
-0.25
 66
1
 0
VERTEX
 8
Layer0
 10
10.25
 20
9.5
 30
-0.25
 0
VERTEX
 8
Layer0
 10
10.25
 20
12.75
 30
-0.25
 0
VERTEX
 8
Layer0
 10
0
 20
12.75
 30
-0.25
 0
VERTEX
 8
Layer0
 10
0
 20
0
 30
-0.25
 0
VERTEX
 8
Layer0
 10
3.25
 20
0
 30
-0.25
 0
VERTEX
 8
Layer0
 10
3.25
 20
9.5
 30
-0.25
 0
SEQEND
 999
********************************
 0
SEQEND
 0
ENDBLK
 999
********************************
 0
BLOCK
 8
Layer0
 2
Component#3
 70
64
 10
0
 20
0
 30
-0.5
 0
POLYLINE
 8
Layer0
 70
1
 10
3.125
 20
3.25
 30
-0.25
 39
-0.25
 66
1
 0
VERTEX
 8
Layer0
 10
3.125
 20
3.25
 30
-0.25
 0
VERTEX
 8
Layer0
 10
0
 20
3.25
 30
-0.25
 0
VERTEX
 8
Layer0
 10
0
 20
0
 30
-0.25
 0
VERTEX
 8
Layer0
 10
9.5
 20
0
 30
-0.25
 0
VERTEX
 8
Layer0
 10
9.5
 20
3.25
 30
-0.25
 0
VERTEX
 8
Layer0
 10
6.375
 20
3.25
 30
-0.25
 0
VERTEX
 8
Layer0
 10
6.375
 20
12
 30
-0.25
 0
VERTEX
 8
Layer0
 10
3.125
 20
12
 30
-0.25
 0
SEQEND
 999
********************************
 0
SEQEND
 0
ENDBLK
 999
********************************
 0
BLOCK
 8
Layer0
 2
Component#1
 70
64
 10
0
 20
0
 30
-0.5
 0
CIRCLE
 8
Layer0
 10
0.5313
 20
0.5313
 30
-0.5
 39
-0.25
 40
0.5312
 999
********************************
 0
SEQEND
 0
ENDBLK
 999
********************************
 0
BLOCK
 8
Layer0
 2
Component#1
 70
64
 10
0
 20
0
 30
-0.5
 0
CIRCLE
 8
Layer0
 10
0.5313
 20
0.5313
 30
-0.5
 39
-0.25
 40
0.5312
 999
********************************
 0
SEQEND
 0
ENDBLK
 999
********************************
 0
BLOCK
 8
Layer0
 2
Component#1
 70
64
 10
0
 20
0
 30
-0.5
 0
CIRCLE
 8
Layer0
 10
0.5313
 20
0.5313
 30
-0.5
 39
-0.25
 40
0.5312
 999
********************************
 0
SEQEND
 0
ENDBLK
 999
********************************
 0
BLOCK
 8
Layer0
 2
Component#1
 70
64
 10
0
 20
0
 30
-0.5
 0
CIRCLE
 8
Layer0
 10
0.5313
 20
0.5313
 30
-0.5
 39
-0.25
 40
0.5312
 999
********************************
 0
SEQEND
 0
ENDBLK
 999
********************************
 0
BLOCK
 8
Layer0
 2
Component#1
 70
64
 10
0
 20
0
 30
-0.5
 0
CIRCLE
 8
Layer0
 10
0.5313
 20
0.5313
 30
-0.5
 39
-0.25
 40
0.5312
 999
********************************
 0
SEQEND
 0
ENDBLK
 999
********************************
 0
BLOCK
 8
Layer0
 2
Component#3
 70
64
 10
0
 20
0
 30
-0.5
 0
POLYLINE
 8
Layer0
 70
1
 10
3.125
 20
3.25
 30
-0.25
 39
-0.25
 66
1
 0
VERTEX
 8
Layer0
 10
3.125
 20
3.25
 30
-0.25
 0
VERTEX
 8
Layer0
 10
0
 20
3.25
 30
-0.25
 0
VERTEX
 8
Layer0
 10
0
 20
0
 30
-0.25
 0
VERTEX
 8
Layer0
 10
9.5
 20
0
 30
-0.25
 0
VERTEX
 8
Layer0
 10
9.5
 20
3.25
 30
-0.25
 0
VERTEX
 8
Layer0
 10
6.375
 20
3.25
 30
-0.25
 0
VERTEX
 8
Layer0
 10
6.375
 20
12
 30
-0.25
 0
VERTEX
 8
Layer0
 10
3.125
 20
12
 30
-0.25
 0
SEQEND
 999
********************************
 0
SEQEND
 0
ENDBLK
 999
********************************
 0
BLOCK
 8
Layer0
 2
Component#2
 70
64
 10
0
 20
0
 30
-0.5
 0
POLYLINE
 8
Layer0
 70
1
 10
10.25
 20
9.5
 30
-0.25
 39
-0.25
 66
1
 0
VERTEX
 8
Layer0
 10
10.25
 20
9.5
 30
-0.25
 0
VERTEX
 8
Layer0
 10
10.25
 20
12.75
 30
-0.25
 0
VERTEX
 8
Layer0
 10
0
 20
12.75
 30
-0.25
 0
VERTEX
 8
Layer0
 10
0
 20
0
 30
-0.25
 0
VERTEX
 8
Layer0
 10
3.25
 20
0
 30
-0.25
 0
VERTEX
 8
Layer0
 10
3.25
 20
9.5
 30
-0.25
 0
SEQEND
 999
********************************
 0
SEQEND
 0
ENDBLK
 999
********************************
 0
BLOCK
 8
Layer0
 2
Component#3
 70
64
 10
0
 20
0
 30
-0.5
 0
POLYLINE
 8
Layer0
 70
1
 10
3.125
 20
3.25
 30
-0.25
 39
-0.25
 66
1
 0
VERTEX
 8
Layer0
 10
3.125
 20
3.25
 30
-0.25
 0
VERTEX
 8
Layer0
 10
0
 20
3.25
 30
-0.25
 0
VERTEX
 8
Layer0
 10
0
 20
0
 30
-0.25
 0
VERTEX
 8
Layer0
 10
9.5
 20
0
 30
-0.25
 0
VERTEX
 8
Layer0
 10
9.5
 20
3.25
 30
-0.25
 0
VERTEX
 8
Layer0
 10
6.375
 20
3.25
 30
-0.25
 0
VERTEX
 8
Layer0
 10
6.375
 20
12
 30
-0.25
 0
VERTEX
 8
Layer0
 10
3.125
 20
12
 30
-0.25
 0
SEQEND
 999
********************************
 0
SEQEND
 0
ENDBLK
 999
********************************
 0
BLOCK
 8
Layer0
 2
Component#3
 70
64
 10
0
 20
0
 30
-0.5
 0
POLYLINE
 8
Layer0
 70
1
 10
3.125
 20
3.25
 30
-0.25
 39
-0.25
 66
1
 0
VERTEX
 8
Layer0
 10
3.125
 20
3.25
 30
-0.25
 0
VERTEX
 8
Layer0
 10
0
 20
3.25
 30
-0.25
 0
VERTEX
 8
Layer0
 10
0
 20
0
 30
-0.25
 0
VERTEX
 8
Layer0
 10
9.5
 20
0
 30
-0.25
 0
VERTEX
 8
Layer0
 10
9.5
 20
3.25
 30
-0.25
 0
VERTEX
 8
Layer0
 10
6.375
 20
3.25
 30
-0.25
 0
VERTEX
 8
Layer0
 10
6.375
 20
12
 30
-0.25
 0
VERTEX
 8
Layer0
 10
3.125
 20
12
 30
-0.25
 0
SEQEND
 999
********************************
 0
SEQEND
 0
ENDBLK
 999
********************************
 0
BLOCK
 8
Layer0
 2
Component#3
 70
64
 10
0
 20
0
 30
-0.5
 0
POLYLINE
 8
Layer0
 70
1
 10
3.125
 20
3.25
 30
-0.25
 39
-0.25
 66
1
 0
VERTEX
 8
Layer0
 10
3.125
 20
3.25
 30
-0.25
 0
VERTEX
 8
Layer0
 10
0
 20
3.25
 30
-0.25
 0
VERTEX
 8
Layer0
 10
0
 20
0
 30
-0.25
 0
VERTEX
 8
Layer0
 10
9.5
 20
0
 30
-0.25
 0
VERTEX
 8
Layer0
 10
9.5
 20
3.25
 30
-0.25
 0
VERTEX
 8
Layer0
 10
6.375
 20
3.25
 30
-0.25
 0
VERTEX
 8
Layer0
 10
6.375
 20
12
 30
-0.25
 0
VERTEX
 8
Layer0
 10
3.125
 20
12
 30
-0.25
 0
SEQEND
 999
********************************
 0
SEQEND
 0
ENDBLK
 999
********************************
 0
ENDSEC
 999
********************************
 0
SECTION
 2
ENTITIES
 0
INSERT
 8
Layer0
 2
Component#4
 10
8.75
 20
95.5
 30
-0.5
 41
1.0
 42
-1.0
 0
INSERT
 8
Layer0
 2
Component#1
 10
19.3423
 20
89.1746
 30
-0.25
 41
1.0
 42
-1.0
 0
INSERT
 8
Layer0
 2
Component#1
 10
10.7551
 20
93.6448
 30
-0.25
 41
1.0
 42
-1.0
 0
INSERT
 8
Layer0
 2
Component#1
 10
19.3423
 20
86.1434
 30
-0.25
 41
1.0
 42
-1.0
 0
INSERT
 8
Layer0
 2
Component#1
 10
9.9688
 20
85.3309
 30
-0.25
 41
1.0
 42
-1.0
 0
INSERT
 8
Layer0
 2
Component#1
 10
12.9206
 20
91.4793
 30
-0.25
 41
1.0
 42
-1.0
 0
INSERT
 8
Layer0
 2
Component#1
 10
13.0313
 20
85.3309
 30
-0.25
 41
1.0
 42
-1.0
 0
INSERT
 8
Layer0
 2
Component#1
 10
19.3505
 20
92.2059
 30
-0.25
 41
1.0
 42
-1.0
 0
INSERT
 8
Layer0
 2
Component#4
 10
34.75
 20
48.4338
 30
-0.5
 41
1.0
 42
-1.0
 0
INSERT
 8
Layer0
 2
Component#1
 10
45.3423
 20
42.1085
 30
-0.25
 41
1.0
 42
-1.0
 0
INSERT
 8
Layer0
 2
Component#1
 10
36.7551
 20
46.5786
 30
-0.25
 41
1.0
 42
-1.0
 0
INSERT
 8
Layer0
 2
Component#1
 10
45.3423
 20
39.0772
 30
-0.25
 41
1.0
 42
-1.0
 0
INSERT
 8
Layer0
 2
Component#1
 10
35.9688
 20
38.2647
 30
-0.25
 41
1.0
 42
-1.0
 0
INSERT
 8
Layer0
 2
Component#1
 10
38.9206
 20
44.4131
 30
-0.25
 41
1.0
 42
-1.0
 0
INSERT
 8
Layer0
 2
Component#1
 10
39.0313
 20
38.2647
 30
-0.25
 41
1.0
 42
-1.0
 0
INSERT
 8
Layer0
 2
Component#1
 10
45.3505
 20
45.1397
 30
-0.25
 41
1.0
 42
-1.0
 0
INSERT
 8
Layer0
 2
Component#4
 10
8.75
 20
71.9669
 30
-0.5
 41
1.0
 42
-1.0
 0
INSERT
 8
Layer0
 2
Component#1
 10
19.3423
 20
65.6415
 30
-0.25
 41
1.0
 42
-1.0
 0
INSERT
 8
Layer0
 2
Component#1
 10
10.7551
 20
70.1117
 30
-0.25
 41
1.0
 42
-1.0
 0
INSERT
 8
Layer0
 2
Component#1
 10
19.3423
 20
62.6103
 30
-0.25
 41
1.0
 42
-1.0
 0
INSERT
 8
Layer0
 2
Component#1
 10
9.9688
 20
61.7978
 30
-0.25
 41
1.0
 42
-1.0
 0
INSERT
 8
Layer0
 2
Component#1
 10
12.9206
 20
67.9462
 30
-0.25
 41
1.0
 42
-1.0
 0
INSERT
 8
Layer0
 2
Component#1
 10
13.0313
 20
61.7978
 30
-0.25
 41
1.0
 42
-1.0
 0
INSERT
 8
Layer0
 2
Component#1
 10
19.3505
 20
68.6728
 30
-0.25
 41
1.0
 42
-1.0
 0
INSERT
 8
Layer0
 2
Component#4
 10
21.75
 20
95.5
 30
-0.5
 41
1.0
 42
-1.0
 0
INSERT
 8
Layer0
 2
Component#1
 10
32.3423
 20
89.1746
 30
-0.25
 41
1.0
 42
-1.0
 0
INSERT
 8
Layer0
 2
Component#1
 10
23.7551
 20
93.6448
 30
-0.25
 41
1.0
 42
-1.0
 0
INSERT
 8
Layer0
 2
Component#1
 10
32.3423
 20
86.1434
 30
-0.25
 41
1.0
 42
-1.0
 0
INSERT
 8
Layer0
 2
Component#1
 10
22.9688
 20
85.3309
 30
-0.25
 41
1.0
 42
-1.0
 0
INSERT
 8
Layer0
 2
Component#1
 10
25.9206
 20
91.4793
 30
-0.25
 41
1.0
 42
-1.0
 0
INSERT
 8
Layer0
 2
Component#1
 10
26.0313
 20
85.3309
 30
-0.25
 41
1.0
 42
-1.0
 0
INSERT
 8
Layer0
 2
Component#1
 10
32.3505
 20
92.2059
 30
-0.25
 41
1.0
 42
-1.0
 0
INSERT
 8
Layer0
 2
Component#4
 10
34.75
 20
71.9669
 30
-0.5
 41
1.0
 42
-1.0
 0
INSERT
 8
Layer0
 2
Component#1
 10
45.3423
 20
65.6415
 30
-0.25
 41
1.0
 42
-1.0
 0
INSERT
 8
Layer0
 2
Component#1
 10
36.7551
 20
70.1117
 30
-0.25
 41
1.0
 42
-1.0
 0
INSERT
 8
Layer0
 2
Component#1
 10
45.3423
 20
62.6103
 30
-0.25
 41
1.0
 42
-1.0
 0
INSERT
 8
Layer0
 2
Component#1
 10
35.9688
 20
61.7978
 30
-0.25
 41
1.0
 42
-1.0
 0
INSERT
 8
Layer0
 2
Component#1
 10
38.9206
 20
67.9462
 30
-0.25
 41
1.0
 42
-1.0
 0
INSERT
 8
Layer0
 2
Component#1
 10
39.0313
 20
61.7978
 30
-0.25
 41
1.0
 42
-1.0
 0
INSERT
 8
Layer0
 2
Component#1
 10
45.3505
 20
68.6728
 30
-0.25
 41
1.0
 42
-1.0
 0
INSERT
 8
Layer0
 2
Component#4
 10
21.75
 20
48.4338
 30
-0.5
 41
1.0
 42
-1.0
 0
INSERT
 8
Layer0
 2
Component#1
 10
32.3423
 20
42.1085
 30
-0.25
 41
1.0
 42
-1.0
 0
INSERT
 8
Layer0
 2
Component#1
 10
23.7551
 20
46.5786
 30
-0.25
 41
1.0
 42
-1.0
 0
INSERT
 8
Layer0
 2
Component#1
 10
32.3423
 20
39.0772
 30
-0.25
 41
1.0
 42
-1.0
 0
INSERT
 8
Layer0
 2
Component#1
 10
22.9688
 20
38.2647
 30
-0.25
 41
1.0
 42
-1.0
 0
INSERT
 8
Layer0
 2
Component#1
 10
25.9206
 20
44.4131
 30
-0.25
 41
1.0
 42
-1.0
 0
INSERT
 8
Layer0
 2
Component#1
 10
26.0313
 20
38.2647
 30
-0.25
 41
1.0
 42
-1.0
 0
INSERT
 8
Layer0
 2
Component#1
 10
32.3505
 20
45.1397
 30
-0.25
 41
1.0
 42
-1.0
 0
INSERT
 8
Layer0
 2
Component#4
 10
34.75
 20
95.5
 30
-0.5
 41
1.0
 42
-1.0
 0
INSERT
 8
Layer0
 2
Component#1
 10
45.3423
 20
89.1746
 30
-0.25
 41
1.0
 42
-1.0
 0
INSERT
 8
Layer0
 2
Component#1
 10
36.7551
 20
93.6448
 30
-0.25
 41
1.0
 42
-1.0
 0
INSERT
 8
Layer0
 2
Component#1
 10
45.3423
 20
86.1434
 30
-0.25
 41
1.0
 42
-1.0
 0
INSERT
 8
Layer0
 2
Component#1
 10
35.9688
 20
85.3309
 30
-0.25
 41
1.0
 42
-1.0
 0
INSERT
 8
Layer0
 2
Component#1
 10
38.9206
 20
91.4793
 30
-0.25
 41
1.0
 42
-1.0
 0
INSERT
 8
Layer0
 2
Component#1
 10
39.0313
 20
85.3309
 30
-0.25
 41
1.0
 42
-1.0
 0
INSERT
 8
Layer0
 2
Component#1
 10
45.3505
 20
92.2059
 30
-0.25
 41
1.0
 42
-1.0
 0
INSERT
 8
Layer0
 2
Component#4
 10
8.75
 20
48.4338
 30
-0.5
 41
1.0
 42
-1.0
 0
INSERT
 8
Layer0
 2
Component#1
 10
19.3423
 20
42.1085
 30
-0.25
 41
1.0
 42
-1.0
 0
INSERT
 8
Layer0
 2
Component#1
 10
10.7551
 20
46.5786
 30
-0.25
 41
1.0
 42
-1.0
 0
INSERT
 8
Layer0
 2
Component#1
 10
19.3423
 20
39.0772
 30
-0.25
 41
1.0
 42
-1.0
 0
INSERT
 8
Layer0
 2
Component#1
 10
9.9688
 20
38.2647
 30
-0.25
 41
1.0
 42
-1.0
 0
INSERT
 8
Layer0
 2
Component#1
 10
12.9206
 20
44.4131
 30
-0.25
 41
1.0
 42
-1.0
 0
INSERT
 8
Layer0
 2
Component#1
 10
13.0313
 20
38.2647
 30
-0.25
 41
1.0
 42
-1.0
 0
INSERT
 8
Layer0
 2
Component#1
 10
19.3505
 20
45.1397
 30
-0.25
 41
1.0
 42
-1.0
 0
INSERT
 8
Layer0
 2
Component#4
 10
34.75
 20
24.9007
 30
-0.5
 41
1.0
 42
-1.0
 0
INSERT
 8
Layer0
 2
Component#1
 10
45.3423
 20
18.5754
 30
-0.25
 41
1.0
 42
-1.0
 0
INSERT
 8
Layer0
 2
Component#1
 10
36.7551
 20
23.0455
 30
-0.25
 41
1.0
 42
-1.0
 0
INSERT
 8
Layer0
 2
Component#1
 10
45.3423
 20
15.5441
 30
-0.25
 41
1.0
 42
-1.0
 0
INSERT
 8
Layer0
 2
Component#1
 10
35.9688
 20
14.7316
 30
-0.25
 41
1.0
 42
-1.0
 0
INSERT
 8
Layer0
 2
Component#1
 10
38.9206
 20
20.88
 30
-0.25
 41
1.0
 42
-1.0
 0
INSERT
 8
Layer0
 2
Component#1
 10
39.0313
 20
14.7316
 30
-0.25
 41
1.0
 42
-1.0
 0
INSERT
 8
Layer0
 2
Component#1
 10
45.3505
 20
21.6066
 30
-0.25
 41
1.0
 42
-1.0
 0
INSERT
 8
Layer0
 2
Component#4
 10
21.75
 20
24.9007
 30
-0.5
 41
1.0
 42
-1.0
 0
INSERT
 8
Layer0
 2
Component#1
 10
32.3423
 20
18.5754
 30
-0.25
 41
1.0
 42
-1.0
 0
INSERT
 8
Layer0
 2
Component#1
 10
23.7551
 20
23.0455
 30
-0.25
 41
1.0
 42
-1.0
 0
INSERT
 8
Layer0
 2
Component#1
 10
32.3423
 20
15.5441
 30
-0.25
 41
1.0
 42
-1.0
 0
INSERT
 8
Layer0
 2
Component#1
 10
22.9688
 20
14.7316
 30
-0.25
 41
1.0
 42
-1.0
 0
INSERT
 8
Layer0
 2
Component#1
 10
25.9206
 20
20.88
 30
-0.25
 41
1.0
 42
-1.0
 0
INSERT
 8
Layer0
 2
Component#1
 10
26.0313
 20
14.7316
 30
-0.25
 41
1.0
 42
-1.0
 0
INSERT
 8
Layer0
 2
Component#1
 10
32.3505
 20
21.6066
 30
-0.25
 41
1.0
 42
-1.0
 0
INSERT
 8
Layer0
 2
Component#4
 10
8.75
 20
24.9007
 30
-0.5
 41
1.0
 42
-1.0
 0
INSERT
 8
Layer0
 2
Component#1
 10
19.3423
 20
18.5754
 30
-0.25
 41
1.0
 42
-1.0
 0
INSERT
 8
Layer0
 2
Component#1
 10
10.7551
 20
23.0455
 30
-0.25
 41
1.0
 42
-1.0
 0
INSERT
 8
Layer0
 2
Component#1
 10
19.3423
 20
15.5441
 30
-0.25
 41
1.0
 42
-1.0
 0
INSERT
 8
Layer0
 2
Component#1
 10
9.9688
 20
14.7316
 30
-0.25
 41
1.0
 42
-1.0
 0
INSERT
 8
Layer0
 2
Component#1
 10
12.9206
 20
20.88
 30
-0.25
 41
1.0
 42
-1.0
 0
INSERT
 8
Layer0
 2
Component#1
 10
13.0313
 20
14.7316
 30
-0.25
 41
1.0
 42
-1.0
 0
INSERT
 8
Layer0
 2
Component#1
 10
19.3505
 20
21.6066
 30
-0.25
 41
1.0
 42
-1.0
 0
INSERT
 8
Layer0
 2
Component#4
 10
21.75
 20
71.9669
 30
-0.5
 41
1.0
 42
-1.0
 0
INSERT
 8
Layer0
 2
Component#1
 10
32.3423
 20
65.6415
 30
-0.25
 41
1.0
 42
-1.0
 0
INSERT
 8
Layer0
 2
Component#1
 10
23.7551
 20
70.1117
 30
-0.25
 41
1.0
 42
-1.0
 0
INSERT
 8
Layer0
 2
Component#1
 10
32.3423
 20
62.6103
 30
-0.25
 41
1.0
 42
-1.0
 0
INSERT
 8
Layer0
 2
Component#1
 10
22.9688
 20
61.7978
 30
-0.25
 41
1.0
 42
-1.0
 0
INSERT
 8
Layer0
 2
Component#1
 10
25.9206
 20
67.9462
 30
-0.25
 41
1.0
 42
-1.0
 0
INSERT
 8
Layer0
 2
Component#1
 10
26.0313
 20
61.7978
 30
-0.25
 41
1.0
 42
-1.0
 0
INSERT
 8
Layer0
 2
Component#1
 10
32.3505
 20
68.6728
 30
-0.25
 41
1.0
 42
-1.0
 0
INSERT
 8
Layer0
 2
Component#4
 10
8.75
 20
0
 30
-0.5
 41
1.0
 42
1.0
 0
INSERT
 8
Layer0
 2
Component#1
 10
19.3423
 20
6.3254
 30
-0.25
 41
1.0
 42
1.0
 0
INSERT
 8
Layer0
 2
Component#1
 10
10.7551
 20
1.8552
 30
-0.25
 41
1.0
 42
1.0
 0
INSERT
 8
Layer0
 2
Component#1
 10
19.3423
 20
9.3566
 30
-0.25
 41
1.0
 42
1.0
 0
INSERT
 8
Layer0
 2
Component#1
 10
9.9688
 20
10.1691
 30
-0.25
 41
1.0
 42
1.0
 0
INSERT
 8
Layer0
 2
Component#1
 10
12.9206
 20
4.0207
 30
-0.25
 41
1.0
 42
1.0
 0
INSERT
 8
Layer0
 2
Component#1
 10
13.0313
 20
10.1691
 30
-0.25
 41
1.0
 42
1.0
 0
INSERT
 8
Layer0
 2
Component#1
 10
19.3505
 20
3.2941
 30
-0.25
 41
1.0
 42
1.0
 0
INSERT
 8
Layer0
 2
Component#4
 10
33
 20
47.0662
 30
-0.5
 41
1.0
 42
1.0
 0
INSERT
 8
Layer0
 2
Component#1
 10
43.5923
 20
53.3915
 30
-0.25
 41
1.0
 42
1.0
 0
INSERT
 8
Layer0
 2
Component#1
 10
35.0051
 20
48.9214
 30
-0.25
 41
1.0
 42
1.0
 0
INSERT
 8
Layer0
 2
Component#1
 10
43.5923
 20
56.4228
 30
-0.25
 41
1.0
 42
1.0
 0
INSERT
 8
Layer0
 2
Component#1
 10
34.2188
 20
57.2353
 30
-0.25
 41
1.0
 42
1.0
 0
INSERT
 8
Layer0
 2
Component#1
 10
37.1706
 20
51.0869
 30
-0.25
 41
1.0
 42
1.0
 0
INSERT
 8
Layer0
 2
Component#1
 10
37.2813
 20
57.2353
 30
-0.25
 41
1.0
 42
1.0
 0
INSERT
 8
Layer0
 2
Component#1
 10
43.6005
 20
50.3603
 30
-0.25
 41
1.0
 42
1.0
 0
INSERT
 8
Layer0
 2
Component#4
 10
7
 20
23.5331
 30
-0.25
 41
1.0
 42
1.0
 0
INSERT
 8
Layer0
 2
Component#1
 10
17.5923
 20
29.8585
 30
0
 41
1.0
 42
1.0
 0
INSERT
 8
Layer0
 2
Component#1
 10
9.0051
 20
25.3883
 30
0
 41
1.0
 42
1.0
 0
INSERT
 8
Layer0
 2
Component#1
 10
17.5923
 20
32.8897
 30
0
 41
1.0
 42
1.0
 0
INSERT
 8
Layer0
 2
Component#1
 10
8.2188
 20
33.7022
 30
0
 41
1.0
 42
1.0
 0
INSERT
 8
Layer0
 2
Component#1
 10
11.1706
 20
27.5538
 30
0
 41
1.0
 42
1.0
 0
INSERT
 8
Layer0
 2
Component#1
 10
11.2813
 20
33.7022
 30
0
 41
1.0
 42
1.0
 0
INSERT
 8
Layer0
 2
Component#1
 10
17.6005
 20
26.8272
 30
0
 41
1.0
 42
1.0
 0
INSERT
 8
Layer0
 2
Component#4
 10
7
 20
47.0662
 30
-0.5
 41
1.0
 42
1.0
 0
INSERT
 8
Layer0
 2
Component#1
 10
17.5923
 20
53.3915
 30
-0.25
 41
1.0
 42
1.0
 0
INSERT
 8
Layer0
 2
Component#1
 10
9.0051
 20
48.9214
 30
-0.25
 41
1.0
 42
1.0
 0
INSERT
 8
Layer0
 2
Component#1
 10
17.5923
 20
56.4228
 30
-0.25
 41
1.0
 42
1.0
 0
INSERT
 8
Layer0
 2
Component#1
 10
8.2188
 20
57.2353
 30
-0.25
 41
1.0
 42
1.0
 0
INSERT
 8
Layer0
 2
Component#1
 10
11.1706
 20
51.0869
 30
-0.25
 41
1.0
 42
1.0
 0
INSERT
 8
Layer0
 2
Component#1
 10
11.2813
 20
57.2353
 30
-0.25
 41
1.0
 42
1.0
 0
INSERT
 8
Layer0
 2
Component#1
 10
17.6005
 20
50.3603
 30
-0.25
 41
1.0
 42
1.0
 0
INSERT
 8
Layer0
 2
Component#4
 10
20
 20
47.0662
 30
-0.5
 41
1.0
 42
1.0
 0
INSERT
 8
Layer0
 2
Component#1
 10
30.5923
 20
53.3915
 30
-0.25
 41
1.0
 42
1.0
 0
INSERT
 8
Layer0
 2
Component#1
 10
22.0051
 20
48.9214
 30
-0.25
 41
1.0
 42
1.0
 0
INSERT
 8
Layer0
 2
Component#1
 10
30.5923
 20
56.4228
 30
-0.25
 41
1.0
 42
1.0
 0
INSERT
 8
Layer0
 2
Component#1
 10
21.2188
 20
57.2353
 30
-0.25
 41
1.0
 42
1.0
 0
INSERT
 8
Layer0
 2
Component#1
 10
24.1706
 20
51.0869
 30
-0.25
 41
1.0
 42
1.0
 0
INSERT
 8
Layer0
 2
Component#1
 10
24.2813
 20
57.2353
 30
-0.25
 41
1.0
 42
1.0
 0
INSERT
 8
Layer0
 2
Component#1
 10
30.6005
 20
50.3603
 30
-0.25
 41
1.0
 42
1.0
 0
INSERT
 8
Layer0
 2
Component#4
 10
34.75
 20
0
 30
-0.5
 41
1.0
 42
1.0
 0
INSERT
 8
Layer0
 2
Component#1
 10
45.3423
 20
6.3254
 30
-0.25
 41
1.0
 42
1.0
 0
INSERT
 8
Layer0
 2
Component#1
 10
36.7551
 20
1.8552
 30
-0.25
 41
1.0
 42
1.0
 0
INSERT
 8
Layer0
 2
Component#1
 10
45.3423
 20
9.3566
 30
-0.25
 41
1.0
 42
1.0
 0
INSERT
 8
Layer0
 2
Component#1
 10
35.9688
 20
10.1691
 30
-0.25
 41
1.0
 42
1.0
 0
INSERT
 8
Layer0
 2
Component#1
 10
38.9206
 20
4.0207
 30
-0.25
 41
1.0
 42
1.0
 0
INSERT
 8
Layer0
 2
Component#1
 10
39.0313
 20
10.1691
 30
-0.25
 41
1.0
 42
1.0
 0
INSERT
 8
Layer0
 2
Component#1
 10
45.3505
 20
3.2941
 30
-0.25
 41
1.0
 42
1.0
 0
INSERT
 8
Layer0
 2
Component#4
 10
33
 20
23.5331
 30
-0.25
 41
1.0
 42
1.0
 0
INSERT
 8
Layer0
 2
Component#1
 10
43.5923
 20
29.8585
 30
0
 41
1.0
 42
1.0
 0
INSERT
 8
Layer0
 2
Component#1
 10
35.0051
 20
25.3883
 30
0
 41
1.0
 42
1.0
 0
INSERT
 8
Layer0
 2
Component#1
 10
43.5923
 20
32.8897
 30
0
 41
1.0
 42
1.0
 0
INSERT
 8
Layer0
 2
Component#1
 10
34.2188
 20
33.7022
 30
0
 41
1.0
 42
1.0
 0
INSERT
 8
Layer0
 2
Component#1
 10
37.1706
 20
27.5538
 30
0
 41
1.0
 42
1.0
 0
INSERT
 8
Layer0
 2
Component#1
 10
37.2813
 20
33.7022
 30
0
 41
1.0
 42
1.0
 0
INSERT
 8
Layer0
 2
Component#1
 10
43.6005
 20
26.8272
 30
0
 41
1.0
 42
1.0
 0
INSERT
 8
Layer0
 2
Component#4
 10
20
 20
23.5331
 30
-0.25
 41
1.0
 42
1.0
 0
INSERT
 8
Layer0
 2
Component#1
 10
30.5923
 20
29.8585
 30
0
 41
1.0
 42
1.0
 0
INSERT
 8
Layer0
 2
Component#1
 10
22.0051
 20
25.3883
 30
0
 41
1.0
 42
1.0
 0
INSERT
 8
Layer0
 2
Component#1
 10
30.5923
 20
32.8897
 30
0
 41
1.0
 42
1.0
 0
INSERT
 8
Layer0
 2
Component#1
 10
21.2188
 20
33.7022
 30
0
 41
1.0
 42
1.0
 0
INSERT
 8
Layer0
 2
Component#1
 10
24.1706
 20
27.5538
 30
0
 41
1.0
 42
1.0
 0
INSERT
 8
Layer0
 2
Component#1
 10
24.2813
 20
33.7022
 30
0
 41
1.0
 42
1.0
 0
INSERT
 8
Layer0
 2
Component#1
 10
30.6005
 20
26.8272
 30
0
 41
1.0
 42
1.0
 0
INSERT
 8
Layer0
 2
Component#4
 10
21.75
 20
0
 30
-0.5
 41
1.0
 42
1.0
 0
INSERT
 8
Layer0
 2
Component#1
 10
32.3423
 20
6.3254
 30
-0.25
 41
1.0
 42
1.0
 0
INSERT
 8
Layer0
 2
Component#1
 10
23.7551
 20
1.8552
 30
-0.25
 41
1.0
 42
1.0
 0
INSERT
 8
Layer0
 2
Component#1
 10
32.3423
 20
9.3566
 30
-0.25
 41
1.0
 42
1.0
 0
INSERT
 8
Layer0
 2
Component#1
 10
22.9688
 20
10.1691
 30
-0.25
 41
1.0
 42
1.0
 0
INSERT
 8
Layer0
 2
Component#1
 10
25.9206
 20
4.0207
 30
-0.25
 41
1.0
 42
1.0
 0
INSERT
 8
Layer0
 2
Component#1
 10
26.0313
 20
10.1691
 30
-0.25
 41
1.0
 42
1.0
 0
INSERT
 8
Layer0
 2
Component#1
 10
32.3505
 20
3.2941
 30
-0.25
 41
1.0
 42
1.0
 0
INSERT
 8
Layer0
 2
Component#4
 10
7
 20
70.5993
 30
-0.5
 41
1.0
 42
1.0
 0
INSERT
 8
Layer0
 2
Component#1
 10
17.5923
 20
76.9246
 30
-0.25
 41
1.0
 42
1.0
 0
INSERT
 8
Layer0
 2
Component#1
 10
9.0051
 20
72.4545
 30
-0.25
 41
1.0
 42
1.0
 0
INSERT
 8
Layer0
 2
Component#1
 10
17.5923
 20
79.9559
 30
-0.25
 41
1.0
 42
1.0
 0
INSERT
 8
Layer0
 2
Component#1
 10
8.2188
 20
80.7684
 30
-0.25
 41
1.0
 42
1.0
 0
INSERT
 8
Layer0
 2
Component#1
 10
11.1706
 20
74.62
 30
-0.25
 41
1.0
 42
1.0
 0
INSERT
 8
Layer0
 2
Component#1
 10
11.2813
 20
80.7684
 30
-0.25
 41
1.0
 42
1.0
 0
INSERT
 8
Layer0
 2
Component#1
 10
17.6005
 20
73.8934
 30
-0.25
 41
1.0
 42
1.0
 0
INSERT
 8
Layer0
 2
Component#4
 10
20
 20
70.5993
 30
-0.5
 41
1.0
 42
1.0
 0
INSERT
 8
Layer0
 2
Component#1
 10
30.5923
 20
76.9246
 30
-0.25
 41
1.0
 42
1.0
 0
INSERT
 8
Layer0
 2
Component#1
 10
22.0051
 20
72.4545
 30
-0.25
 41
1.0
 42
1.0
 0
INSERT
 8
Layer0
 2
Component#1
 10
30.5923
 20
79.9559
 30
-0.25
 41
1.0
 42
1.0
 0
INSERT
 8
Layer0
 2
Component#1
 10
21.2188
 20
80.7684
 30
-0.25
 41
1.0
 42
1.0
 0
INSERT
 8
Layer0
 2
Component#1
 10
24.1706
 20
74.62
 30
-0.25
 41
1.0
 42
1.0
 0
INSERT
 8
Layer0
 2
Component#1
 10
24.2813
 20
80.7684
 30
-0.25
 41
1.0
 42
1.0
 0
INSERT
 8
Layer0
 2
Component#1
 10
30.6005
 20
73.8934
 30
-0.25
 41
1.0
 42
1.0
 0
INSERT
 8
Layer0
 2
Component#4
 10
33
 20
70.5993
 30
-0.5
 41
1.0
 42
1.0
 0
INSERT
 8
Layer0
 2
Component#1
 10
43.5923
 20
76.9246
 30
-0.25
 41
1.0
 42
1.0
 0
INSERT
 8
Layer0
 2
Component#1
 10
35.0051
 20
72.4545
 30
-0.25
 41
1.0
 42
1.0
 0
INSERT
 8
Layer0
 2
Component#1
 10
43.5923
 20
79.9559
 30
-0.25
 41
1.0
 42
1.0
 0
INSERT
 8
Layer0
 2
Component#1
 10
34.2188
 20
80.7684
 30
-0.25
 41
1.0
 42
1.0
 0
INSERT
 8
Layer0
 2
Component#1
 10
37.1706
 20
74.62
 30
-0.25
 41
1.0
 42
1.0
 0
INSERT
 8
Layer0
 2
Component#1
 10
37.2813
 20
80.7684
 30
-0.25
 41
1.0
 42
1.0
 0
INSERT
 8
Layer0
 2
Component#1
 10
43.6005
 20
73.8934
 30
-0.25
 41
1.0
 42
1.0
 0
INSERT
 8
Layer0
 2
Component#2
 10
0
 20
66.6746
 30
-0.5
 41
1.0
 42
1.0
 0
INSERT
 8
Layer0
 2
Component#1
 10
4.9688
 20
77.2684
 30
-0.25
 41
1.0
 42
1.0
 0
INSERT
 8
Layer0
 2
Component#1
 10
1.1364
 20
70.8934
 30
-0.25
 41
1.0
 42
1.0
 0
INSERT
 8
Layer0
 2
Component#1
 10
8.0313
 20
77.2684
 30
-0.25
 41
1.0
 42
1.0
 0
INSERT
 8
Layer0
 2
Component#1
 10
1.0938
 20
67.8309
 30
-0.25
 41
1.0
 42
1.0
 0
INSERT
 8
Layer0
 2
Component#1
 10
1.9063
 20
77.2684
 30
-0.25
 41
1.0
 42
1.0
 0
INSERT
 8
Layer0
 2
Component#2
 10
0
 20
19.6813
 30
-0.5
 41
1.0
 42
1.0
 0
INSERT
 8
Layer0
 2
Component#1
 10
4.9688
 20
30.2751
 30
-0.25
 41
1.0
 42
1.0
 0
INSERT
 8
Layer0
 2
Component#1
 10
1.1364
 20
23.9001
 30
-0.25
 41
1.0
 42
1.0
 0
INSERT
 8
Layer0
 2
Component#1
 10
8.0313
 20
30.2751
 30
-0.25
 41
1.0
 42
1.0
 0
INSERT
 8
Layer0
 2
Component#1
 10
1.0938
 20
20.8376
 30
-0.25
 41
1.0
 42
1.0
 0
INSERT
 8
Layer0
 2
Component#1
 10
1.9063
 20
30.2751
 30
-0.25
 41
1.0
 42
1.0
 0
INSERT
 8
Layer0
 2
Component#3
 10
0.5
 20
16.0754
 30
-0.5
 41
1.0
 42
1.0
 0
INSERT
 8
Layer0
 2
Component#1
 10
4.7188
 20
22.9816
 30
-0.25
 41
1.0
 42
1.0
 0
INSERT
 8
Layer0
 2
Component#1
 10
1.6563
 20
17.1691
 30
-0.25
 41
1.0
 42
1.0
 0
INSERT
 8
Layer0
 2
Component#1
 10
4.6494
 20
26.0789
 30
-0.25
 41
1.0
 42
1.0
 0
INSERT
 8
Layer0
 2
Component#1
 10
7.7813
 20
17.1691
 30
-0.25
 41
1.0
 42
1.0
 0
INSERT
 8
Layer0
 2
Component#1
 10
4.7188
 20
17.1691
 30
-0.25
 41
1.0
 42
1.0
 0
INSERT
 8
Layer0
 2
Component#3
 10
0.5
 20
63.0687
 30
-0.5
 41
1.0
 42
1.0
 0
INSERT
 8
Layer0
 2
Component#1
 10
4.7188
 20
69.9749
 30
-0.25
 41
1.0
 42
1.0
 0
INSERT
 8
Layer0
 2
Component#1
 10
1.6563
 20
64.1624
 30
-0.25
 41
1.0
 42
1.0
 0
INSERT
 8
Layer0
 2
Component#1
 10
4.6494
 20
73.0721
 30
-0.25
 41
1.0
 42
1.0
 0
INSERT
 8
Layer0
 2
Component#1
 10
7.7813
 20
64.1624
 30
-0.25
 41
1.0
 42
1.0
 0
INSERT
 8
Layer0
 2
Component#1
 10
4.7188
 20
64.1624
 30
-0.25
 41
1.0
 42
1.0
 0
INSERT
 8
Layer0
 2
Component#2
 10
0
 20
43.1746
 30
-0.5
 41
1.0
 42
1.0
 0
INSERT
 8
Layer0
 2
Component#1
 10
4.9688
 20
53.7684
 30
-0.25
 41
1.0
 42
1.0
 0
INSERT
 8
Layer0
 2
Component#1
 10
1.1364
 20
47.3934
 30
-0.25
 41
1.0
 42
1.0
 0
INSERT
 8
Layer0
 2
Component#1
 10
8.0313
 20
53.7684
 30
-0.25
 41
1.0
 42
1.0
 0
INSERT
 8
Layer0
 2
Component#1
 10
1.0938
 20
44.3309
 30
-0.25
 41
1.0
 42
1.0
 0
INSERT
 8
Layer0
 2
Component#1
 10
1.9063
 20
53.7684
 30
-0.25
 41
1.0
 42
1.0
 0
INSERT
 8
Layer0
 2
Component#3
 10
0
 20
3.8254
 30
-0.5
 41
1.0
 42
1.0
 0
INSERT
 8
Layer0
 2
Component#1
 10
4.2188
 20
10.7316
 30
-0.25
 41
1.0
 42
1.0
 0
INSERT
 8
Layer0
 2
Component#1
 10
1.1563
 20
4.9191
 30
-0.25
 41
1.0
 42
1.0
 0
INSERT
 8
Layer0
 2
Component#1
 10
4.1494
 20
13.8289
 30
-0.25
 41
1.0
 42
1.0
 0
INSERT
 8
Layer0
 2
Component#1
 10
7.2813
 20
4.9191
 30
-0.25
 41
1.0
 42
1.0
 0
INSERT
 8
Layer0
 2
Component#1
 10
4.2188
 20
4.9191
 30
-0.25
 41
1.0
 42
1.0
 0
INSERT
 8
Layer0
 2
Component#3
 10
0.5
 20
39.5356
 30
-0.5
 41
1.0
 42
1.0
 0
INSERT
 8
Layer0
 2
Component#1
 10
4.7188
 20
46.4418
 30
-0.25
 41
1.0
 42
1.0
 0
INSERT
 8
Layer0
 2
Component#1
 10
1.6563
 20
40.6293
 30
-0.25
 41
1.0
 42
1.0
 0
INSERT
 8
Layer0
 2
Component#1
 10
4.6494
 20
49.5391
 30
-0.25
 41
1.0
 42
1.0
 0
INSERT
 8
Layer0
 2
Component#1
 10
7.7813
 20
40.6293
 30
-0.25
 41
1.0
 42
1.0
 0
INSERT
 8
Layer0
 2
Component#1
 10
4.7188
 20
40.6293
 30
-0.25
 41
1.0
 42
1.0
 0
INSERT
 8
Layer0
 2
Component#3
 10
10
 20
91.6746
 30
-0.5
 41
1.0
 42
1.0
 50
180.0
 0
INSERT
 8
Layer0
 2
Component#1
 10
5.7813
 20
84.7684
 30
-0.25
 41
1.0
 42
1.0
 50
180.0
 0
INSERT
 8
Layer0
 2
Component#1
 10
8.8438
 20
90.5809
 30
-0.25
 41
1.0
 42
1.0
 50
180.0
 0
INSERT
 8
Layer0
 2
Component#1
 10
5.8506
 20
81.6711
 30
-0.25
 41
1.0
 42
1.0
 50
180.0
 0
INSERT
 8
Layer0
 2
Component#1
 10
2.7188
 20
90.5809
 30
-0.25
 41
1.0
 42
1.0
 50
180.0
 0
INSERT
 8
Layer0
 2
Component#1
 10
5.7813
 20
90.5809
 30
-0.25
 41
1.0
 42
1.0
 50
180.0
 0
ENDSEC
 0
EOF
