  0
SECTION
  2
HEADER
  9
$ACADVER
  1
AC1014
  9
$HANDSEED
  5
FFFF
  9
$MEASUREMENT
 70
     1
  0
ENDSEC
  0
SECTION
  2
TABLES
  0
TABLE
  2
VPORT
  5
8
330
0
100
AcDbSymbolTable
 70
     4
  0
VPORT
  5
2E
330
8
100
AcDbSymbolTableRecord
100
AcDbViewportTableRecord
  2
*ACTIVE
 70
     0
 10
0.0
 20
0.0
 11
1.0
 21
1.0
 12
210.0
 22
148.5
 13
0.0
 23
0.0
 14
10.0
 24
10.0
 15
10.0
 25
10.0
 16
0.0
 26
0.0
 36
1.0
 17
0.0
 27
0.0
 37
0.0
 40
341.0
 41
1.24
 42
50.0
 43
0.0
 44
0.0
 50
0.0
 51
0.0
 71
     0
 72
   100
 73
     1
 74
     3
 75
     0
 76
     0
 77
     0
 78
     0
  0
ENDTAB
  0
TABLE
  2
LTYPE
  5
5
330
0
100
AcDbSymbolTable
 70
     1
  0
LTYPE
  5
14
330
5
100
AcDbSymbolTableRecord
100
AcDbLinetypeTableRecord
  2
BYBLOCK
 70
     0
  3

 72
    65
 73
     0
 40
0.0
  0
LTYPE
  5
15
330
5
100
AcDbSymbolTableRecord
100
AcDbLinetypeTableRecord
  2
BYLAYER
 70
     0
  3

 72
    65
 73
     0
 40
0.0
  0
LTYPE
  5
16
330
5
100
AcDbSymbolTableRecord
100
AcDbLinetypeTableRecord
  2
CONTINUOUS
 70
     0
  3
Solid line
 72
    65
 73
     0
 40
0.0
  0
ENDTAB
  0
TABLE
  2
LAYER
  5
2
100
AcDbSymbolTable
 70
1
  0
LAYER
  5
50
100
AcDbSymbolTableRecord
100
AcDbLayerTableRecord
  2
0
 70
0
  6
CONTINUOUS
  0
ENDTAB
  0
TABLE
  2
STYLE
  5
3
330
0
100
AcDbSymbolTable
 70
     1
  0
STYLE
  5
11
330
3
100
AcDbSymbolTableRecord
100
AcDbTextStyleTableRecord
  2
STANDARD
 70
     0
 40
0.0
 41
1.0
 50
0.0
 71
     0
 42
2.5
  3
txt
  4

  0
ENDTAB
  0
TABLE
  2
VIEW
  5
6
330
0
100
AcDbSymbolTable
 70
     0
  0
ENDTAB
  0
TABLE
  2
UCS
  5
7
330
0
100
AcDbSymbolTable
 70
     0
  0
ENDTAB
  0
TABLE
  2
APPID
  5
9
330
0
100
AcDbSymbolTable
 70
     2
  0
APPID
  5
12
330
9
100
AcDbSymbolTableRecord
100
AcDbRegAppTableRecord
  2
ACAD
 70
     0
  0
ENDTAB
  0
TABLE
  2
DIMSTYLE
  5
A
330
0
100
AcDbSymbolTable
 70
     1
  0
DIMSTYLE
105
27
330
A
100
AcDbSymbolTableRecord
100
AcDbDimStyleTableRecord
  2
ISO-25
 70
     0
  3

  4

  5

  6

  7

 40
1.0
 41
2.5
 42
0.625
 43
3.75
 44
1.25
 45
0.0
 46
0.0
 47
0.0
 48
0.0
140
2.5
141
2.5
142
0.0
143
0.03937007874016
144
1.0
145
0.0
146
1.0
147
0.625
 71
     0
 72
     0
 73
     0
 74
     0
 75
     0
 76
     0
 77
     1
 78
     8
170
     0
171
     3
172
     1
173
     0
174
     0
175
     0
176
     0
177
     0
178
     0
270
     2
271
     2
272
     2
273
     2
274
     3
340
11
275
     0
280
     0
281
     0
282
     0
283
     0
284
     8
285
     0
286
     0
287
     3
288
     0
  0
ENDTAB
  0
TABLE
  2
BLOCK_RECORD
  5
1
330
0
100
AcDbSymbolTable
 70
     1
  0
BLOCK_RECORD
  5
1F
330
1
100
AcDbSymbolTableRecord
100
AcDbBlockTableRecord
  2
*MODEL_SPACE
  0
BLOCK_RECORD
  5
1B
330
1
100
AcDbSymbolTableRecord
100
AcDbBlockTableRecord
  2
*PAPER_SPACE
  0
ENDTAB
  0
ENDSEC
  0
SECTION
  2
BLOCKS
  0
BLOCK
  5
20
330
1F
100
AcDbEntity
  8
0
100
AcDbBlockBegin
  2
*MODEL_SPACE
 70
     0
 10
0.0
 20
0.0
 30
0.0
  3
*MODEL_SPACE
  1

  0
ENDBLK
  5
21
330
1F
100
AcDbEntity
  8
0
100
AcDbBlockEnd
  0
BLOCK
  5
1C
330
1B
100
AcDbEntity
 67
     1
  8
0
100
AcDbBlockBegin
  2
*PAPER_SPACE
  1

  0
ENDBLK
  5
1D
330
1B
100
AcDbEntity
 67
     1
  8
0
100
AcDbBlockEnd
  0
ENDSEC
  0
SECTION
  2
ENTITIES
  0
LWPOLYLINE
  5
100
100
AcDbEntity
  8
0
 62
1
100
AcDbPolyline
 90
4
 70
1
 10
0.000000
 20
108.000000
 30
0.0
 10
54.000000
 20
108.000000
 30
0.0
 10
54.000000
 20
0.000000
 30
0.0
 10
0.000000
 20
0.000000
 30
0.0
  0
SPLINE
  5
101
100
AcDbEntity
  8
0
 62
7
100
AcDbSpline
 70
8
 71
3
 72
8
 73
4
 74
0
 40
0
 40
0
 40
0
 40
0
 40
1
 40
1
 40
1
 40
1
 10
20.744153
 20
26.513766
 30
0.0
 10
22.325375
 20
22.074940
 30
0.0
 10
22.427082
 20
17.145431
 30
0.0
 10
21.173656
 20
12.613300
 30
0.0
  0
LWPOLYLINE
  5
102
100
AcDbEntity
  8
0
 62
7
100
AcDbPolyline
 90
4
 70
0
 10
19.574720
 20
29.254773
 30
0.0
 10
19.724928
 20
28.971781
 30
0.0
 10
20.261209
 20
27.755665
 30
0.0
 10
20.744153
 20
26.513766
 30
0.0
  0
SPLINE
  5
103
100
AcDbEntity
  8
0
 62
7
100
AcDbSpline
 70
8
 71
3
 72
8
 73
4
 74
0
 40
0
 40
0
 40
0
 40
0
 40
1
 40
1
 40
1
 40
1
 10
20.353087
 20
10.350503
 30
0.0
 10
19.290668
 20
7.932652
 30
0.0
 10
17.502646
 20
5.429615
 30
0.0
 10
14.835977
 20
4.676793
 30
0.0
  0
LWPOLYLINE
  5
104
100
AcDbEntity
  8
0
 62
7
100
AcDbPolyline
 90
3
 70
0
 10
21.173656
 20
12.613300
 30
0.0
 10
20.793683
 20
11.466944
 30
0.0
 10
20.353087
 20
10.350503
 30
0.0
  0
SPLINE
  5
105
100
AcDbEntity
  8
0
 62
7
100
AcDbSpline
 70
8
 71
3
 72
8
 73
4
 74
0
 40
0
 40
0
 40
0
 40
0
 40
1
 40
1
 40
1
 40
1
 10
12.113936
 20
4.681394
 30
0.0
 10
9.087214
 20
5.589316
 30
0.0
 10
7.165747
 20
8.670738
 30
0.0
 10
6.181505
 20
11.491643
 30
0.0
  0
LWPOLYLINE
  5
106
100
AcDbEntity
  8
0
 62
7
100
AcDbPolyline
 90
5
 70
0
 10
14.835977
 20
4.676793
 30
0.0
 10
14.171824
 20
4.552425
 30
0.0
 10
13.479370
 20
4.500002
 30
0.0
 10
12.793392
 20
4.542958
 30
0.0
 10
12.113936
 20
4.681394
 30
0.0
  0
SPLINE
  5
107
100
AcDbEntity
  8
0
 62
7
100
AcDbSpline
 70
8
 71
3
 72
8
 73
4
 74
0
 40
0
 40
0
 40
0
 40
0
 40
1
 40
1
 40
1
 40
1
 10
5.518636
 20
13.825883
 30
0.0
 10
4.585377
 20
17.964008
 30
0.0
 10
4.840499
 20
22.564915
 30
0.0
 10
6.280669
 20
26.557843
 30
0.0
  0
LWPOLYLINE
  5
108
100
AcDbEntity
  8
0
 62
7
100
AcDbPolyline
 90
3
 70
0
 10
6.181505
 20
11.491643
 30
0.0
 10
5.824631
 20
12.636557
 30
0.0
 10
5.518636
 20
13.825883
 30
0.0
  0
SPLINE
  5
109
100
AcDbEntity
  8
0
 62
7
100
AcDbSpline
 70
8
 71
3
 72
8
 73
4
 74
0
 40
0
 40
0
 40
0
 40
0
 40
1
 40
1
 40
1
 40
1
 10
8.106720
 20
30.823870
 30
0.0
 10
9.724156
 20
34.870152
 30
0.0
 10
10.524584
 20
39.073450
 30
0.0
 10
10.624371
 20
43.425334
 30
0.0
  0
LWPOLYLINE
  5
10a
100
AcDbEntity
  8
0
 62
7
100
AcDbPolyline
 90
5
 70
0
 10
6.280669
 20
26.557843
 30
0.0
 10
6.781022
 20
27.795520
 30
0.0
 10
7.323417
 20
29.000906
 30
0.0
 10
7.489090
 20
29.325063
 30
0.0
 10
8.106720
 20
30.823870
 30
0.0
  0
SPLINE
  5
10b
100
AcDbEntity
  8
0
 62
7
100
AcDbSpline
 70
8
 71
3
 72
8
 73
4
 74
0
 40
0
 40
0
 40
0
 40
0
 40
1
 40
1
 40
1
 40
1
 10
16.442627
 20
43.446003
 30
0.0
 10
16.507448
 20
38.978514
 30
0.0
 10
17.341684
 20
34.906893
 30
0.0
 10
18.946396
 20
30.742486
 30
0.0
  0
LWPOLYLINE
  5
10c
100
AcDbEntity
  8
0
 62
7
100
AcDbPolyline
 90
26
 70
0
 10
10.624371
 20
43.425334
 30
0.0
 10
10.623081
 20
45.032602
 30
0.0
 10
9.414909
 20
80.598317
 30
0.0
 10
9.387151
 20
83.280072
 30
0.0
 10
9.436134
 20
85.952927
 30
0.0
 10
9.559477
 20
88.635472
 30
0.0
 10
9.775772
 20
91.330166
 30
0.0
 10
10.832453
 20
102.814568
 30
0.0
 10
10.898733
 20
103.031189
 30
0.0
 10
11.004600
 20
103.234114
 30
0.0
 10
11.175921
 20
103.369925
 30
0.0
 10
11.370636
 20
103.470932
 30
0.0
 10
11.593689
 20
103.500000
 30
0.0
 10
15.656919
 20
103.500000
 30
0.0
 10
15.868608
 20
103.470869
 30
0.0
 10
16.071392
 20
103.364932
 30
0.0
 10
16.241870
 20
103.216933
 30
0.0
 10
16.342817
 20
103.022057
 30
0.0
 10
16.406602
 20
102.822339
 30
0.0
 10
17.430446
 20
91.325415
 30
0.0
 10
17.627900
 20
88.646811
 30
0.0
 10
17.750989
 20
85.958565
 30
0.0
 10
17.781167
 20
83.258222
 30
0.0
 10
17.753172
 20
80.569236
 30
0.0
 10
16.438869
 20
45.071875
 30
0.0
 10
16.442627
 20
43.446003
 30
0.0
  0
LWPOLYLINE
  5
10d
100
AcDbEntity
  8
0
 62
7
100
AcDbPolyline
 90
2
 70
0
 10
18.946396
 20
30.742486
 30
0.0
 10
19.574720
 20
29.254773
 30
0.0
  0
SPLINE
  5
10e
100
AcDbEntity
  8
0
 62
7
100
AcDbSpline
 70
8
 71
3
 72
8
 73
4
 74
0
 40
0
 40
0
 40
0
 40
0
 40
1
 40
1
 40
1
 40
1
 10
12.469934
 20
31.713968
 30
0.0
 10
8.122235
 20
30.457448
 30
0.0
 10
6.286855
 20
24.002780
 30
0.0
 10
6.146854
 20
20.034967
 30
0.0
  0
LWPOLYLINE
  5
10f
100
AcDbEntity
  8
0
 62
7
100
AcDbPolyline
 90
4
 70
0
 10
13.513046
 20
31.831001
 30
0.0
 10
13.173669
 20
31.824591
 30
0.0
 10
12.820592
 20
31.778578
 30
0.0
 10
12.469934
 20
31.713968
 30
0.0
  0
SPLINE
  5
110
100
AcDbEntity
  8
0
 62
7
100
AcDbSpline
 70
8
 71
3
 72
8
 73
4
 74
0
 40
0
 40
0
 40
0
 40
0
 40
1
 40
1
 40
1
 40
1
 10
6.125353
 20
17.441326
 30
0.0
 10
6.290835
 20
13.418144
 30
0.0
 10
8.177814
 20
6.642323
 30
0.0
 10
12.778278
 20
5.675704
 30
0.0
  0
LWPOLYLINE
  5
111
100
AcDbEntity
  8
0
 62
7
100
AcDbPolyline
 90
3
 70
0
 10
6.146854
 20
20.034967
 30
0.0
 10
6.107002
 20
18.743805
 30
0.0
 10
6.125353
 20
17.441326
 30
0.0
  0
SPLINE
  5
112
100
AcDbEntity
  8
0
 62
7
100
AcDbSpline
 70
8
 71
3
 72
8
 73
4
 74
0
 40
0
 40
0
 40
0
 40
0
 40
1
 40
1
 40
1
 40
1
 10
14.175245
 20
5.687539
 30
0.0
 10
18.584794
 20
6.528826
 30
0.0
 10
20.550844
 20
12.938421
 30
0.0
 10
20.819786
 20
16.784350
 30
0.0
  0
LWPOLYLINE
  5
113
100
AcDbEntity
  8
0
 62
7
100
AcDbPolyline
 90
5
 70
0
 10
12.778278
 20
5.675704
 30
0.0
 10
13.122452
 20
5.644888
 30
0.0
 10
13.485256
 20
5.616534
 30
0.0
 10
13.822132
 20
5.641522
 30
0.0
 10
14.175245
 20
5.687539
 30
0.0
  0
SPLINE
  5
114
100
AcDbEntity
  8
0
 62
7
100
AcDbSpline
 70
8
 71
3
 72
8
 73
4
 74
0
 40
0
 40
0
 40
0
 40
0
 40
1
 40
1
 40
1
 40
1
 10
20.907455
 20
18.724739
 30
0.0
 10
20.992221
 20
22.969066
 30
0.0
 10
19.279166
 20
30.337357
 30
0.0
 10
14.569035
 20
31.703854
 30
0.0
  0
LWPOLYLINE
  5
115
100
AcDbEntity
  8
0
 62
7
100
AcDbPolyline
 90
3
 70
0
 10
20.819786
 20
16.784350
 30
0.0
 10
20.870022
 20
17.414991
 30
0.0
 10
20.907455
 20
18.724739
 30
0.0
  0
LWPOLYLINE
  5
116
100
AcDbEntity
  8
0
 62
7
100
AcDbPolyline
 90
4
 70
0
 10
14.569035
 20
31.703854
 30
0.0
 10
14.219978
 20
31.771815
 30
0.0
 10
13.873388
 20
31.821194
 30
0.0
 10
13.513046
 20
31.831001
 30
0.0
  0
SPLINE
  5
117
100
AcDbEntity
  8
0
 62
7
100
AcDbSpline
 70
8
 71
3
 72
8
 73
4
 74
0
 40
0
 40
0
 40
0
 40
0
 40
1
 40
1
 40
1
 40
1
 10
36.483115
 20
43.146632
 30
0.0
 10
36.746815
 20
40.536216
 30
0.0
 10
37.294019
 20
38.061740
 30
0.0
 10
38.218496
 20
35.606349
 30
0.0
  0
LWPOLYLINE
  5
118
100
AcDbEntity
  8
0
 62
7
100
AcDbPolyline
 90
3
 70
0
 10
35.965196
 20
102.321429
 30
0.0
 10
36.363993
 20
44.712132
 30
0.0
 10
36.483115
 20
43.146632
 30
0.0
  0
SPLINE
  5
119
100
AcDbEntity
  8
0
 62
7
100
AcDbSpline
 70
8
 71
3
 72
8
 73
4
 74
0
 40
0
 40
0
 40
0
 40
0
 40
1
 40
1
 40
1
 40
1
 10
39.117664
 20
32.086497
 30
0.0
 10
40.231047
 20
23.690563
 30
0.0
 10
39.567763
 20
15.045492
 30
0.0
 10
37.209597
 20
6.916192
 30
0.0
  0
LWPOLYLINE
  5
11a
100
AcDbEntity
  8
0
 62
7
100
AcDbPolyline
 90
3
 70
0
 10
38.218496
 20
35.606349
 30
0.0
 10
38.813306
 20
34.184335
 30
0.0
 10
39.117664
 20
32.086497
 30
0.0
  0
SPLINE
  5
11b
100
AcDbEntity
  8
0
 62
7
100
AcDbSpline
 70
8
 71
3
 72
8
 73
4
 74
0
 40
0
 40
0
 40
0
 40
0
 40
1
 40
1
 40
1
 40
1
 10
37.002850
 20
4.652260
 30
0.0
 10
37.002850
 20
4.652264
 30
0.0
 10
39.053728
 20
4.500002
 30
0.0
 10
39.053728
 20
4.500002
 30
0.0
  0
LWPOLYLINE
  5
11c
100
AcDbEntity
  8
0
 62
7
100
AcDbPolyline
 90
7
 70
0
 10
37.209597
 20
6.916192
 30
0.0
 10
36.670212
 20
5.150586
 30
0.0
 10
36.646098
 20
5.015056
 30
0.0
 10
36.677939
 20
4.885261
 30
0.0
 10
36.745216
 20
4.778088
 30
0.0
 10
36.866607
 20
4.695390
 30
0.0
 10
37.002850
 20
4.652260
 30
0.0
  0
SPLINE
  5
11d
100
AcDbEntity
  8
0
 62
7
100
AcDbSpline
 70
8
 71
3
 72
8
 73
4
 74
0
 40
0
 40
0
 40
0
 40
0
 40
1
 40
1
 40
1
 40
1
 10
40.216734
 20
5.872990
 30
0.0
 10
45.708467
 20
14.293628
 30
0.0
 10
46.556236
 20
25.026791
 30
0.0
 10
42.520945
 20
34.238904
 30
0.0
  0
LWPOLYLINE
  5
11e
100
AcDbEntity
  8
0
 62
7
100
AcDbPolyline
 90
5
 70
0
 10
39.053728
 20
4.500002
 30
0.0
 10
39.184354
 20
4.513308
 30
0.0
 10
39.292510
 20
4.562383
 30
0.0
 10
39.396907
 20
4.648989
 30
0.0
 10
40.216734
 20
5.872990
 30
0.0
  0
SPLINE
  5
11f
100
AcDbEntity
  8
0
 62
7
100
AcDbSpline
 70
8
 71
3
 72
8
 73
4
 74
0
 40
0
 40
0
 40
0
 40
0
 40
1
 40
1
 40
1
 40
1
 10
41.318748
 20
36.644468
 30
0.0
 10
40.235552
 20
38.777295
 30
0.0
 10
39.592147
 20
41.133008
 30
0.0
 10
39.423474
 20
43.522178
 30
0.0
  0
LWPOLYLINE
  5
120
100
AcDbEntity
  8
0
 62
7
100
AcDbPolyline
 90
3
 70
0
 10
42.520945
 20
34.238904
 30
0.0
 10
41.896367
 20
35.581820
 30
0.0
 10
41.318748
 20
36.644468
 30
0.0
  0
SPLINE
  5
121
100
AcDbEntity
  8
0
 62
7
100
AcDbSpline
 70
8
 71
3
 72
8
 73
4
 74
0
 40
0
 40
0
 40
0
 40
0
 40
1
 40
1
 40
1
 40
1
 10
39.377517
 20
44.734002
 30
0.0
 10
39.377517
 20
44.734005
 30
0.0
 10
38.960059
 20
102.341399
 30
0.0
 10
38.960059
 20
102.341399
 30
0.0
  0
LWPOLYLINE
  5
122
100
AcDbEntity
  8
0
 62
7
100
AcDbPolyline
 90
2
 70
0
 10
39.423474
 20
43.522178
 30
0.0
 10
39.377517
 20
44.734002
 30
0.0
  0
SPLINE
  5
123
100
AcDbEntity
  8
0
 62
1
100
AcDbSpline
 70
8
 71
3
 72
8
 73
4
 74
0
 40
0
 40
0
 40
0
 40
0
 40
1
 40
1
 40
1
 40
1
 10
38.813368
 20
34.184331
 30
0.0
 10
42.128634
 20
23.713391
 30
0.0
 10
41.414248
 20
14.035479
 30
0.0
 10
36.670209
 20
5.150585
 30
0.0
  0
LWPOLYLINE
  5
124
100
AcDbEntity
  8
0
 62
7
100
AcDbPolyline
 90
14
 70
0
 10
38.960059
 20
102.341399
 30
0.0
 10
38.955708
 20
102.949184
 30
0.0
 10
38.938745
 20
103.118539
 30
0.0
 10
38.847125
 20
103.280289
 30
0.0
 10
38.722004
 20
103.400580
 30
0.0
 10
38.563343
 20
103.479434
 30
0.0
 10
38.391633
 20
103.500000
 30
0.0
 10
36.525656
 20
103.499999
 30
0.0
 10
36.340948
 20
103.462136
 30
0.0
 10
36.197360
 20
103.390502
 30
0.0
 10
36.059427
 20
103.262424
 30
0.0
 10
35.981192
 20
103.102371
 30
0.0
 10
35.960893
 20
102.929220
 30
0.0
 10
35.965196
 20
102.321429
 30
0.0
  0
SPLINE
  5
125
100
AcDbEntity
  8
0
 62
7
100
AcDbSpline
 70
8
 71
3
 72
8
 73
4
 74
0
 40
0
 40
0
 40
0
 40
0
 40
1
 40
1
 40
1
 40
1
 10
38.791114
 20
30.266518
 30
0.0
 10
38.645067
 20
22.435107
 30
0.0
 10
38.045937
 20
14.695656
 30
0.0
 10
36.924042
 20
6.944123
 30
0.0
  0
LWPOLYLINE
  5
126
100
AcDbEntity
  8
0
 62
7
100
AcDbPolyline
 90
2
 70
0
 10
38.813305
 20
34.184348
 30
0.0
 10
38.791114
 20
30.266518
 30
0.0
  0
SPLINE
  5
127
100
AcDbEntity
  8
0
 62
7
100
AcDbSpline
 70
8
 71
3
 72
8
 73
4
 74
0
 40
0
 40
0
 40
0
 40
0
 40
1
 40
1
 40
1
 40
1
 10
37.209560
 20
6.916200
 30
0.0
 10
39.567773
 20
15.045504
 30
0.0
 10
40.231046
 20
23.690575
 30
0.0
 10
39.117675
 20
32.086498
 30
0.0
  0
LWPOLYLINE
  5
128
100
AcDbEntity
  8
0
 62
7
100
AcDbPolyline
 90
3
 70
0
 10
36.924042
 20
6.944123
 30
0.0
 10
36.670217
 20
5.150551
 30
0.0
 10
37.209560
 20
6.916200
 30
0.0
  0
LWPOLYLINE
  5
129
100
AcDbEntity
  8
0
 62
7
100
AcDbPolyline
 90
2
 70
0
 10
39.117675
 20
32.086498
 30
0.0
 10
38.813305
 20
34.184348
 30
0.0
  0
ENDSEC
  0
SECTION
  2
OBJECTS
  0
DICTIONARY
  5
C
330
0
100
AcDbDictionary
  3
ACAD_GROUP
350
D
  3
ACAD_MLINESTYLE
350
17
  0
DICTIONARY
  5
D
330
C
100
AcDbDictionary
  0
DICTIONARY
  5
1A
330
C
100
AcDbDictionary
  0
DICTIONARY
  5
17
330
C
100
AcDbDictionary
  3
STANDARD
350
18
  0
DICTIONARY
  5
19
330
C
100
AcDbDictionary
  0
ENDSEC
  0
EOF
