  0
SECTION
  2
HEADER
  9
$ACADVER
  1
AC1014
  9
$ACADMAINTVER
 70
     9
  9
$DWGCODEPAGE
  3
MAC-ROMAN
  9
$INSBASE
 10
0.0
 20
0.0
 30
0.0
  9
$EXTMIN
 10
1.000000000000000E+20
 20
1.000000000000000E+20
 30
1.000000000000000E+20
  9
$EXTMAX
 10
-1.000000000000000E+20
 20
-1.000000000000000E+20
 30
-1.000000000000000E+20
  9
$LIMMIN
 10
0.0
 20
0.0
  9
$LIMMAX
 10
12.0
 20
9.0
  9
$ORTHOMODE
 70
     0
  9
$REGENMODE
 70
     1
  9
$FILLMODE
 70
     1
  9
$QTEXTMODE
 70
     0
  9
$MIRRTEXT
 70
     1
  9
$DRAGMODE
 70
     2
  9
$LTSCALE
 40
1.0
  9
$OSMODE
 70
    37
  9
$ATTMODE
 70
     1
  9
$TEXTSIZE
 40
0.2
  9
$TRACEWID
 40
0.05
  9
$TEXTSTYLE
  7
STANDARD
  9
$CLAYER
  8
0
  9
$CELTYPE
  6
BYLAYER
  9
$CECOLOR
 62
   256
  9
$CELTSCALE
 40
1.0
  9
$DELOBJ
 70
     1
  9
$DISPSILH
 70
     0
  9
$DIMSCALE
 40
1.0
  9
$DIMASZ
 40
0.18
  9
$DIMEXO
 40
0.0625
  9
$DIMDLI
 40
0.38
  9
$DIMRND
 40
0.0
  9
$DIMDLE
 40
0.0
  9
$DIMEXE
 40
0.18
  9
$DIMTP
 40
0.0
  9
$DIMTM
 40
0.0
  9
$DIMTXT
 40
0.18
  9
$DIMCEN
 40
0.09
  9
$DIMTSZ
 40
0.0
  9
$DIMTOL
 70
     0
  9
$DIMLIM
 70
     0
  9
$DIMTIH
 70
     1
  9
$DIMTOH
 70
     1
  9
$DIMSE1
 70
     0
  9
$DIMSE2
 70
     0
  9
$DIMTAD
 70
     0
  9
$DIMZIN
 70
     0
  9
$DIMBLK
  1

  9
$DIMASO
 70
     1
  9
$DIMSHO
 70
     1
  9
$DIMPOST
  1

  9
$DIMAPOST
  1

  9
$DIMALT
 70
     0
  9
$DIMALTD
 70
     2
  9
$DIMALTF
 40
25.4
  9
$DIMLFAC
 40
1.0
  9
$DIMTOFL
 70
     0
  9
$DIMTVP
 40
0.0
  9
$DIMTIX
 70
     0
  9
$DIMSOXD
 70
     0
  9
$DIMSAH
 70
     0
  9
$DIMBLK1
  1

  9
$DIMBLK2
  1

  9
$DIMSTYLE
  2
STANDARD
  9
$DIMCLRD
 70
     0
  9
$DIMCLRE
 70
     0
  9
$DIMCLRT
 70
     0
  9
$DIMTFAC
 40
1.0
  9
$DIMGAP
 40
0.09
  9
$DIMJUST
 70
     0
  9
$DIMSD1
 70
     0
  9
$DIMSD2
 70
     0
  9
$DIMTOLJ
 70
     1
  9
$DIMTZIN
 70
     0
  9
$DIMALTZ
 70
     0
  9
$DIMALTTZ
 70
     0
  9
$DIMFIT
 70
     3
  9
$DIMUPT
 70
     0
  9
$DIMUNIT
 70
     2
  9
$DIMDEC
 70
     4
  9
$DIMTDEC
 70
     4
  9
$DIMALTU
 70
     2
  9
$DIMALTTD
 70
     2
  9
$DIMTXSTY
  7
STANDARD
  9
$DIMAUNIT
 70
     0
  9
$LUNITS
 70
     2
  9
$LUPREC
 70
     4
  9
$SKETCHINC
 40
0.1
  9
$FILLETRAD
 40
0.5
  9
$AUNITS
 70
     0
  9
$AUPREC
 70
     0
  9
$MENU
  1
.
  9
$ELEVATION
 40
0.0
  9
$PELEVATION
 40
0.0
  9
$THICKNESS
 40
0.0
  9
$LIMCHECK
 70
     0
  9
$CHAMFERA
 40
0.0
  9
$CHAMFERB
 40
0.0
  9
$CHAMFERC
 40
0.0
  9
$CHAMFERD
 40
0.0
  9
$SKPOLY
 70
     0
  9
$TDCREATE
 40
2458095.667867211
  9
$TDUPDATE
 40
2458095.667878727
  9
$TDINDWG
 40
0.0000000116
  9
$TDUSRTIMER
 40
0.0000000116
  9
$USRTIMER
 70
     1
  9
$ANGBASE
 50
0.0
  9
$ANGDIR
 70
     0
  9
$PDMODE
 70
     0
  9
$PDSIZE
 40
0.0
  9
$PLINEWID
 40
0.0
  9
$COORDS
 70
     1
  9
$SPLFRAME
 70
     0
  9
$SPLINETYPE
 70
     6
  9
$SPLINESEGS
 70
     8
  9
$ATTDIA
 70
     0
  9
$ATTREQ
 70
     1
  9
$HANDLING
 70
     1
  9
$HANDSEED
  5
409
  9
$SURFTAB1
 70
     6
  9
$SURFTAB2
 70
     6
  9
$SURFTYPE
 70
     6
  9
$SURFU
 70
     6
  9
$SURFV
 70
     6
  9
$UCSNAME
  2

  9
$UCSORG
 10
0.0
 20
0.0
 30
0.0
  9
$UCSXDIR
 10
1.0
 20
0.0
 30
0.0
  9
$UCSYDIR
 10
0.0
 20
1.0
 30
0.0
  9
$PUCSNAME
  2

  9
$PUCSORG
 10
0.0
 20
0.0
 30
0.0
  9
$PUCSXDIR
 10
1.0
 20
0.0
 30
0.0
  9
$PUCSYDIR
 10
0.0
 20
1.0
 30
0.0
  9
$USERI1
 70
     0
  9
$USERI2
 70
     0
  9
$USERI3
 70
     0
  9
$USERI4
 70
     0
  9
$USERI5
 70
     0
  9
$USERR1
 40
0.0
  9
$USERR2
 40
0.0
  9
$USERR3
 40
0.0
  9
$USERR4
 40
0.0
  9
$USERR5
 40
0.0
  9
$WORLDVIEW
 70
     1
  9
$SHADEDGE
 70
     3
  9
$SHADEDIF
 70
    70
  9
$TILEMODE
 70
     1
  9
$MAXACTVP
 70
    64
  9
$PINSBASE
 10
0.0
 20
0.0
 30
0.0
  9
$PLIMCHECK
 70
     0
  9
$PEXTMIN
 10
1.000000000000000E+20
 20
1.000000000000000E+20
 30
1.000000000000000E+20
  9
$PEXTMAX
 10
-1.000000000000000E+20
 20
-1.000000000000000E+20
 30
-1.000000000000000E+20
  9
$PLIMMIN
 10
0.0
 20
0.0
  9
$PLIMMAX
 10
12.0
 20
9.0
  9
$UNITMODE
 70
     0
  9
$VISRETAIN
 70
     1
  9
$PLINEGEN
 70
     0
  9
$PSLTSCALE
 70
     1
  9
$TREEDEPTH
 70
  3020
  9
$PICKSTYLE
 70
     1
  9
$CMLSTYLE
  2
STANDARD
  9
$CMLJUST
 70
     0
  9
$CMLSCALE
 40
1.0
  9
$PROXYGRAPHICS
 70
     1
  9
$MEASUREMENT
 70
     0
  0
ENDSEC
  0
SECTION
  2
CLASSES
  0
CLASS
  1
ACDBDICTIONARYWDFLT
  2
AcDbDictionaryWithDefault
  3
ObjectDBX Classes
 90
        0
280
     0
281
     0
  0
CLASS
  1
VISUALSTYLE
  2
AcDbVisualStyle
  3
ObjectDBX Classes
 90
     4095
280
     0
281
     0
  0
CLASS
  1
MATERIAL
  2
AcDbMaterial
  3
ObjectDBX Classes
 90
     1153
280
     0
281
     0
  0
CLASS
  1
SCALE
  2
AcDbScale
  3
ObjectDBX Classes
 90
     1153
280
     0
281
     0
  0
CLASS
  1
TABLESTYLE
  2
AcDbTableStyle
  3
ObjectDBX Classes
 90
     4095
280
     0
281
     0
  0
CLASS
  1
MLEADERSTYLE
  2
AcDbMLeaderStyle
  3
ACDB_MLEADERSTYLE_CLASS
 90
     4095
280
     0
281
     0
  0
CLASS
  1
SUN
  2
AcDbSun
  3
SCENEOE
 90
     1153
280
     0
281
     0
  0
CLASS
  1
DICTIONARYVAR
  2
AcDbDictionaryVar
  3
ObjectDBX Classes
 90
        0
280
     0
281
     0
  0
CLASS
  1
XRECORD
  2
AcDbXrecord
  3
ObjectDBX Classes
 90
        0
280
     0
281
     0
  0
CLASS
  1
LWPOLYLINE
  2
AcDbPolyline
  3
ObjectDBX Classes
 90
        0
280
     0
281
     1
  0
CLASS
  1
HATCH
  2
AcDbHatch
  3
ObjectDBX Classes
 90
        0
280
     0
281
     1
  0
CLASS
  1
ACDBPLACEHOLDER
  2
AcDbPlaceHolder
  3
ObjectDBX Classes
 90
        0
280
     0
281
     0
  0
CLASS
  1
LAYOUT
  2
AcDbLayout
  3
ObjectDBX Classes
 90
        0
280
     0
281
     0
  0
ENDSEC
  0
SECTION
  2
TABLES
  0
TABLE
  2
VPORT
  5
8
102
{ACAD_XDICTIONARY
360
3FE
102
}
330
0
100
AcDbSymbolTable
 70
     1
  0
VPORT
  5
29
330
8
100
AcDbSymbolTableRecord
100
AcDbViewportTableRecord
  2
*ACTIVE
 70
     0
 10
0.0
 20
0.0
 11
1.0
 21
1.0
 12
0.0
 22
0.0
 13
0.0
 23
0.0
 14
0.5
 24
0.5
 15
0.5
 25
0.5
 16
0.0
 26
0.0
 36
1.0
 17
0.0
 27
0.0
 37
-1000.0
 40
116.8101936708716
 41
1.848523748395379
 42
50.0
 43
185.2373015547884
 44
357.420987390812
 50
0.0
 51
0.0
 71
     0
 72
   100
 73
     1
 74
     3
 75
     0
 76
     0
 77
     0
 78
     0
  0
ENDTAB
  0
TABLE
  2
LTYPE
  5
5
330
0
100
AcDbSymbolTable
 70
     1
  0
LTYPE
  5
14
330
5
100
AcDbSymbolTableRecord
100
AcDbLinetypeTableRecord
  2
BYBLOCK
 70
     0
  3

 72
    65
 73
     0
 40
0.0
  0
LTYPE
  5
15
330
5
100
AcDbSymbolTableRecord
100
AcDbLinetypeTableRecord
  2
BYLAYER
 70
     0
  3

 72
    65
 73
     0
 40
0.0
  0
LTYPE
  5
16
330
5
100
AcDbSymbolTableRecord
100
AcDbLinetypeTableRecord
  2
CONTINUOUS
 70
     0
  3
Solid line
 72
    65
 73
     0
 40
0.0
  0
ENDTAB
  0
TABLE
  2
LAYER
  5
2
330
0
100
AcDbSymbolTable
 70
     3
  0
LAYER
  5
10
330
2
100
AcDbSymbolTableRecord
100
AcDbLayerTableRecord
  2
0
 70
     0
 62
     7
  6
CONTINUOUS
  0
LAYER
  5
6E
330
2
100
AcDbSymbolTableRecord
100
AcDbLayerTableRecord
  2
PROFILEEDGES
 70
     0
 62
     7
  6
CONTINUOUS
  0
LAYER
  5
6F
330
2
100
AcDbSymbolTableRecord
100
AcDbLayerTableRecord
  2
SECTIONCUTEDGES
 70
     0
 62
     7
  6
CONTINUOUS
  0
ENDTAB
  0
TABLE
  2
STYLE
  5
3
330
0
100
AcDbSymbolTable
 70
     2
  0
STYLE
  5
11
330
3
100
AcDbSymbolTableRecord
100
AcDbTextStyleTableRecord
  2
STANDARD
 70
     0
 40
0.0
 41
1.0
 50
0.0
 71
     0
 42
0.2
  3
txt
  4

  0
STYLE
  5
3D1
330
3
100
AcDbSymbolTableRecord
100
AcDbTextStyleTableRecord
  2
TAHOMA
 70
     0
 40
0.0
 41
1.0
 50
0.0
 71
     0
 42
0.2
  3
Tahoma
  4

1001
ACAD
1000
Tahoma
1071
       34
  0
ENDTAB
  0
TABLE
  2
VIEW
  5
6
330
0
100
AcDbSymbolTable
 70
     0
  0
ENDTAB
  0
TABLE
  2
UCS
  5
7
330
0
100
AcDbSymbolTable
 70
     0
  0
ENDTAB
  0
TABLE
  2
APPID
  5
9
330
0
100
AcDbSymbolTable
 70
     2
  0
APPID
  5
12
330
9
100
AcDbSymbolTableRecord
100
AcDbRegAppTableRecord
  2
ACAD
 70
     0
  0
APPID
  5
408
330
9
100
AcDbSymbolTableRecord
100
AcDbRegAppTableRecord
  2
ACAD_MLEADERVER
 70
     0
  0
ENDTAB
  0
TABLE
  2
DIMSTYLE
  5
A
330
0
100
AcDbSymbolTable
 70
     1
  0
DIMSTYLE
105
27
330
A
100
AcDbSymbolTableRecord
100
AcDbDimStyleTableRecord
  2
STANDARD
 70
     0
  3

  4

  5

  6

  7

 40
1.0
 41
0.18
 42
0.0625
 43
0.38
 44
0.18
 45
0.0
 46
0.0
 47
0.0
 48
0.0
140
0.18
141
0.09
142
0.0
143
25.4
144
1.0
145
0.0
146
1.0
147
0.09
 71
     0
 72
     0
 73
     1
 74
     1
 75
     0
 76
     0
 77
     0
 78
     0
170
     0
171
     2
172
     0
173
     0
174
     0
175
     0
176
     0
177
     0
178
     0
270
     2
271
     4
272
     4
273
     2
274
     2
340
11
275
     0
280
     0
281
     0
282
     0
283
     1
284
     0
285
     0
286
     0
287
     3
288
     0
  0
ENDTAB
  0
TABLE
  2
BLOCK_RECORD
  5
1
330
0
100
AcDbSymbolTable
 70
     1
  0
BLOCK_RECORD
  5
1F
330
1
100
AcDbSymbolTableRecord
100
AcDbBlockTableRecord
  2
*MODEL_SPACE
  0
BLOCK_RECORD
  5
1B
330
1
100
AcDbSymbolTableRecord
100
AcDbBlockTableRecord
  2
*PAPER_SPACE
  0
ENDTAB
  0
ENDSEC
  0
SECTION
  2
BLOCKS
  0
BLOCK
  5
20
330
1F
100
AcDbEntity
  8
0
100
AcDbBlockBegin
  2
*MODEL_SPACE
 70
     0
 10
0.0
 20
0.0
 30
0.0
  3
*MODEL_SPACE
  1

  0
ENDBLK
  5
21
330
1F
100
AcDbEntity
  8
0
100
AcDbBlockEnd
  0
BLOCK
  5
1C
330
1B
100
AcDbEntity
 67
     1
  8
0
100
AcDbBlockBegin
  2
*PAPER_SPACE
 70
     0
 10
0.0
 20
0.0
 30
0.0
  3
*PAPER_SPACE
  1

  0
ENDBLK
  5
1D
330
1B
100
AcDbEntity
 67
     1
  8
0
100
AcDbBlockEnd
  0
ENDSEC
  0
SECTION
  2
ENTITIES
  0
LINE
  5
70
330
1F
100
AcDbEntity
  8
0
100
AcDbLine
 10
23.07015373716752
 20
20.72479115640244
 30
0.0
 11
25.6913572860691
 21
20.72479115640244
 31
0.0
  0
LINE
  5
71
330
1F
100
AcDbEntity
  8
0
100
AcDbLine
 10
25.6913572860691
 20
20.72479115640244
 30
0.0
 11
25.6913572860691
 21
12.00322449482019
 31
0.0
  0
LINE
  5
72
330
1F
100
AcDbEntity
  8
0
100
AcDbLine
 10
25.6913572860691
 20
12.00322449482019
 30
0.0
 11
23.99319607041503
 21
12.00322449482019
 31
0.0
  0
LINE
  5
73
330
1F
100
AcDbEntity
  8
0
100
AcDbLine
 10
23.99319607041503
 20
12.00322449482019
 30
0.0
 11
23.99319607041503
 21
17.90241171435717
 31
0.0
  0
LINE
  5
74
330
1F
100
AcDbEntity
  8
0
100
AcDbLine
 10
24.0050299464823
 20
19.32247684243026
 30
0.0
 11
22.35420423509733
 21
12.00322449482019
 31
0.0
  0
LINE
  5
75
330
1F
100
AcDbEntity
  8
0
100
AcDbLine
 10
22.35420423509733
 20
12.00322449482019
 30
0.0
 11
20.5850397630396
 21
12.00322449482019
 31
0.0
  0
LINE
  5
76
330
1F
100
AcDbEntity
  8
0
100
AcDbLine
 10
20.5850397630396
 20
12.00322449482019
 30
0.0
 11
18.9460479277219
 21
19.32247684243026
 31
0.0
  0
LINE
  5
77
330
1F
100
AcDbEntity
  8
0
100
AcDbLine
 10
18.95788180378918
 20
17.90241171435717
 30
0.0
 11
18.95788180378918
 21
12.00322449482019
 31
0.0
  0
LINE
  5
78
330
1F
100
AcDbEntity
  8
0
100
AcDbLine
 10
18.95788180378918
 20
12.00322449482019
 30
0.0
 11
17.2597205881351
 21
12.00322449482019
 31
0.0
  0
LINE
  5
79
330
1F
100
AcDbEntity
  8
0
100
AcDbLine
 10
17.2597205881351
 20
12.00322449482019
 30
0.0
 11
17.2597205881351
 21
20.72479115640244
 31
0.0
  0
LINE
  5
7A
330
1F
100
AcDbEntity
  8
0
100
AcDbLine
 10
17.2597205881351
 20
20.72479115640244
 30
0.0
 11
19.91050882720488
 21
20.72479115640244
 31
0.0
  0
LINE
  5
7B
330
1F
100
AcDbEntity
  8
0
100
AcDbLine
 10
19.91050882720488
 20
20.72479115640244
 30
0.0
 11
21.49624822021983
 21
13.86705997541612
 31
0.0
  0
LINE
  5
7C
330
1F
100
AcDbEntity
  8
0
100
AcDbLine
 10
21.49624822021983
 20
13.86705997541612
 30
0.0
 11
23.07015373716752
 21
20.72479115640244
 31
0.0
  0
LINE
  5
7D
330
1F
100
AcDbEntity
  8
0
100
AcDbLine
 10
-0.100813757410729
 20
19.21005501979115
 30
0.0
 11
-0.100813757410729
 21
17.28705015885883
 31
0.0
  0
LINE
  5
7E
330
1F
100
AcDbEntity
  8
0
100
AcDbLine
 10
-0.100813757410729
 20
17.28705015885883
 30
0.0
 11
2.041117810766189
 21
17.28705015885883
 31
0.0
  0
LINE
  5
7F
330
1F
100
AcDbEntity
  8
0
100
AcDbLine
 10
2.041117810766189
 20
17.28705015885883
 30
0.0
 11
2.561069010432417
 21
17.34104194845548
 31
0.0
  0
LINE
  5
80
330
1F
100
AcDbEntity
  8
0
100
AcDbLine
 10
2.561069010432417
 20
17.34104194845548
 30
0.0
 11
2.973035551064157
 21
17.50301839708661
 31
0.0
  0
LINE
  5
81
330
1F
100
AcDbEntity
  8
0
100
AcDbLine
 10
2.973035551064157
 20
17.50301839708661
 30
0.0
 11
3.241517061808915
 21
17.80256296715578
 31
0.0
  0
LINE
  5
82
330
1F
100
AcDbEntity
  8
0
100
AcDbLine
 10
3.241517061808915
 20
17.80256296715578
 30
0.0
 11
3.33101030209925
 21
18.26926187244272
 31
0.0
  0
LINE
  5
83
330
1F
100
AcDbEntity
  8
0
100
AcDbLine
 10
3.33101030209925
 20
18.26926187244272
 30
0.0
 11
3.212672133120296
 21
18.77516059205084
 31
0.0
  0
LINE
  5
84
330
1F
100
AcDbEntity
  8
0
100
AcDbLine
 10
3.212672133120296
 20
18.77516059205084
 30
0.0
 11
3.064748756241073
 21
18.95044937465954
 31
0.0
  0
LINE
  5
85
330
1F
100
AcDbEntity
  8
0
100
AcDbLine
 10
3.064748756241073
 20
18.95044937465954
 30
0.0
 11
2.857655259408218
 21
19.07396544501747
 31
0.0
  0
LINE
  5
86
330
1F
100
AcDbEntity
  8
0
100
AcDbLine
 10
2.857655259408218
 20
19.07396544501747
 30
0.0
 11
2.3931759048222
 21
19.17603279620969
 31
0.0
  0
LINE
  5
87
330
1F
100
AcDbEntity
  8
0
100
AcDbLine
 10
2.3931759048222
 20
19.17603279620969
 30
0.0
 11
1.816274165487949
 21
19.21005501979115
 31
0.0
  0
LINE
  5
88
330
1F
100
AcDbEntity
  8
0
100
AcDbLine
 10
1.816274165487949
 20
19.21005501979115
 30
0.0
 11
-0.100813757410729
 21
19.21005501979115
 31
0.0
  0
LINE
  5
89
330
1F
100
AcDbEntity
  8
0
100
AcDbLine
 10
-0.100813757410729
 20
15.84331727865118
 30
0.0
 11
-0.100813757410729
 21
13.51796063143149
 31
0.0
  0
LINE
  5
8A
330
1F
100
AcDbEntity
  8
0
100
AcDbLine
 10
-0.100813757410729
 20
13.51796063143149
 30
0.0
 11
2.041117810766189
 21
13.51796063143149
 31
0.0
  0
LINE
  5
8B
330
1F
100
AcDbEntity
  8
0
100
AcDbLine
 10
2.041117810766189
 20
13.51796063143149
 30
0.0
 11
2.551454034202876
 21
13.55642053634965
 31
0.0
  0
LINE
  5
8C
330
1F
100
AcDbEntity
  8
0
100
AcDbLine
 10
2.551454034202876
 20
13.55642053634965
 30
0.0
 11
2.934575453845511
 21
13.67180102030608
 31
0.0
  0
LINE
  5
8D
330
1F
100
AcDbEntity
  8
0
100
AcDbLine
 10
2.934575453845511
 20
13.67180102030608
 30
0.0
 11
3.188264987465758
 21
13.84635071448691
 31
0.0
  0
LINE
  5
8E
330
1F
100
AcDbEntity
  8
0
100
AcDbLine
 10
3.188264987465758
 20
13.84635071448691
 30
0.0
 11
3.369471124142806
 21
14.08598603179755
 31
0.0
  0
LINE
  5
8F
330
1F
100
AcDbEntity
  8
0
100
AcDbLine
 10
3.369471124142806
 20
14.08598603179755
 30
0.0
 11
3.478194407495334
 21
14.39070799290979
 31
0.0
  0
LINE
  5
90
330
1F
100
AcDbEntity
  8
0
100
AcDbLine
 10
3.478194407495334
 20
14.39070799290979
 30
0.0
 11
3.514435381142025
 21
14.76051761849545
 31
0.0
  0
LINE
  5
91
330
1F
100
AcDbEntity
  8
0
100
AcDbLine
 10
3.514435381142025
 20
14.76051761849545
 30
0.0
 11
3.479303825055946
 21
15.0741161718948
 31
0.0
  0
LINE
  5
92
330
1F
100
AcDbEntity
  8
0
100
AcDbLine
 10
3.479303825055946
 20
15.0741161718948
 30
0.0
 11
3.373908805479515
 21
15.33446114028275
 31
0.0
  0
LINE
  5
93
330
1F
100
AcDbEntity
  8
0
100
AcDbLine
 10
3.373908805479515
 20
15.33446114028275
 30
0.0
 11
3.198249795435439
 21
15.54155340010575
 31
0.0
  0
LINE
  5
94
330
1F
100
AcDbEntity
  8
0
100
AcDbLine
 10
3.198249795435439
 20
15.54155340010575
 30
0.0
 11
2.952326267946425
 21
15.69539382781023
 31
0.0
  0
LINE
  5
95
330
1F
100
AcDbEntity
  8
0
100
AcDbLine
 10
2.952326267946425
 20
15.69539382781023
 30
0.0
 11
2.575121786337429
 21
15.80337811703609
 31
0.0
  0
LINE
  5
96
330
1F
100
AcDbEntity
  8
0
100
AcDbLine
 10
2.575121786337429
 20
15.80337811703609
 30
0.0
 11
2.070702500934378
 21
15.84331727865118
 31
0.0
  0
LINE
  5
97
330
1F
100
AcDbEntity
  8
0
100
AcDbLine
 10
2.070702500934378
 20
15.84331727865118
 30
0.0
 11
-0.100813757410729
 21
15.84331727865118
 31
0.0
  0
LINE
  5
98
330
1F
100
AcDbEntity
  8
0
100
AcDbLine
 10
4.668238297701414
 20
19.7958318851213
 30
0.0
 11
4.970002640356681
 21
19.18490830680657
 31
0.0
  0
LINE
  5
99
330
1F
100
AcDbEntity
  8
0
100
AcDbLine
 10
4.970002640356681
 20
19.18490830680657
 30
0.0
 11
5.070590083988792
 21
18.46452082755277
 31
0.0
  0
LINE
  5
9A
330
1F
100
AcDbEntity
  8
0
100
AcDbLine
 10
5.070590083988792
 20
18.46452082755277
 30
0.0
 11
4.970002640356681
 21
17.74413322996021
 31
0.0
  0
LINE
  5
9B
330
1F
100
AcDbEntity
  8
0
100
AcDbLine
 10
4.970002640356681
 20
17.74413322996021
 30
0.0
 11
4.668238297701414
 21
17.18054527425334
 31
0.0
  0
LINE
  5
9C
330
1F
100
AcDbEntity
  8
0
100
AcDbLine
 10
4.668238297701414
 20
17.18054527425334
 30
0.0
 11
4.390142476382645
 21
16.9201999416039
 31
0.0
  0
LINE
  5
9D
330
1F
100
AcDbEntity
  8
0
100
AcDbLine
 10
4.390142476382645
 20
16.9201999416039
 30
0.0
 11
4.00554123793397
 21
16.68352247942777
 31
0.0
  0
LINE
  5
9E
330
1F
100
AcDbEntity
  8
0
100
AcDbLine
 10
4.00554123793397
 20
16.68352247942777
 30
0.0
 11
4.592058131005903
 21
16.36992511866124
 31
0.0
  0
LINE
  5
9F
330
1F
100
AcDbEntity
  8
0
100
AcDbLine
 10
4.592058131005903
 20
16.36992511866124
 30
0.0
 11
5.014379172669231
 21
15.91432053505484
 31
0.0
  0
LINE
  5
A0
330
1F
100
AcDbEntity
  8
0
100
AcDbLine
 10
5.014379172669231
 20
15.91432053505484
 30
0.0
 11
5.269547550649786
 21
15.33150241979606
 31
0.0
  0
LINE
  5
A1
330
1F
100
AcDbEntity
  8
0
100
AcDbLine
 10
5.269547550649786
 20
15.33150241979606
 30
0.0
 11
5.35460310960341
 21
14.63626191978905
 31
0.0
  0
LINE
  5
A2
330
1F
100
AcDbEntity
  8
0
100
AcDbLine
 10
5.35460310960341
 20
14.63626191978905
 30
0.0
 11
5.256974120195773
 21
13.90108216941289
 31
0.0
  0
LINE
  5
A3
330
1F
100
AcDbEntity
  8
0
100
AcDbLine
 10
5.256974120195773
 20
13.90108216941289
 30
0.0
 11
4.96408519938331
 21
13.24578148188415
 31
0.0
  0
LINE
  5
A4
330
1F
100
AcDbEntity
  8
0
100
AcDbLine
 10
4.96408519938331
 20
13.24578148188415
 30
0.0
 11
4.684510032613542
 21
12.87005575403234
 31
0.0
  0
LINE
  5
A5
330
1F
100
AcDbEntity
  8
0
100
AcDbLine
 10
4.684510032613542
 20
12.87005575403234
 30
0.0
 11
4.342806705851331
 21
12.55941666998215
 31
0.0
  0
LINE
  5
A6
330
1F
100
AcDbEntity
  8
0
100
AcDbLine
 10
4.342806705851331
 20
12.55941666998215
 30
0.0
 11
3.884983814100998
 21
12.29019573798176
 31
0.0
  0
LINE
  5
A7
330
1F
100
AcDbEntity
  8
0
100
AcDbLine
 10
3.884983814100998
 20
12.29019573798176
 30
0.0
 11
3.351719585216983
 21
12.12156325549295
 31
0.0
  0
LINE
  5
A8
330
1F
100
AcDbEntity
  8
0
100
AcDbLine
 10
3.351719585216983
 20
12.12156325549295
 30
0.0
 11
2.112121067169844
 21
12.00322449482019
 31
0.0
  0
LINE
  5
A9
330
1F
100
AcDbEntity
  8
0
100
AcDbLine
 10
2.112121067169844
 20
12.00322449482019
 30
0.0
 11
-1.84039353930027
 21
12.00322449482019
 31
0.0
  0
LINE
  5
AA
330
1F
100
AcDbEntity
  8
0
100
AcDbLine
 10
-1.84039353930027
 20
12.00322449482019
 30
0.0
 11
-1.84039353930027
 21
20.72479115640244
 31
0.0
  0
LINE
  5
AB
330
1F
100
AcDbEntity
  8
0
100
AcDbLine
 10
-1.84039353930027
 20
20.72479115640244
 30
0.0
 11
2.396134092784463
 21
20.72479115640244
 31
0.0
  0
LINE
  5
AC
330
1F
100
AcDbEntity
  8
0
100
AcDbLine
 10
2.396134092784463
 20
20.72479115640244
 30
0.0
 11
3.139451374755517
 21
20.65785618596954
 31
0.0
  0
LINE
  5
AD
330
1F
100
AcDbEntity
  8
0
100
AcDbLine
 10
3.139451374755517
 20
20.65785618596954
 30
0.0
 11
3.765906416166898
 21
20.48071856454459
 31
0.0
  0
LINE
  5
AE
330
1F
100
AcDbEntity
  8
0
100
AcDbLine
 10
3.765906416166898
 20
20.48071856454459
 30
0.0
 11
4.275501347116299
 21
20.19337742122828
 31
0.0
  0
LINE
  5
AF
330
1F
100
AcDbEntity
  8
0
100
AcDbLine
 10
4.275501347116299
 20
20.19337742122828
 30
0.0
 11
4.668238297701414
 21
19.7958318851213
 31
0.0
  0
LINE
  5
B0
330
1F
100
AcDbEntity
  8
0
100
AcDbLine
 10
-32.69150669382383
 20
12.00322449482019
 30
0.0
 11
-32.69150669382383
 21
20.76488806569984
 31
0.0
  0
LINE
  5
B1
330
1F
100
AcDbEntity
  8
0
100
AcDbLine
 10
-32.69150669382383
 20
20.76488806569984
 30
0.0
 11
-29.38645897574986
 21
20.76488806569984
 31
0.0
  0
LINE
  5
B2
330
1F
100
AcDbEntity
  8
0
100
AcDbLine
 10
-29.38645897574986
 20
20.76488806569984
 30
0.0
 11
-28.05368204784661
 21
20.68121597157139
 31
0.0
  0
LINE
  5
B3
330
1F
100
AcDbEntity
  8
0
100
AcDbLine
 10
-28.05368204784661
 20
20.68121597157139
 30
0.0
 11
-27.46050640478209
 21
20.52507811014803
 31
0.0
  0
LINE
  5
B4
330
1F
100
AcDbEntity
  8
0
100
AcDbLine
 10
-27.46050640478209
 20
20.52507811014803
 30
0.0
 11
-26.97192140232873
 21
20.27182036815716
 31
0.0
  0
LINE
  5
B5
330
1F
100
AcDbEntity
  8
0
100
AcDbLine
 10
-26.97192140232873
 20
20.27182036815716
 30
0.0
 11
-26.57821410364799
 21
19.90949062025446
 31
0.0
  0
LINE
  5
B6
330
1F
100
AcDbEntity
  8
0
100
AcDbLine
 10
-26.57821410364799
 20
19.90949062025446
 30
0.0
 11
-26.26967346946491
 21
19.42613455964456
 31
0.0
  0
LINE
  5
B7
330
1F
100
AcDbEntity
  8
0
100
AcDbLine
 10
-26.26967346946491
 20
19.42613455964456
 30
0.0
 11
-26.07020484119366
 21
18.85537148059847
 31
0.0
  0
LINE
  5
B8
330
1F
100
AcDbEntity
  8
0
100
AcDbLine
 10
-26.07020484119366
 20
18.85537148059847
 30
0.0
 11
-26.00371574169946
 21
18.23081892923806
 31
0.0
  0
LINE
  5
B9
330
1F
100
AcDbEntity
  8
0
100
AcDbLine
 10
-26.00371574169946
 20
18.23081892923806
 30
0.0
 11
-26.0481662083242
 21
17.69348599090057
 31
0.0
  0
LINE
  5
BA
330
1F
100
AcDbEntity
  8
0
100
AcDbLine
 10
-26.0481662083242
 20
17.69348599090057
 30
0.0
 11
-26.18151805270643
 21
17.19911169617689
 31
0.0
  0
LINE
  5
BB
330
1F
100
AcDbEntity
  8
0
100
AcDbLine
 10
-26.18151805270643
 20
17.19911169617689
 30
0.0
 11
-26.40377194160814
 21
16.74769427170423
 31
0.0
  0
LINE
  5
BC
330
1F
100
AcDbEntity
  8
0
100
AcDbLine
 10
-26.40377194160814
 20
16.74769427170423
 30
0.0
 11
-26.71492854179133
 21
16.33923194411977
 31
0.0
  0
LINE
  5
BD
330
1F
100
AcDbEntity
  8
0
100
AcDbLine
 10
-26.71492854179133
 20
16.33923194411977
 30
0.0
 11
-27.14225400853162
 21
16.00062034980277
 31
0.0
  0
LINE
  5
BE
330
1F
100
AcDbEntity
  8
0
100
AcDbLine
 10
-27.14225400853162
 20
16.00062034980277
 30
0.0
 11
-27.713015658802
 21
15.75875582364503
 31
0.0
  0
LINE
  5
BF
330
1F
100
AcDbEntity
  8
0
100
AcDbLine
 10
-27.713015658802
 20
15.75875582364503
 30
0.0
 11
-28.42721590191054
 21
15.6136376400526
 31
0.0
  0
LINE
  5
C0
330
1F
100
AcDbEntity
  8
0
100
AcDbLine
 10
-28.42721590191054
 20
15.6136376400526
 30
0.0
 11
-29.2848571471653
 21
15.56526507343156
 31
0.0
  0
LINE
  5
C1
330
1F
100
AcDbEntity
  8
0
100
AcDbLine
 10
-29.2848571471653
 20
15.56526507343156
 30
0.0
 11
-31.53205053232953
 21
15.56526507343156
 31
0.0
  0
LINE
  5
C2
330
1F
100
AcDbEntity
  8
0
100
AcDbLine
 10
-31.53205053232953
 20
15.56526507343156
 30
0.0
 11
-31.53205053232953
 21
12.00322449482019
 31
0.0
  0
LINE
  5
C3
330
1F
100
AcDbEntity
  8
0
100
AcDbLine
 10
-31.53205053232953
 20
12.00322449482019
 30
0.0
 11
-32.69150669382383
 21
12.00322449482019
 31
0.0
  0
LINE
  5
C4
330
1F
100
AcDbEntity
  8
0
100
AcDbLine
 10
-31.53205053232953
 20
16.59921309373319
 30
0.0
 11
-29.26692741270921
 21
16.59921309373319
 31
0.0
  0
LINE
  5
C5
330
1F
100
AcDbEntity
  8
0
100
AcDbLine
 10
-29.26692741270921
 20
16.59921309373319
 30
0.0
 11
-28.30619166046121
 21
16.70380268844317
 31
0.0
  0
LINE
  5
C6
330
1F
100
AcDbEntity
  8
0
100
AcDbLine
 10
-28.30619166046121
 20
16.70380268844317
 30
0.0
 11
-27.67118104611653
 21
17.01757356437546
 31
0.0
  0
LINE
  5
C7
330
1F
100
AcDbEntity
  8
0
100
AcDbLine
 10
-27.67118104611653
 20
17.01757356437546
 30
0.0
 11
-27.31706820042151
 21
17.52109984785301
 31
0.0
  0
LINE
  5
C8
330
1F
100
AcDbEntity
  8
0
100
AcDbLine
 10
-27.31706820042151
 20
17.52109984785301
 30
0.0
 11
-27.19903137210596
 21
18.19495946032587
 31
0.0
  0
LINE
  5
C9
330
1F
100
AcDbEntity
  8
0
100
AcDbLine
 10
-27.19903137210596
 20
18.19495946032587
 30
0.0
 11
-27.26850874573474
 21
18.70521001802979
 31
0.0
  0
LINE
  5
CA
330
1F
100
AcDbEntity
  8
0
100
AcDbLine
 10
-27.26850874573474
 20
18.70521001802979
 30
0.0
 11
-27.47694225617547
 21
19.13627051927098
 31
0.0
  0
LINE
  5
CB
330
1F
100
AcDbEntity
  8
0
100
AcDbLine
 10
-27.47694225617547
 20
19.13627051927098
 30
0.0
 11
-27.79893018372991
 21
19.46124728873491
 31
0.0
  0
LINE
  5
CC
330
1F
100
AcDbEntity
  8
0
100
AcDbLine
 10
-27.79893018372991
 20
19.46124728873491
 30
0.0
 11
-28.20907307979946
 21
19.6532445294218
 31
0.0
  0
LINE
  5
CD
330
1F
100
AcDbEntity
  8
0
100
AcDbLine
 10
-28.20907307979946
 20
19.6532445294218
 30
0.0
 11
-29.29083372531734
 21
19.73094004539822
 31
0.0
  0
LINE
  5
CE
330
1F
100
AcDbEntity
  8
0
100
AcDbLine
 10
-29.29083372531734
 20
19.73094004539822
 30
0.0
 11
-31.53205053232953
 21
19.73094004539822
 31
0.0
  0
LINE
  5
CF
330
1F
100
AcDbEntity
  8
0
100
AcDbLine
 10
-31.53205053232953
 20
19.73094004539822
 30
0.0
 11
-31.53205053232953
 21
16.59921309373319
 31
0.0
  0
LINE
  5
D0
330
1F
100
AcDbEntity
  8
0
100
AcDbLine
 10
7.81962835260236
 20
12.00322449482019
 30
0.0
 11
6.009045314309164
 21
12.00322449482019
 31
0.0
  0
LINE
  5
D1
330
1F
100
AcDbEntity
  8
0
100
AcDbLine
 10
6.009045314309164
 20
12.00322449482019
 30
0.0
 11
6.009045314309164
 21
20.72479115640244
 31
0.0
  0
LINE
  5
D2
330
1F
100
AcDbEntity
  8
0
100
AcDbLine
 10
6.009045314309164
 20
20.72479115640244
 30
0.0
 11
7.81962835260236
 21
20.72479115640244
 31
0.0
  0
LINE
  5
D3
330
1F
100
AcDbEntity
  8
0
100
AcDbLine
 10
7.81962835260236
 20
20.72479115640244
 30
0.0
 11
7.81962835260236
 21
12.00322449482019
 31
0.0
  0
LINE
  5
D4
330
1F
100
AcDbEntity
  8
0
100
AcDbLine
 10
-17.61343079928189
 20
12.00322449482019
 30
0.0
 11
-17.61343079928189
 21
20.76488806569984
 31
0.0
  0
LINE
  5
D5
330
1F
100
AcDbEntity
  8
0
100
AcDbLine
 10
-17.61343079928189
 20
20.76488806569984
 30
0.0
 11
-13.72865500046077
 21
20.76488806569984
 31
0.0
  0
LINE
  5
D6
330
1F
100
AcDbEntity
  8
0
100
AcDbLine
 10
-13.72865500046077
 20
20.76488806569984
 30
0.0
 11
-12.69769456698723
 21
20.70586965154207
 31
0.0
  0
LINE
  5
D7
330
1F
100
AcDbEntity
  8
0
100
AcDbLine
 10
-12.69769456698723
 20
20.70586965154207
 30
0.0
 11
-11.94763471115508
 21
20.52881322869456
 31
0.0
  0
LINE
  5
D8
330
1F
100
AcDbEntity
  8
0
100
AcDbLine
 10
-11.94763471115508
 20
20.52881322869456
 30
0.0
 11
-11.39928335940647
 21
20.2023430991185
 31
0.0
  0
LINE
  5
D9
330
1F
100
AcDbEntity
  8
0
100
AcDbLine
 10
-11.39928335940647
 20
20.2023430991185
 30
0.0
 11
-10.97345247237378
 21
19.69508057648602
 31
0.0
  0
LINE
  5
DA
330
1F
100
AcDbEntity
  8
0
100
AcDbLine
 10
-10.97345247237378
 20
19.69508057648602
 30
0.0
 11
-10.70002356620421
 21
19.06604588286978
 31
0.0
  0
LINE
  5
DB
330
1F
100
AcDbEntity
  8
0
100
AcDbLine
 10
-10.70002356620421
 20
19.06604588286978
 30
0.0
 11
-10.6088812050998
 21
18.37425680488684
 31
0.0
  0
LINE
  5
DC
330
1F
100
AcDbEntity
  8
0
100
AcDbLine
 10
-10.6088812050998
 20
18.37425680488684
 30
0.0
 11
-10.75978904889563
 21
17.51512332946676
 31
0.0
  0
LINE
  5
DD
330
1F
100
AcDbEntity
  8
0
100
AcDbLine
 10
-10.75978904889563
 20
17.51512332946676
 30
0.0
 11
-10.94842470250128
 21
17.1404674148776
 31
0.0
  0
LINE
  5
DE
330
1F
100
AcDbEntity
  8
0
100
AcDbLine
 10
-10.94842470250128
 20
17.1404674148776
 30
0.0
 11
-11.21251559845508
 21
16.80241675090229
 31
0.0
  0
LINE
  5
DF
330
1F
100
AcDbEntity
  8
0
100
AcDbLine
 10
-11.21251559845508
 20
16.80241675090229
 30
0.0
 11
-11.55542202766788
 21
16.51180482021558
 31
0.0
  0
LINE
  5
E0
330
1F
100
AcDbEntity
  8
0
100
AcDbLine
 10
-11.55542202766788
 20
16.51180482021558
 30
0.0
 11
-11.98050506921176
 21
16.27946557988308
 31
0.0
  0
LINE
  5
E1
330
1F
100
AcDbEntity
  8
0
100
AcDbLine
 10
-11.98050506921176
 20
16.27946557988308
 30
0.0
 11
-13.07720798188922
 21
15.98960212222587
 31
0.0
  0
LINE
  5
E2
330
1F
100
AcDbEntity
  8
0
100
AcDbLine
 10
-13.07720798188922
 20
15.98960212222587
 30
0.0
 11
-12.37794833810142
 21
15.5533119171275
 31
0.0
  0
LINE
  5
E3
330
1F
100
AcDbEntity
  8
0
100
AcDbLine
 10
-12.37794833810142
 20
15.5533119171275
 30
0.0
 11
-11.88338642878422
 21
15.02886747564483
 31
0.0
  0
LINE
  5
E4
330
1F
100
AcDbEntity
  8
0
100
AcDbLine
 10
-11.88338642878422
 20
15.02886747564483
 30
0.0
 11
-11.41571925562419
 21
14.38787917748116
 31
0.0
  0
LINE
  5
E5
330
1F
100
AcDbEntity
  8
0
100
AcDbLine
 10
-11.41571925562419
 20
14.38787917748116
 30
0.0
 11
-9.891691826855896
 21
12.00322449482019
 31
0.0
  0
LINE
  5
E6
330
1F
100
AcDbEntity
  8
0
100
AcDbLine
 10
-9.891691826855896
 20
12.00322449482019
 30
0.0
 11
-11.34997689595183
 21
12.00322449482019
 31
0.0
  0
LINE
  5
E7
330
1F
100
AcDbEntity
  8
0
100
AcDbLine
 10
-11.34997689595183
 20
12.00322449482019
 30
0.0
 11
-12.50943305744613
 21
13.8260808311901
 31
0.0
  0
LINE
  5
E8
330
1F
100
AcDbEntity
  8
0
100
AcDbLine
 10
-12.50943305744613
 20
13.8260808311901
 30
0.0
 11
-13.34615399873068
 21
15.03334961790067
 31
0.0
  0
LINE
  5
E9
330
1F
100
AcDbEntity
  8
0
100
AcDbLine
 10
-13.34615399873068
 20
15.03334961790067
 30
0.0
 11
-13.93484694670589
 21
15.61905427679985
 31
0.0
  0
LINE
  5
EA
330
1F
100
AcDbEntity
  8
0
100
AcDbLine
 10
-13.93484694670589
 20
15.61905427679985
 30
0.0
 11
-14.46377411316076
 21
15.85214082472912
 31
0.0
  0
LINE
  5
EB
330
1F
100
AcDbEntity
  8
0
100
AcDbLine
 10
-14.46377411316076
 20
15.85214082472912
 30
0.0
 11
-15.10924455358027
 21
15.89397687179335
 31
0.0
  0
LINE
  5
EC
330
1F
100
AcDbEntity
  8
0
100
AcDbLine
 10
-15.10924455358027
 20
15.89397687179335
 30
0.0
 11
-16.45397463778759
 21
15.89397687179335
 31
0.0
  0
LINE
  5
ED
330
1F
100
AcDbEntity
  8
0
100
AcDbLine
 10
-16.45397463778759
 20
15.89397687179335
 30
0.0
 11
-16.45397463778759
 21
12.00322449482019
 31
0.0
  0
LINE
  5
EE
330
1F
100
AcDbEntity
  8
0
100
AcDbLine
 10
-16.45397463778759
 20
12.00322449482019
 30
0.0
 11
-17.61343079928189
 21
12.00322449482019
 31
0.0
  0
LINE
  5
EF
330
1F
100
AcDbEntity
  8
0
100
AcDbLine
 10
-16.45397463778759
 20
16.89804200133481
 30
0.0
 11
-13.96174154839003
 21
16.89804200133481
 31
0.0
  0
LINE
  5
F0
330
1F
100
AcDbEntity
  8
0
100
AcDbLine
 10
-13.96174154839003
 20
16.89804200133481
 30
0.0
 11
-13.25351660407226
 21
16.93913077068516
 31
0.0
  0
LINE
  5
F1
330
1F
100
AcDbEntity
  8
0
100
AcDbLine
 10
-13.25351660407226
 20
16.93913077068516
 30
0.0
 11
-12.71861329276727
 21
17.0623979005157
 31
0.0
  0
LINE
  5
F2
330
1F
100
AcDbEntity
  8
0
100
AcDbLine
 10
-12.71861329276727
 20
17.0623979005157
 30
0.0
 11
-12.32415886578711
 21
17.27606032291702
 31
0.0
  0
LINE
  5
F3
330
1F
100
AcDbEntity
  8
0
100
AcDbLine
 10
-12.32415886578711
 20
17.27606032291702
 30
0.0
 11
-12.03728338343557
 21
17.58833677789457
 31
0.0
  0
LINE
  5
F4
330
1F
100
AcDbEntity
  8
0
100
AcDbLine
 10
-12.03728338343557
 20
17.58833677789457
 30
0.0
 11
-11.86246818113043
 21
17.96560819529903
 31
0.0
  0
LINE
  5
F5
330
1F
100
AcDbEntity
  8
0
100
AcDbLine
 10
-11.86246818113043
 20
17.96560819529903
 30
0.0
 11
-11.8041968355063
 21
18.37425680488684
 31
0.0
  0
LINE
  5
F6
330
1F
100
AcDbEntity
  8
0
100
AcDbLine
 10
-11.8041968355063
 20
18.37425680488684
 30
0.0
 11
-11.91700418408635
 21
18.94053786120866
 31
0.0
  0
LINE
  5
F7
330
1F
100
AcDbEntity
  8
0
100
AcDbLine
 10
-11.91700418408635
 20
18.94053786120866
 30
0.0
 11
-12.25542848598475
 21
19.3962516688844
 31
0.0
  0
LINE
  5
F8
330
1F
100
AcDbEntity
  8
0
100
AcDbLine
 10
-12.25542848598475
 20
19.3962516688844
 30
0.0
 11
-12.83739712985068
 21
19.69657522156245
 31
0.0
  0
LINE
  5
F9
330
1F
100
AcDbEntity
  8
0
100
AcDbLine
 10
-12.83739712985068
 20
19.69657522156245
 30
0.0
 11
-13.68084237524451
 21
19.79668240507057
 31
0.0
  0
LINE
  5
FA
330
1F
100
AcDbEntity
  8
0
100
AcDbLine
 10
-13.68084237524451
 20
19.79668240507057
 30
0.0
 11
-16.45397463778759
 21
19.79668240507057
 31
0.0
  0
LINE
  5
FB
330
1F
100
AcDbEntity
  8
0
100
AcDbLine
 10
-16.45397463778759
 20
19.79668240507057
 30
0.0
 11
-16.45397463778759
 21
16.89804200133481
 31
0.0
  0
LINE
  5
FC
330
1F
100
AcDbEntity
  8
0
100
AcDbLine
 10
14.33212647734204
 20
14.11725562924011
 30
0.0
 11
14.61040836371119
 21
14.55880756267643
 31
0.0
  0
LINE
  5
FD
330
1F
100
AcDbEntity
  8
0
100
AcDbLine
 10
14.61040836371119
 20
14.55880756267643
 30
0.0
 11
14.80918040139265
 21
15.08467415457624
 31
0.0
  0
LINE
  5
FE
330
1F
100
AcDbEntity
  8
0
100
AcDbLine
 10
14.80918040139265
 20
15.08467415457624
 30
0.0
 11
14.92844318670282
 21
15.69485753503721
 31
0.0
  0
LINE
  5
FF
330
1F
100
AcDbEntity
  8
0
100
AcDbLine
 10
14.92844318670282
 20
15.69485753503721
 30
0.0
 11
14.96819731595812
 21
16.38935983415706
 31
0.0
  0
LINE
  5
100
330
1F
100
AcDbEntity
  8
0
100
AcDbLine
 10
14.96819731595812
 20
16.38935983415706
 30
0.0
 11
14.92844318670282
 21
17.08145836749327
 31
0.0
  0
LINE
  5
101
330
1F
100
AcDbEntity
  8
0
100
AcDbLine
 10
14.92844318670282
 20
17.08145836749327
 30
0.0
 11
14.80918040139265
 21
17.6903474163726
 31
0.0
  0
LINE
  5
102
330
1F
100
AcDbEntity
  8
0
100
AcDbLine
 10
14.80918040139265
 20
17.6903474163726
 30
0.0
 11
14.61040836371119
 21
18.2160291081192
 31
0.0
  0
LINE
  5
103
330
1F
100
AcDbEntity
  8
0
100
AcDbLine
 10
14.61040836371119
 20
18.2160291081192
 30
0.0
 11
14.33212647734204
 21
18.65850557005719
 31
0.0
  0
LINE
  5
104
330
1F
100
AcDbEntity
  8
0
100
AcDbLine
 10
14.33212647734204
 20
18.65850557005719
 30
0.0
 11
13.9861701197755
 21
19.00927018031784
 31
0.0
  0
LINE
  5
105
330
1F
100
AcDbEntity
  8
0
100
AcDbLine
 10
13.9861701197755
 20
19.00927018031784
 30
0.0
 11
13.58437399175208
 21
19.25981539990703
 31
0.0
  0
LINE
  5
106
330
1F
100
AcDbEntity
  8
0
100
AcDbLine
 10
13.58437399175208
 20
19.25981539990703
 30
0.0
 11
13.12673648183069
 21
19.41014198046078
 31
0.0
  0
LINE
  5
107
330
1F
100
AcDbEntity
  8
0
100
AcDbLine
 10
13.12673648183069
 20
19.41014198046078
 30
0.0
 11
12.61325597857023
 21
19.46025067361513
 31
0.0
  0
LINE
  5
108
330
1F
100
AcDbEntity
  8
0
100
AcDbLine
 10
12.61325597857023
 20
19.46025067361513
 30
0.0
 11
12.09922076652947
 21
19.41032688338754
 31
0.0
  0
LINE
  5
109
330
1F
100
AcDbEntity
  8
0
100
AcDbLine
 10
12.09922076652947
 20
19.41032688338754
 30
0.0
 11
11.63991912472003
 21
19.26055501346314
 31
0.0
  0
LINE
  5
10A
330
1F
100
AcDbEntity
  8
0
100
AcDbLine
 10
11.63991912472003
 20
19.26055501346314
 30
0.0
 11
11.23534943338012
 21
19.01093431497945
 31
0.0
  0
LINE
  5
10B
330
1F
100
AcDbEntity
  8
0
100
AcDbLine
 10
11.23534943338012
 20
19.01093431497945
 30
0.0
 11
10.88551007274797
 21
18.66146403907401
 31
0.0
  0
LINE
  5
10C
330
1F
100
AcDbEntity
  8
0
100
AcDbLine
 10
10.88551007274797
 20
18.66146403907401
 30
0.0
 11
10.6033451833132
 21
18.21991210563769
 31
0.0
  0
LINE
  5
10D
330
1F
100
AcDbEntity
  8
0
100
AcDbLine
 10
10.6033451833132
 20
18.21991210563769
 30
0.0
 11
10.40179958231526
 21
17.69404551373789
 31
0.0
  0
LINE
  5
10E
330
1F
100
AcDbEntity
  8
0
100
AcDbLine
 10
10.40179958231526
 20
17.69404551373789
 30
0.0
 11
10.28087266511704
 21
17.08386213327691
 31
0.0
  0
LINE
  5
10F
330
1F
100
AcDbEntity
  8
0
100
AcDbLine
 10
10.28087266511704
 20
17.08386213327691
 30
0.0
 11
10.24056382708144
 21
16.38935983415706
 31
0.0
  0
LINE
  5
110
330
1F
100
AcDbEntity
  8
0
100
AcDbLine
 10
10.24056382708144
 20
16.38935983415706
 30
0.0
 11
10.28087266511704
 21
15.69485753503721
 31
0.0
  0
LINE
  5
111
330
1F
100
AcDbEntity
  8
0
100
AcDbLine
 10
10.28087266511704
 20
15.69485753503721
 30
0.0
 11
10.40179958231526
 21
15.08467415457624
 31
0.0
  0
LINE
  5
112
330
1F
100
AcDbEntity
  8
0
100
AcDbLine
 10
10.40179958231526
 20
15.08467415457624
 30
0.0
 11
10.6033451833132
 21
14.55880756267643
 31
0.0
  0
LINE
  5
113
330
1F
100
AcDbEntity
  8
0
100
AcDbLine
 10
10.6033451833132
 20
14.55880756267643
 30
0.0
 11
10.88551007274797
 21
14.11725562924011
 31
0.0
  0
LINE
  5
114
330
1F
100
AcDbEntity
  8
0
100
AcDbLine
 10
10.88551007274797
 20
14.11725562924011
 30
0.0
 11
11.23534943338012
 21
13.76778535333467
 31
0.0
  0
LINE
  5
115
330
1F
100
AcDbEntity
  8
0
100
AcDbLine
 10
11.23534943338012
 20
13.76778535333467
 30
0.0
 11
11.63991912472003
 21
13.51816465485098
 31
0.0
  0
LINE
  5
116
330
1F
100
AcDbEntity
  8
0
100
AcDbLine
 10
11.63991912472003
 20
13.51816465485098
 30
0.0
 11
12.09922076652947
 21
13.36839278492658
 31
0.0
  0
LINE
  5
117
330
1F
100
AcDbEntity
  8
0
100
AcDbLine
 10
12.09922076652947
 20
13.36839278492658
 30
0.0
 11
12.61325597857023
 21
13.31846899469899
 31
0.0
  0
LINE
  5
118
330
1F
100
AcDbEntity
  8
0
100
AcDbLine
 10
12.61325597857023
 20
13.31846899469899
 30
0.0
 11
13.12673648183069
 21
13.36839278492658
 31
0.0
  0
LINE
  5
119
330
1F
100
AcDbEntity
  8
0
100
AcDbLine
 10
13.12673648183069
 20
13.36839278492658
 30
0.0
 11
13.58437399175208
 21
13.51816465485098
 31
0.0
  0
LINE
  5
11A
330
1F
100
AcDbEntity
  8
0
100
AcDbLine
 10
13.58437399175208
 20
13.51816465485098
 30
0.0
 11
13.9861701197755
 21
13.76778535333467
 31
0.0
  0
LINE
  5
11B
330
1F
100
AcDbEntity
  8
0
100
AcDbLine
 10
13.9861701197755
 20
13.76778535333467
 30
0.0
 11
14.33212647734204
 21
14.11725562924011
 31
0.0
  0
LINE
  5
11C
330
1F
100
AcDbEntity
  8
0
100
AcDbLine
 10
15.47113704881734
 20
12.79186150970522
 30
0.0
 11
14.92197072446085
 21
12.34661049151458
 31
0.0
  0
LINE
  5
11D
330
1F
100
AcDbEntity
  8
0
100
AcDbLine
 10
14.92197072446085
 20
12.34661049151458
 30
0.0
 11
14.2626035574765
 21
12.02857523122426
 31
0.0
  0
LINE
  5
11E
330
1F
100
AcDbEntity
  8
0
100
AcDbLine
 10
14.2626035574765
 20
12.02857523122426
 30
0.0
 11
13.4930328686008
 21
11.83775477472798
 31
0.0
  0
LINE
  5
11F
330
1F
100
AcDbEntity
  8
0
100
AcDbLine
 10
13.4930328686008
 20
11.83775477472798
 30
0.0
 11
12.61325597857023
 21
11.7741481679195
 31
0.0
  0
LINE
  5
120
330
1F
100
AcDbEntity
  8
0
100
AcDbLine
 10
12.61325597857023
 20
11.7741481679195
 30
0.0
 11
11.73347908853966
 21
11.83775477472798
 31
0.0
  0
LINE
  5
121
330
1F
100
AcDbEntity
  8
0
100
AcDbLine
 10
11.73347908853966
 20
11.83775477472798
 30
0.0
 11
10.96390839966396
 21
12.02857523122426
 31
0.0
  0
LINE
  5
122
330
1F
100
AcDbEntity
  8
0
100
AcDbLine
 10
10.96390839966396
 20
12.02857523122426
 30
0.0
 11
10.30454123267962
 21
12.34661049151458
 31
0.0
  0
LINE
  5
123
330
1F
100
AcDbEntity
  8
0
100
AcDbLine
 10
10.30454123267962
 20
12.34661049151458
 30
0.0
 11
9.75537490832313
 21
12.79186150970522
 31
0.0
  0
LINE
  5
124
330
1F
100
AcDbEntity
  8
0
100
AcDbLine
 10
9.75537490832313
 20
12.79186150970522
 30
0.0
 11
9.175513117191135
 21
13.48488353145633
 31
0.0
  0
LINE
  5
125
330
1F
100
AcDbEntity
  8
0
100
AcDbLine
 10
9.175513117191135
 20
13.48488353145633
 30
0.0
 11
8.761327661929315
 21
14.31547167767888
 31
0.0
  0
LINE
  5
126
330
1F
100
AcDbEntity
  8
0
100
AcDbLine
 10
8.761327661929315
 20
14.31547167767888
 30
0.0
 11
8.512817299980679
 21
15.28362932102757
 31
0.0
  0
LINE
  5
127
330
1F
100
AcDbEntity
  8
0
100
AcDbLine
 10
8.512817299980679
 20
15.28362932102757
 30
0.0
 11
8.429980788788242
 21
16.38935983415706
 31
0.0
  0
LINE
  5
128
330
1F
100
AcDbEntity
  8
0
100
AcDbLine
 10
8.429980788788242
 20
16.38935983415706
 30
0.0
 11
8.512817299980679
 21
17.51284125014153
 31
0.0
  0
LINE
  5
129
330
1F
100
AcDbEntity
  8
0
100
AcDbLine
 10
8.512817299980679
 20
17.51284125014153
 30
0.0
 11
8.761327661929315
 21
18.48691586110855
 31
0.0
  0
LINE
  5
12A
330
1F
100
AcDbEntity
  8
0
100
AcDbLine
 10
8.761327661929315
 20
18.48691586110855
 30
0.0
 11
9.175513117191135
 21
19.31158703971278
 31
0.0
  0
LINE
  5
12B
330
1F
100
AcDbEntity
  8
0
100
AcDbLine
 10
9.175513117191135
 20
19.31158703971278
 30
0.0
 11
9.75537490832313
 21
19.9868581586089
 31
0.0
  0
LINE
  5
12C
330
1F
100
AcDbEntity
  8
0
100
AcDbLine
 10
9.75537490832313
 20
19.9868581586089
 30
0.0
 11
10.30454123267962
 21
20.43210917679954
 31
0.0
  0
LINE
  5
12D
330
1F
100
AcDbEntity
  8
0
100
AcDbLine
 10
10.30454123267962
 20
20.43210917679954
 30
0.0
 11
10.96390839966396
 21
20.75014443708987
 31
0.0
  0
LINE
  5
12E
330
1F
100
AcDbEntity
  8
0
100
AcDbLine
 10
10.96390839966396
 20
20.75014443708987
 30
0.0
 11
11.73347908853966
 21
20.94096489358614
 31
0.0
  0
LINE
  5
12F
330
1F
100
AcDbEntity
  8
0
100
AcDbLine
 10
11.73347908853966
 20
20.94096489358614
 30
0.0
 11
12.61325597857023
 21
21.00457150039462
 31
0.0
  0
LINE
  5
130
330
1F
100
AcDbEntity
  8
0
100
AcDbLine
 10
12.61325597857023
 20
21.00457150039462
 30
0.0
 11
13.4930328686008
 21
20.94096489358614
 31
0.0
  0
LINE
  5
131
330
1F
100
AcDbEntity
  8
0
100
AcDbLine
 10
13.4930328686008
 20
20.94096489358614
 30
0.0
 11
14.2626035574765
 21
20.75014443708987
 31
0.0
  0
LINE
  5
132
330
1F
100
AcDbEntity
  8
0
100
AcDbLine
 10
14.2626035574765
 20
20.75014443708987
 30
0.0
 11
14.92197072446085
 21
20.43210917679954
 31
0.0
  0
LINE
  5
133
330
1F
100
AcDbEntity
  8
0
100
AcDbLine
 10
14.92197072446085
 20
20.43210917679954
 30
0.0
 11
15.47113704881734
 21
19.9868581586089
 31
0.0
  0
LINE
  5
134
330
1F
100
AcDbEntity
  8
0
100
AcDbLine
 10
15.47113704881734
 20
19.9868581586089
 30
0.0
 11
16.04841017123892
 21
19.31158703971278
 31
0.0
  0
LINE
  5
135
330
1F
100
AcDbEntity
  8
0
100
AcDbLine
 10
16.04841017123892
 20
19.31158703971278
 30
0.0
 11
16.46074658428975
 21
18.48691586110855
 31
0.0
  0
LINE
  5
136
330
1F
100
AcDbEntity
  8
0
100
AcDbLine
 10
16.46074658428975
 20
18.48691586110855
 30
0.0
 11
16.70814752497969
 21
17.51284125014153
 31
0.0
  0
LINE
  5
137
330
1F
100
AcDbEntity
  8
0
100
AcDbLine
 10
16.70814752497969
 20
17.51284125014153
 30
0.0
 11
16.79061423031859
 21
16.38935983415706
 31
0.0
  0
LINE
  5
138
330
1F
100
AcDbEntity
  8
0
100
AcDbLine
 10
16.79061423031859
 20
16.38935983415706
 30
0.0
 11
16.70814752497969
 21
15.28362932102757
 31
0.0
  0
LINE
  5
139
330
1F
100
AcDbEntity
  8
0
100
AcDbLine
 10
16.70814752497969
 20
15.28362932102757
 30
0.0
 11
16.46074658428975
 21
14.31547167767888
 31
0.0
  0
LINE
  5
13A
330
1F
100
AcDbEntity
  8
0
100
AcDbLine
 10
16.46074658428975
 20
14.31547167767888
 30
0.0
 11
16.04841017123892
 21
13.48488353145633
 31
0.0
  0
LINE
  5
13B
330
1F
100
AcDbEntity
  8
0
100
AcDbLine
 10
16.04841017123892
 20
13.48488353145633
 30
0.0
 11
15.47113704881734
 21
12.79186150970522
 31
0.0
  0
LINE
  5
13C
330
1F
100
AcDbEntity
  8
0
100
AcDbLine
 10
39.80019294794191
 20
14.70892753993324
 30
0.0
 11
39.92296921244323
 21
14.18675738125989
 31
0.0
  0
LINE
  5
13D
330
1F
100
AcDbEntity
  8
0
100
AcDbLine
 10
39.92296921244323
 20
14.18675738125989
 30
0.0
 11
40.12562453979199
 21
13.81546989685392
 31
0.0
  0
LINE
  5
13E
330
1F
100
AcDbEntity
  8
0
100
AcDbLine
 10
40.12562453979199
 20
13.81546989685392
 30
0.0
 11
40.38707935841664
 21
13.57990104420654
 31
0.0
  0
LINE
  5
13F
330
1F
100
AcDbEntity
  8
0
100
AcDbLine
 10
40.38707935841664
 20
13.57990104420654
 30
0.0
 11
40.72767219332418
 21
13.41163820300643
 31
0.0
  0
LINE
  5
140
330
1F
100
AcDbEntity
  8
0
100
AcDbLine
 10
40.72767219332418
 20
13.41163820300643
 30
0.0
 11
41.14740447012686
 21
13.3106808684648
 31
0.0
  0
LINE
  5
141
330
1F
100
AcDbEntity
  8
0
100
AcDbLine
 10
41.14740447012686
 20
13.3106808684648
 30
0.0
 11
41.64627761443693
 21
13.27702853579287
 31
0.0
  0
LINE
  5
142
330
1F
100
AcDbEntity
  8
0
100
AcDbLine
 10
41.64627761443693
 20
13.27702853579287
 30
0.0
 11
42.23057554850175
 21
13.31252998648655
 31
0.0
  0
LINE
  5
143
330
1F
100
AcDbEntity
  8
0
100
AcDbLine
 10
42.23057554850175
 20
13.31252998648655
 30
0.0
 11
42.69357564639083
 21
13.41903504860018
 31
0.0
  0
LINE
  5
144
330
1F
100
AcDbEntity
  8
0
100
AcDbLine
 10
42.69357564639083
 20
13.41903504860018
 30
0.0
 11
43.02751391003381
 21
13.58433954097128
 31
0.0
  0
LINE
  5
145
330
1F
100
AcDbEntity
  8
0
100
AcDbLine
 10
43.02751391003381
 20
13.58433954097128
 30
0.0
 11
43.26604035525156
 21
13.80807314001424
 31
0.0
  0
LINE
  5
146
330
1F
100
AcDbEntity
  8
0
100
AcDbLine
 10
43.26604035525156
 20
13.80807314001424
 30
0.0
 11
43.40915569762376
 21
14.09023679428819
 31
0.0
  0
LINE
  5
147
330
1F
100
AcDbEntity
  8
0
100
AcDbLine
 10
43.40915569762376
 20
14.09023679428819
 30
0.0
 11
43.45686065273012
 21
14.43083145235226
 31
0.0
  0
LINE
  5
148
330
1F
100
AcDbEntity
  8
0
100
AcDbLine
 10
43.45686065273012
 20
14.43083145235226
 30
0.0
 11
43.36219011754696
 21
14.813953434104
 31
0.0
  0
LINE
  5
149
330
1F
100
AcDbEntity
  8
0
100
AcDbLine
 10
43.36219011754696
 20
14.813953434104
 30
0.0
 11
43.0781766185773
 21
15.09944545015334
 31
0.0
  0
LINE
  5
14A
330
1F
100
AcDbEntity
  8
0
100
AcDbLine
 10
43.0781766185773
 20
15.09944545015334
 30
0.0
 11
42.59150900523118
 21
15.31689298945508
 31
0.0
  0
LINE
  5
14B
330
1F
100
AcDbEntity
  8
0
100
AcDbLine
 10
42.59150900523118
 20
15.31689298945508
 30
0.0
 11
41.88887207381608
 21
15.50771417447435
 31
0.0
  0
LINE
  5
14C
330
1F
100
AcDbEntity
  8
0
100
AcDbLine
 10
41.88887207381608
 20
15.50771417447435
 30
0.0
 11
40.96582974056857
 21
15.71480700565168
 31
0.0
  0
LINE
  5
14D
330
1F
100
AcDbEntity
  8
0
100
AcDbLine
 10
40.96582974056857
 20
15.71480700565168
 30
0.0
 11
39.8149842427695
 21
16.03580082741098
 31
0.0
  0
LINE
  5
14E
330
1F
100
AcDbEntity
  8
0
100
AcDbLine
 10
39.8149842427695
 20
16.03580082741098
 30
0.0
 11
39.08424344587172
 21
16.38342100345276
 31
0.0
  0
LINE
  5
14F
330
1F
100
AcDbEntity
  8
0
100
AcDbLine
 10
39.08424344587172
 20
16.38342100345276
 30
0.0
 11
38.69853180802053
 21
16.72771308213233
 31
0.0
  0
LINE
  5
150
330
1F
100
AcDbEntity
  8
0
100
AcDbLine
 10
38.69853180802053
 20
16.72771308213233
 30
0.0
 11
38.42302451858298
 21
17.15705980079107
 31
0.0
  0
LINE
  5
151
330
1F
100
AcDbEntity
  8
0
100
AcDbLine
 10
38.42302451858298
 20
17.15705980079107
 30
0.0
 11
38.25772075103679
 21
17.67146292896329
 31
0.0
  0
LINE
  5
152
330
1F
100
AcDbEntity
  8
0
100
AcDbLine
 10
38.25772075103679
 20
17.67146292896329
 30
0.0
 11
38.20261967885968
 21
18.27092423618325
 31
0.0
  0
LINE
  5
153
330
1F
100
AcDbEntity
  8
0
100
AcDbLine
 10
38.20261967885968
 20
18.27092423618325
 30
0.0
 11
38.25587172176909
 21
18.831925207658
 31
0.0
  0
LINE
  5
154
330
1F
100
AcDbEntity
  8
0
100
AcDbLine
 10
38.25587172176909
 20
18.831925207658
 30
0.0
 11
38.41562838302179
 21
19.34336975032368
 31
0.0
  0
LINE
  5
155
330
1F
100
AcDbEntity
  8
0
100
AcDbLine
 10
38.41562838302179
 20
19.34336975032368
 30
0.0
 11
38.68189046140439
 21
19.80525968918586
 31
0.0
  0
LINE
  5
156
330
1F
100
AcDbEntity
  8
0
100
AcDbLine
 10
38.68189046140439
 20
19.80525968918586
 30
0.0
 11
39.05465875570354
 21
20.21759684925012
 31
0.0
  0
LINE
  5
157
330
1F
100
AcDbEntity
  8
0
100
AcDbLine
 10
39.05465875570354
 20
20.21759684925012
 30
0.0
 11
39.53060288313968
 21
20.55671245031392
 31
0.0
  0
LINE
  5
158
330
1F
100
AcDbEntity
  8
0
100
AcDbLine
 10
39.53060288313968
 20
20.55671245031392
 30
0.0
 11
40.10639349269938
 21
20.79893697995364
 31
0.0
  0
LINE
  5
159
330
1F
100
AcDbEntity
  8
0
100
AcDbLine
 10
40.10639349269938
 20
20.79893697995364
 30
0.0
 11
40.78203293081836
 21
20.94427116484325
 31
0.0
  0
LINE
  5
15A
330
1F
100
AcDbEntity
  8
0
100
AcDbLine
 10
40.78203293081836
 20
20.94427116484325
 30
0.0
 11
41.55752354393236
 21
20.99271573165668
 31
0.0
  0
LINE
  5
15B
330
1F
100
AcDbEntity
  8
0
100
AcDbLine
 10
41.55752354393236
 20
20.99271573165668
 30
0.0
 11
42.22151641636499
 21
20.94704470874478
 31
0.0
  0
LINE
  5
15C
330
1F
100
AcDbEntity
  8
0
100
AcDbLine
 10
42.22151641636499
 20
20.94704470874478
 30
0.0
 11
42.83484304858176
 21
20.81003118329542
 31
0.0
  0
LINE
  5
15D
330
1F
100
AcDbEntity
  8
0
100
AcDbLine
 10
42.83484304858176
 20
20.81003118329542
 30
0.0
 11
43.3975056455666
 21
20.58167447023812
 31
0.0
  0
LINE
  5
15E
330
1F
100
AcDbEntity
  8
0
100
AcDbLine
 10
43.3975056455666
 20
20.58167447023812
 30
0.0
 11
43.90950641230342
 21
20.2619738845024
 31
0.0
  0
LINE
  5
15F
330
1F
100
AcDbEntity
  8
0
100
AcDbLine
 10
43.90950641230342
 20
20.2619738845024
 30
0.0
 11
44.33830086199428
 21
19.85536892318533
 31
0.0
  0
LINE
  5
160
330
1F
100
AcDbEntity
  8
0
100
AcDbLine
 10
44.33830086199428
 20
19.85536892318533
 30
0.0
 11
44.65134367577178
 21
19.3662982143337
 31
0.0
  0
LINE
  5
161
330
1F
100
AcDbEntity
  8
0
100
AcDbLine
 10
44.65134367577178
 20
19.3662982143337
 30
0.0
 11
44.84863581051572
 21
18.79475976930163
 31
0.0
  0
LINE
  5
162
330
1F
100
AcDbEntity
  8
0
100
AcDbLine
 10
44.84863581051572
 20
18.79475976930163
 30
0.0
 11
44.93017822310597
 21
18.14075159944322
 31
0.0
  0
LINE
  5
163
330
1F
100
AcDbEntity
  8
0
100
AcDbLine
 10
44.93017822310597
 20
18.14075159944322
 30
0.0
 11
43.17876456514914
 21
18.14075159944322
 31
0.0
  0
LINE
  5
164
330
1F
100
AcDbEntity
  8
0
100
AcDbLine
 10
43.17876456514914
 20
18.14075159944322
 30
0.0
 11
43.11811618328379
 21
18.50575366572595
 31
0.0
  0
LINE
  5
165
330
1F
100
AcDbEntity
  8
0
100
AcDbLine
 10
43.11811618328379
 20
18.50575366572595
 30
0.0
 11
42.98350634965634
 21
18.81380387027482
 31
0.0
  0
LINE
  5
166
330
1F
100
AcDbEntity
  8
0
100
AcDbLine
 10
42.98350634965634
 20
18.81380387027482
 30
0.0
 11
42.7749344207998
 21
19.06490326149727
 31
0.0
  0
LINE
  5
167
330
1F
100
AcDbEntity
  8
0
100
AcDbLine
 10
42.7749344207998
 20
19.06490326149727
 30
0.0
 11
42.49239975324715
 21
19.25905288780078
 31
0.0
  0
LINE
  5
168
330
1F
100
AcDbEntity
  8
0
100
AcDbLine
 10
42.49239975324715
 20
19.25905288780078
 30
0.0
 11
42.01460726589693
 21
19.42324819189261
 31
0.0
  0
LINE
  5
169
330
1F
100
AcDbEntity
  8
0
100
AcDbLine
 10
42.01460726589693
 20
19.42324819189261
 30
0.0
 11
41.43326784522596
 21
19.47797959504538
 31
0.0
  0
LINE
  5
16A
330
1F
100
AcDbEntity
  8
0
100
AcDbLine
 10
41.43326784522596
 20
19.47797959504538
 30
0.0
 11
40.80015512061043
 21
19.40697669365801
 31
0.0
  0
LINE
  5
16B
330
1F
100
AcDbEntity
  8
0
100
AcDbLine
 10
40.80015512061043
 20
19.40697669365801
 30
0.0
 11
40.30904961883477
 21
19.19396656943076
 31
0.0
  0
LINE
  5
16C
330
1F
100
AcDbEntity
  8
0
100
AcDbLine
 10
40.30904961883477
 20
19.19396656943076
 30
0.0
 11
39.99397214341529
 21
18.85374291355114
 31
0.0
  0
LINE
  5
16D
330
1F
100
AcDbEntity
  8
0
100
AcDbLine
 10
39.99397214341529
 20
18.85374291355114
 30
0.0
 11
39.88894701844647
 21
18.40109687292329
 31
0.0
  0
LINE
  5
16E
330
1F
100
AcDbEntity
  8
0
100
AcDbLine
 10
39.88894701844647
 20
18.40109687292329
 30
0.0
 11
39.99249291630306
 21
17.99282785275537
 31
0.0
  0
LINE
  5
16F
330
1F
100
AcDbEntity
  8
0
100
AcDbLine
 10
39.99249291630306
 20
17.99282785275537
 30
0.0
 11
40.30313268080113
 21
17.70289818495402
 31
0.0
  0
LINE
  5
170
330
1F
100
AcDbEntity
  8
0
100
AcDbLine
 10
40.30313268080113
 20
17.70289818495402
 30
0.0
 11
41.4391847832596
 21
17.3419649649021
 31
0.0
  0
LINE
  5
171
330
1F
100
AcDbEntity
  8
0
100
AcDbLine
 10
41.4391847832596
 20
17.3419649649021
 30
0.0
 11
42.94208704380362
 21
16.98103174485019
 31
0.0
  0
LINE
  5
172
330
1F
100
AcDbEntity
  8
0
100
AcDbLine
 10
42.94208704380362
 20
16.98103174485019
 30
0.0
 11
43.80891907221773
 21
16.70441509147428
 31
0.0
  0
LINE
  5
173
330
1F
100
AcDbEntity
  8
0
100
AcDbLine
 10
43.80891907221773
 20
16.70441509147428
 30
0.0
 11
44.43315542828037
 21
16.34791937525094
 31
0.0
  0
LINE
  5
174
330
1F
100
AcDbEntity
  8
0
100
AcDbLine
 10
44.43315542828037
 20
16.34791937525094
 30
0.0
 11
44.77485969805458
 21
16.0058460762213
 31
0.0
  0
LINE
  5
175
330
1F
100
AcDbEntity
  8
0
100
AcDbLine
 10
44.77485969805458
 20
16.0058460762213
 30
0.0
 11
45.01893326990531
 21
15.59498969831456
 31
0.0
  0
LINE
  5
176
330
1F
100
AcDbEntity
  8
0
100
AcDbLine
 10
45.01893326990531
 20
15.59498969831456
 30
0.0
 11
45.16537687605361
 21
15.11534857184475
 31
0.0
  0
LINE
  5
177
330
1F
100
AcDbEntity
  8
0
100
AcDbLine
 10
45.16537687605361
 20
15.11534857184475
 30
0.0
 11
45.21419124872058
 21
14.56692102712593
 31
0.0
  0
LINE
  5
178
330
1F
100
AcDbEntity
  8
0
100
AcDbLine
 10
45.21419124872058
 20
14.56692102712593
 30
0.0
 11
45.15705624434901
 21
13.99464086617569
 31
0.0
  0
LINE
  5
179
330
1F
100
AcDbEntity
  8
0
100
AcDbLine
 10
45.15705624434901
 20
13.99464086617569
 30
0.0
 11
44.98565065987998
 21
13.4730266015193
 31
0.0
  0
LINE
  5
17A
330
1F
100
AcDbEntity
  8
0
100
AcDbLine
 10
44.98565065987998
 20
13.4730266015193
 30
0.0
 11
44.69997363828197
 21
13.00207637209485
 31
0.0
  0
LINE
  5
17B
330
1F
100
AcDbEntity
  8
0
100
AcDbLine
 10
44.69997363828197
 20
13.00207637209485
 30
0.0
 11
44.30002432252353
 21
12.58178831684042
 31
0.0
  0
LINE
  5
17C
330
1F
100
AcDbEntity
  8
0
100
AcDbLine
 10
44.30002432252353
 20
12.58178831684042
 30
0.0
 11
43.79578975606745
 21
12.23620104400059
 31
0.0
  0
LINE
  5
17D
330
1F
100
AcDbEntity
  8
0
100
AcDbLine
 10
43.79578975606745
 20
12.23620104400059
 30
0.0
 11
43.19725593951626
 21
11.98935390883339
 31
0.0
  0
LINE
  5
17E
330
1F
100
AcDbEntity
  8
0
100
AcDbLine
 10
43.19725593951626
 20
11.98935390883339
 30
0.0
 11
42.50442045154797
 21
11.84124617079704
 31
0.0
  0
LINE
  5
17F
330
1F
100
AcDbEntity
  8
0
100
AcDbLine
 10
42.50442045154797
 20
11.84124617079704
 30
0.0
 11
41.71728087084058
 21
11.79187708934976
 31
0.0
  0
LINE
  5
180
330
1F
100
AcDbEntity
  8
0
100
AcDbLine
 10
41.71728087084058
 20
11.79187708934976
 30
0.0
 11
40.91072631640859
 21
11.84050655908996
 31
0.0
  0
LINE
  5
181
330
1F
100
AcDbEntity
  8
0
100
AcDbLine
 10
40.91072631640859
 20
11.84050655908996
 30
0.0
 11
40.19514765195801
 21
11.98639545460891
 31
0.0
  0
LINE
  5
182
330
1F
100
AcDbEntity
  8
0
100
AcDbLine
 10
40.19514765195801
 20
11.98639545460891
 30
0.0
 11
39.57054236463923
 21
12.22954450535414
 31
0.0
  0
LINE
  5
183
330
1F
100
AcDbEntity
  8
0
100
AcDbLine
 10
39.57054236463923
 20
12.22954450535414
 30
0.0
 11
39.03690794160262
 21
12.56995444077314
 31
0.0
  0
LINE
  5
184
330
1F
100
AcDbEntity
  8
0
100
AcDbLine
 10
39.03690794160262
 20
12.56995444077314
 30
0.0
 11
38.60977760438485
 21
12.99541972250581
 31
0.0
  0
LINE
  5
185
330
1F
100
AcDbEntity
  8
0
100
AcDbLine
 10
38.60977760438485
 20
12.99541972250581
 30
0.0
 11
38.30468563957145
 21
13.49373566275186
 31
0.0
  0
LINE
  5
186
330
1F
100
AcDbEntity
  8
0
100
AcDbLine
 10
38.30468563957145
 20
13.49373566275186
 30
0.0
 11
38.12163113188608
 21
14.06490426679858
 31
0.0
  0
LINE
  5
187
330
1F
100
AcDbEntity
  8
0
100
AcDbLine
 10
38.12163113188608
 20
14.06490426679858
 30
0.0
 11
38.06061316605236
 21
14.70892753993324
 31
0.0
  0
LINE
  5
188
330
1F
100
AcDbEntity
  8
0
100
AcDbLine
 10
38.06061316605236
 20
14.70892753993324
 30
0.0
 11
39.80019294794191
 21
14.70892753993324
 31
0.0
  0
LINE
  5
189
330
1F
100
AcDbEntity
  8
0
100
AcDbLine
 10
47.32639791850023
 20
14.73925332659009
 30
0.0
 11
47.44917418300155
 21
14.21708316791674
 31
0.0
  0
LINE
  5
18A
330
1F
100
AcDbEntity
  8
0
100
AcDbLine
 10
47.44917418300155
 20
14.21708316791674
 30
0.0
 11
47.65182951035031
 21
13.84579568351077
 31
0.0
  0
LINE
  5
18B
330
1F
100
AcDbEntity
  8
0
100
AcDbLine
 10
47.65182951035031
 20
13.84579568351077
 30
0.0
 11
47.91328432897496
 21
13.61022683086339
 31
0.0
  0
LINE
  5
18C
330
1F
100
AcDbEntity
  8
0
100
AcDbLine
 10
47.91328432897496
 20
13.61022683086339
 30
0.0
 11
48.25387716388251
 21
13.44196398966328
 31
0.0
  0
LINE
  5
18D
330
1F
100
AcDbEntity
  8
0
100
AcDbLine
 10
48.25387716388251
 20
13.44196398966328
 30
0.0
 11
48.67360944068517
 21
13.34100665512164
 31
0.0
  0
LINE
  5
18E
330
1F
100
AcDbEntity
  8
0
100
AcDbLine
 10
48.67360944068517
 20
13.34100665512164
 30
0.0
 11
49.17248258499524
 21
13.30735432244972
 31
0.0
  0
LINE
  5
18F
330
1F
100
AcDbEntity
  8
0
100
AcDbLine
 10
49.17248258499524
 20
13.30735432244972
 30
0.0
 11
49.75678051906007
 21
13.3428557731434
 31
0.0
  0
LINE
  5
190
330
1F
100
AcDbEntity
  8
0
100
AcDbLine
 10
49.75678051906007
 20
13.3428557731434
 30
0.0
 11
50.21978061694915
 21
13.44936083525703
 31
0.0
  0
LINE
  5
191
330
1F
100
AcDbEntity
  8
0
100
AcDbLine
 10
50.21978061694915
 20
13.44936083525703
 30
0.0
 11
50.55371888059214
 21
13.61466532762813
 31
0.0
  0
LINE
  5
192
330
1F
100
AcDbEntity
  8
0
100
AcDbLine
 10
50.55371888059214
 20
13.61466532762813
 30
0.0
 11
50.79224532580987
 21
13.83839892667109
 31
0.0
  0
LINE
  5
193
330
1F
100
AcDbEntity
  8
0
100
AcDbLine
 10
50.79224532580987
 20
13.83839892667109
 30
0.0
 11
50.93536066818208
 21
14.12056258094504
 31
0.0
  0
LINE
  5
194
330
1F
100
AcDbEntity
  8
0
100
AcDbLine
 10
50.93536066818208
 20
14.12056258094504
 30
0.0
 11
50.98306562328845
 21
14.46115723900911
 31
0.0
  0
LINE
  5
195
330
1F
100
AcDbEntity
  8
0
100
AcDbLine
 10
50.98306562328845
 20
14.46115723900911
 30
0.0
 11
50.88839508810528
 21
14.84427922076085
 31
0.0
  0
LINE
  5
196
330
1F
100
AcDbEntity
  8
0
100
AcDbLine
 10
50.88839508810528
 20
14.84427922076085
 30
0.0
 11
50.60438158913561
 21
15.12977123681019
 31
0.0
  0
LINE
  5
197
330
1F
100
AcDbEntity
  8
0
100
AcDbLine
 10
50.60438158913561
 20
15.12977123681019
 30
0.0
 11
50.1177139757895
 21
15.34721877611193
 31
0.0
  0
LINE
  5
198
330
1F
100
AcDbEntity
  8
0
100
AcDbLine
 10
50.1177139757895
 20
15.34721877611193
 30
0.0
 11
49.4150770443744
 21
15.5380399611312
 31
0.0
  0
LINE
  5
199
330
1F
100
AcDbEntity
  8
0
100
AcDbLine
 10
49.4150770443744
 20
15.5380399611312
 30
0.0
 11
48.49203471112688
 21
15.74513279230853
 31
0.0
  0
LINE
  5
19A
330
1F
100
AcDbEntity
  8
0
100
AcDbLine
 10
48.49203471112688
 20
15.74513279230853
 30
0.0
 11
47.34118921332782
 21
16.06612661406783
 31
0.0
  0
LINE
  5
19B
330
1F
100
AcDbEntity
  8
0
100
AcDbLine
 10
47.34118921332782
 20
16.06612661406783
 30
0.0
 11
46.61044841643004
 21
16.41374679010961
 31
0.0
  0
LINE
  5
19C
330
1F
100
AcDbEntity
  8
0
100
AcDbLine
 10
46.61044841643004
 20
16.41374679010961
 30
0.0
 11
46.22473677857884
 21
16.75803886878917
 31
0.0
  0
LINE
  5
19D
330
1F
100
AcDbEntity
  8
0
100
AcDbLine
 10
46.22473677857884
 20
16.75803886878917
 30
0.0
 11
45.9492294891413
 21
17.18738558744792
 31
0.0
  0
LINE
  5
19E
330
1F
100
AcDbEntity
  8
0
100
AcDbLine
 10
45.9492294891413
 20
17.18738558744792
 30
0.0
 11
45.7839257215951
 21
17.70178871562014
 31
0.0
  0
LINE
  5
19F
330
1F
100
AcDbEntity
  8
0
100
AcDbLine
 10
45.7839257215951
 20
17.70178871562014
 30
0.0
 11
45.72882464941799
 21
18.3012500228401
 31
0.0
  0
LINE
  5
1A0
330
1F
100
AcDbEntity
  8
0
100
AcDbLine
 10
45.72882464941799
 20
18.3012500228401
 30
0.0
 11
45.78207669232741
 21
18.86225099431485
 31
0.0
  0
LINE
  5
1A1
330
1F
100
AcDbEntity
  8
0
100
AcDbLine
 10
45.78207669232741
 20
18.86225099431485
 30
0.0
 11
45.94183335358012
 21
19.37369553698053
 31
0.0
  0
LINE
  5
1A2
330
1F
100
AcDbEntity
  8
0
100
AcDbLine
 10
45.94183335358012
 20
19.37369553698053
 30
0.0
 11
46.20809543196271
 21
19.83558547584271
 31
0.0
  0
LINE
  5
1A3
330
1F
100
AcDbEntity
  8
0
100
AcDbLine
 10
46.20809543196271
 20
19.83558547584271
 30
0.0
 11
46.58086372626185
 21
20.24792263590697
 31
0.0
  0
LINE
  5
1A4
330
1F
100
AcDbEntity
  8
0
100
AcDbLine
 10
46.58086372626185
 20
20.24792263590697
 30
0.0
 11
47.056807853698
 21
20.58703823697077
 31
0.0
  0
LINE
  5
1A5
330
1F
100
AcDbEntity
  8
0
100
AcDbLine
 10
47.056807853698
 20
20.58703823697077
 30
0.0
 11
47.63259846325769
 21
20.82926276661049
 31
0.0
  0
LINE
  5
1A6
330
1F
100
AcDbEntity
  8
0
100
AcDbLine
 10
47.63259846325769
 20
20.82926276661049
 30
0.0
 11
48.30823790137667
 21
20.9745969515001
 31
0.0
  0
LINE
  5
1A7
330
1F
100
AcDbEntity
  8
0
100
AcDbLine
 10
48.30823790137667
 20
20.9745969515001
 30
0.0
 11
49.08372851449068
 21
21.02304151831353
 31
0.0
  0
LINE
  5
1A8
330
1F
100
AcDbEntity
  8
0
100
AcDbLine
 10
49.08372851449068
 20
21.02304151831353
 30
0.0
 11
49.74772138692332
 21
20.97737049540163
 31
0.0
  0
LINE
  5
1A9
330
1F
100
AcDbEntity
  8
0
100
AcDbLine
 10
49.74772138692332
 20
20.97737049540163
 30
0.0
 11
50.36104801914007
 21
20.84035696995227
 31
0.0
  0
LINE
  5
1AA
330
1F
100
AcDbEntity
  8
0
100
AcDbLine
 10
50.36104801914007
 20
20.84035696995227
 30
0.0
 11
50.92371061612491
 21
20.61200025689497
 31
0.0
  0
LINE
  5
1AB
330
1F
100
AcDbEntity
  8
0
100
AcDbLine
 10
50.92371061612491
 20
20.61200025689497
 30
0.0
 11
51.43571138286174
 21
20.29229967115925
 31
0.0
  0
LINE
  5
1AC
330
1F
100
AcDbEntity
  8
0
100
AcDbLine
 10
51.43571138286174
 20
20.29229967115925
 30
0.0
 11
51.86450583255261
 21
19.88569470984218
 31
0.0
  0
LINE
  5
1AD
330
1F
100
AcDbEntity
  8
0
100
AcDbLine
 10
51.86450583255261
 20
19.88569470984218
 30
0.0
 11
52.1775486463301
 21
19.39662400099056
 31
0.0
  0
LINE
  5
1AE
330
1F
100
AcDbEntity
  8
0
100
AcDbLine
 10
52.1775486463301
 20
19.39662400099056
 30
0.0
 11
52.37484078107405
 21
18.82508555595848
 31
0.0
  0
LINE
  5
1AF
330
1F
100
AcDbEntity
  8
0
100
AcDbLine
 10
52.37484078107405
 20
18.82508555595848
 30
0.0
 11
52.45638319366428
 21
18.17107738610007
 31
0.0
  0
LINE
  5
1B0
330
1F
100
AcDbEntity
  8
0
100
AcDbLine
 10
52.45638319366428
 20
18.17107738610007
 30
0.0
 11
50.70496953570746
 21
18.17107738610007
 31
0.0
  0
LINE
  5
1B1
330
1F
100
AcDbEntity
  8
0
100
AcDbLine
 10
50.70496953570746
 20
18.17107738610007
 30
0.0
 11
50.64432115384211
 21
18.5360794523828
 31
0.0
  0
LINE
  5
1B2
330
1F
100
AcDbEntity
  8
0
100
AcDbLine
 10
50.64432115384211
 20
18.5360794523828
 30
0.0
 11
50.50971132021466
 21
18.84412965693166
 31
0.0
  0
LINE
  5
1B3
330
1F
100
AcDbEntity
  8
0
100
AcDbLine
 10
50.50971132021466
 20
18.84412965693166
 30
0.0
 11
50.30113939135813
 21
19.09522904815412
 31
0.0
  0
LINE
  5
1B4
330
1F
100
AcDbEntity
  8
0
100
AcDbLine
 10
50.30113939135813
 20
19.09522904815412
 30
0.0
 11
50.01860472380547
 21
19.28937867445763
 31
0.0
  0
LINE
  5
1B5
330
1F
100
AcDbEntity
  8
0
100
AcDbLine
 10
50.01860472380547
 20
19.28937867445763
 30
0.0
 11
49.54081223645525
 21
19.45357397854946
 31
0.0
  0
LINE
  5
1B6
330
1F
100
AcDbEntity
  8
0
100
AcDbLine
 10
49.54081223645525
 20
19.45357397854946
 30
0.0
 11
48.95947281578428
 21
19.50830538170223
 31
0.0
  0
LINE
  5
1B7
330
1F
100
AcDbEntity
  8
0
100
AcDbLine
 10
48.95947281578428
 20
19.50830538170223
 30
0.0
 11
48.32636009116874
 21
19.43730248031486
 31
0.0
  0
LINE
  5
1B8
330
1F
100
AcDbEntity
  8
0
100
AcDbLine
 10
48.32636009116874
 20
19.43730248031486
 30
0.0
 11
47.83525458939308
 21
19.22429235608761
 31
0.0
  0
LINE
  5
1B9
330
1F
100
AcDbEntity
  8
0
100
AcDbLine
 10
47.83525458939308
 20
19.22429235608761
 30
0.0
 11
47.52017711397362
 21
18.88406870020799
 31
0.0
  0
LINE
  5
1BA
330
1F
100
AcDbEntity
  8
0
100
AcDbLine
 10
47.52017711397362
 20
18.88406870020799
 30
0.0
 11
47.41515198900479
 21
18.43142265958013
 31
0.0
  0
LINE
  5
1BB
330
1F
100
AcDbEntity
  8
0
100
AcDbLine
 10
47.41515198900479
 20
18.43142265958013
 30
0.0
 11
47.51869788686138
 21
18.02315363941221
 31
0.0
  0
LINE
  5
1BC
330
1F
100
AcDbEntity
  8
0
100
AcDbLine
 10
47.51869788686138
 20
18.02315363941221
 30
0.0
 11
47.82933765135945
 21
17.73322397161086
 31
0.0
  0
LINE
  5
1BD
330
1F
100
AcDbEntity
  8
0
100
AcDbLine
 10
47.82933765135945
 20
17.73322397161086
 30
0.0
 11
48.96538975381792
 21
17.37229075155895
 31
0.0
  0
LINE
  5
1BE
330
1F
100
AcDbEntity
  8
0
100
AcDbLine
 10
48.96538975381792
 20
17.37229075155895
 30
0.0
 11
50.46829201436194
 21
17.01135753150704
 31
0.0
  0
LINE
  5
1BF
330
1F
100
AcDbEntity
  8
0
100
AcDbLine
 10
50.46829201436194
 20
17.01135753150704
 30
0.0
 11
51.33512404277604
 21
16.73474087813112
 31
0.0
  0
LINE
  5
1C0
330
1F
100
AcDbEntity
  8
0
100
AcDbLine
 10
51.33512404277604
 20
16.73474087813112
 30
0.0
 11
51.9593603988387
 21
16.37824516190778
 31
0.0
  0
LINE
  5
1C1
330
1F
100
AcDbEntity
  8
0
100
AcDbLine
 10
51.9593603988387
 20
16.37824516190778
 30
0.0
 11
52.30106466861291
 21
16.03617186287815
 31
0.0
  0
LINE
  5
1C2
330
1F
100
AcDbEntity
  8
0
100
AcDbLine
 10
52.30106466861291
 20
16.03617186287815
 30
0.0
 11
52.54513824046362
 21
15.62531548497141
 31
0.0
  0
LINE
  5
1C3
330
1F
100
AcDbEntity
  8
0
100
AcDbLine
 10
52.54513824046362
 20
15.62531548497141
 30
0.0
 11
52.69158184661192
 21
15.1456743585016
 31
0.0
  0
LINE
  5
1C4
330
1F
100
AcDbEntity
  8
0
100
AcDbLine
 10
52.69158184661192
 20
15.1456743585016
 30
0.0
 11
52.74039621927889
 21
14.59724681378278
 31
0.0
  0
LINE
  5
1C5
330
1F
100
AcDbEntity
  8
0
100
AcDbLine
 10
52.74039621927889
 20
14.59724681378278
 30
0.0
 11
52.68326121490732
 21
14.02496665283254
 31
0.0
  0
LINE
  5
1C6
330
1F
100
AcDbEntity
  8
0
100
AcDbLine
 10
52.68326121490732
 20
14.02496665283254
 30
0.0
 11
52.51185563043829
 21
13.50335238817615
 31
0.0
  0
LINE
  5
1C7
330
1F
100
AcDbEntity
  8
0
100
AcDbLine
 10
52.51185563043829
 20
13.50335238817615
 30
0.0
 11
52.2261786088403
 21
13.0324021587517
 31
0.0
  0
LINE
  5
1C8
330
1F
100
AcDbEntity
  8
0
100
AcDbLine
 10
52.2261786088403
 20
13.0324021587517
 30
0.0
 11
51.82622929308184
 21
12.61211410349726
 31
0.0
  0
LINE
  5
1C9
330
1F
100
AcDbEntity
  8
0
100
AcDbLine
 10
51.82622929308184
 20
12.61211410349726
 30
0.0
 11
51.32199472662577
 21
12.26652683065744
 31
0.0
  0
LINE
  5
1CA
330
1F
100
AcDbEntity
  8
0
100
AcDbLine
 10
51.32199472662577
 20
12.26652683065744
 30
0.0
 11
50.72346091007458
 21
12.01967969549024
 31
0.0
  0
LINE
  5
1CB
330
1F
100
AcDbEntity
  8
0
100
AcDbLine
 10
50.72346091007458
 20
12.01967969549024
 30
0.0
 11
50.03062542210629
 21
11.87157195745388
 31
0.0
  0
LINE
  5
1CC
330
1F
100
AcDbEntity
  8
0
100
AcDbLine
 10
50.03062542210629
 20
11.87157195745388
 30
0.0
 11
49.2434858413989
 21
11.8222028760066
 31
0.0
  0
LINE
  5
1CD
330
1F
100
AcDbEntity
  8
0
100
AcDbLine
 10
49.2434858413989
 20
11.8222028760066
 30
0.0
 11
48.43693128696691
 21
11.87083234574681
 31
0.0
  0
LINE
  5
1CE
330
1F
100
AcDbEntity
  8
0
100
AcDbLine
 10
48.43693128696691
 20
11.87083234574681
 30
0.0
 11
47.72135262251633
 21
12.01672124126576
 31
0.0
  0
LINE
  5
1CF
330
1F
100
AcDbEntity
  8
0
100
AcDbLine
 10
47.72135262251633
 20
12.01672124126576
 30
0.0
 11
47.09674733519755
 21
12.25987029201098
 31
0.0
  0
LINE
  5
1D0
330
1F
100
AcDbEntity
  8
0
100
AcDbLine
 10
47.09674733519755
 20
12.25987029201098
 30
0.0
 11
46.56311291216093
 21
12.60028022742999
 31
0.0
  0
LINE
  5
1D1
330
1F
100
AcDbEntity
  8
0
100
AcDbLine
 10
46.56311291216093
 20
12.60028022742999
 30
0.0
 11
46.13598257494318
 21
13.02574550916265
 31
0.0
  0
LINE
  5
1D2
330
1F
100
AcDbEntity
  8
0
100
AcDbLine
 10
46.13598257494318
 20
13.02574550916265
 30
0.0
 11
45.83089061012977
 21
13.52406144940871
 31
0.0
  0
LINE
  5
1D3
330
1F
100
AcDbEntity
  8
0
100
AcDbLine
 10
45.83089061012977
 20
13.52406144940871
 30
0.0
 11
45.64783610244439
 21
14.09523005345542
 31
0.0
  0
LINE
  5
1D4
330
1F
100
AcDbEntity
  8
0
100
AcDbLine
 10
45.64783610244439
 20
14.09523005345542
 30
0.0
 11
45.58681813661069
 21
14.73925332659009
 31
0.0
  0
LINE
  5
1D5
330
1F
100
AcDbEntity
  8
0
100
AcDbLine
 10
45.58681813661069
 20
14.73925332659009
 30
0.0
 11
47.32639791850023
 21
14.73925332659009
 31
0.0
  0
LINE
  5
1D6
330
1F
100
AcDbEntity
  8
0
100
AcDbLine
 10
-19.86032852285093
 20
20.79420017995998
 30
0.0
 11
-18.70087236135663
 21
20.79420017995998
 31
0.0
  0
LINE
  5
1D7
330
1F
100
AcDbEntity
  8
0
100
AcDbLine
 10
-18.70087236135663
 20
20.79420017995998
 30
0.0
 11
-18.70087236135663
 21
15.73203848518845
 31
0.0
  0
LINE
  5
1D8
330
1F
100
AcDbEntity
  8
0
100
AcDbLine
 10
-18.70087236135663
 20
15.73203848518845
 30
0.0
 11
-18.7755792147209
 21
14.54718118671224
 31
0.0
  0
LINE
  5
1D9
330
1F
100
AcDbEntity
  8
0
100
AcDbLine
 10
-18.7755792147209
 20
14.54718118671224
 30
0.0
 11
-18.99970126895825
 21
13.63425955382504
 31
0.0
  0
LINE
  5
1DA
330
1F
100
AcDbEntity
  8
0
100
AcDbLine
 10
-18.99970126895825
 20
13.63425955382504
 30
0.0
 11
-19.41880821047636
 21
12.92977004182415
 31
0.0
  0
LINE
  5
1DB
330
1F
100
AcDbEntity
  8
0
100
AcDbLine
 10
-19.41880821047636
 20
12.92977004182415
 30
0.0
 11
-20.07847362540013
 21
12.37021327467016
 31
0.0
  0
LINE
  5
1DC
330
1F
100
AcDbEntity
  8
0
100
AcDbLine
 10
-20.07847362540013
 20
12.37021327467016
 30
0.0
 11
-20.98018924522413
 21
12.00489432626328
 31
0.0
  0
LINE
  5
1DD
330
1F
100
AcDbEntity
  8
0
100
AcDbLine
 10
-20.98018924522413
 20
12.00489432626328
 30
0.0
 11
-22.12545164247126
 21
11.88312215527951
 31
0.0
  0
LINE
  5
1DE
330
1F
100
AcDbEntity
  8
0
100
AcDbLine
 10
-22.12545164247126
 20
11.88312215527951
 30
0.0
 11
-23.24456646174355
 21
11.98920588705678
 31
0.0
  0
LINE
  5
1DF
330
1F
100
AcDbEntity
  8
0
100
AcDbLine
 10
-23.24456646174355
 20
11.98920588705678
 30
0.0
 11
-24.13955847970622
 21
12.30745920407382
 31
0.0
  0
LINE
  5
1E0
330
1F
100
AcDbEntity
  8
0
100
AcDbLine
 10
-24.13955847970622
 20
12.30745920407382
 30
0.0
 11
-24.81042993757606
 21
12.82667395664075
 31
0.0
  0
LINE
  5
1E1
330
1F
100
AcDbEntity
  8
0
100
AcDbLine
 10
-24.81042993757606
 20
12.82667395664075
 30
0.0
 11
-25.25717859413629
 21
13.5356460143165
 31
0.0
  0
LINE
  5
1E2
330
1F
100
AcDbEntity
  8
0
100
AcDbLine
 10
-25.25717859413629
 20
13.5356460143165
 30
0.0
 11
-25.50819529488213
 21
14.48666827689249
 31
0.0
  0
LINE
  5
1E3
330
1F
100
AcDbEntity
  8
0
100
AcDbLine
 10
-25.50819529488213
 20
14.48666827689249
 30
0.0
 11
-25.59186697065011
 21
15.73203848518845
 31
0.0
  0
LINE
  5
1E4
330
1F
100
AcDbEntity
  8
0
100
AcDbLine
 10
-25.59186697065011
 20
15.73203848518845
 30
0.0
 11
-25.59186697065011
 21
20.79420017995998
 31
0.0
  0
LINE
  5
1E5
330
1F
100
AcDbEntity
  8
0
100
AcDbLine
 10
-25.59186697065011
 20
20.79420017995998
 30
0.0
 11
-24.4324108091558
 21
20.79420017995998
 31
0.0
  0
LINE
  5
1E6
330
1F
100
AcDbEntity
  8
0
100
AcDbLine
 10
-24.4324108091558
 20
20.79420017995998
 30
0.0
 11
-24.4324108091558
 21
15.73801506334048
 31
0.0
  0
LINE
  5
1E7
330
1F
100
AcDbEntity
  8
0
100
AcDbLine
 10
-24.4324108091558
 20
15.73801506334048
 30
0.0
 11
-24.37936894326717
 21
14.74664941156446
 31
0.0
  0
LINE
  5
1E8
330
1F
100
AcDbEntity
  8
0
100
AcDbLine
 10
-24.37936894326717
 20
14.74664941156446
 30
0.0
 11
-24.22024228475865
 21
14.05560831354333
 31
0.0
  0
LINE
  5
1E9
330
1F
100
AcDbEntity
  8
0
100
AcDbLine
 10
-24.22024228475865
 20
14.05560831354333
 30
0.0
 11
-23.93187276992994
 21
13.57673467907673
 31
0.0
  0
LINE
  5
1EA
330
1F
100
AcDbEntity
  8
0
100
AcDbLine
 10
-23.93187276992994
 20
13.57673467907673
 30
0.0
 11
-23.49109975021068
 21
13.22187566133479
 31
0.0
  0
LINE
  5
1EB
330
1F
100
AcDbEntity
  8
0
100
AcDbLine
 10
-23.49109975021068
 20
13.22187566133479
 30
0.0
 11
-22.91660146296939
 21
13.00223604818219
 31
0.0
  0
LINE
  5
1EC
330
1F
100
AcDbEntity
  8
0
100
AcDbLine
 10
-22.91660146296939
 20
13.00223604818219
 30
0.0
 11
-22.22705347105581
 21
12.9290233318852
 31
0.0
  0
LINE
  5
1ED
330
1F
100
AcDbEntity
  8
0
100
AcDbLine
 10
-22.22705347105581
 20
12.9290233318852
 30
0.0
 11
-21.63350300969401
 21
12.96525606518436
 31
0.0
  0
LINE
  5
1EE
330
1F
100
AcDbEntity
  8
0
100
AcDbLine
 10
-21.63350300969401
 20
12.96525606518436
 30
0.0
 11
-21.13184460579696
 21
13.07395462741189
 31
0.0
  0
LINE
  5
1EF
330
1F
100
AcDbEntity
  8
0
100
AcDbLine
 10
-21.13184460579696
 20
13.07395462741189
 30
0.0
 11
-20.72207655043686
 21
13.25511956206286
 31
0.0
  0
LINE
  5
1F0
330
1F
100
AcDbEntity
  8
0
100
AcDbLine
 10
-20.72207655043686
 20
13.25511956206286
 30
0.0
 11
-20.40419713468589
 21
13.50875141263236
 31
0.0
  0
LINE
  5
1F1
330
1F
100
AcDbEntity
  8
0
100
AcDbLine
 10
-20.40419713468589
 20
13.50875141263236
 30
0.0
 11
-20.16625385219287
 21
13.86547846310461
 31
0.0
  0
LINE
  5
1F2
330
1F
100
AcDbEntity
  8
0
100
AcDbLine
 10
-20.16625385219287
 20
13.86547846310461
 30
0.0
 11
-19.99629499597391
 21
14.3559300284236
 31
0.0
  0
LINE
  5
1F3
330
1F
100
AcDbEntity
  8
0
100
AcDbLine
 10
-19.99629499597391
 20
14.3559300284236
 30
0.0
 11
-19.86032852285093
 21
15.73801506334048
 31
0.0
  0
LINE
  5
1F4
330
1F
100
AcDbEntity
  8
0
100
AcDbLine
 10
-19.86032852285093
 20
15.73801506334048
 30
0.0
 11
-19.86032852285093
 21
20.79420017995998
 31
0.0
  0
LINE
  5
1F5
330
1F
100
AcDbEntity
  8
0
100
AcDbLine
 10
-9.363151802387135
 20
12.00322449482019
 30
0.0
 11
-9.363151802387135
 21
20.76488806569984
 31
0.0
  0
LINE
  5
1F6
330
1F
100
AcDbEntity
  8
0
100
AcDbLine
 10
-9.363151802387135
 20
20.76488806569984
 30
0.0
 11
-3.027978961232678
 21
20.76488806569984
 31
0.0
  0
LINE
  5
1F7
330
1F
100
AcDbEntity
  8
0
100
AcDbLine
 10
-3.027978961232678
 20
20.76488806569984
 30
0.0
 11
-3.027978961232678
 21
19.73094004539822
 31
0.0
  0
LINE
  5
1F8
330
1F
100
AcDbEntity
  8
0
100
AcDbLine
 10
-3.027978961232678
 20
19.73094004539822
 30
0.0
 11
-8.203695640892828
 21
19.73094004539822
 31
0.0
  0
LINE
  5
1F9
330
1F
100
AcDbEntity
  8
0
100
AcDbLine
 10
-8.203695640892828
 20
19.73094004539822
 30
0.0
 11
-8.203695640892828
 21
17.04745645513562
 31
0.0
  0
LINE
  5
1FA
330
1F
100
AcDbEntity
  8
0
100
AcDbLine
 10
-8.203695640892828
 20
17.04745645513562
 30
0.0
 11
-3.356690759594467
 21
17.04745645513562
 31
0.0
  0
LINE
  5
1FB
330
1F
100
AcDbEntity
  8
0
100
AcDbLine
 10
-3.356690759594467
 20
17.04745645513562
 30
0.0
 11
-3.356690759594466
 21
16.01948501298603
 31
0.0
  0
LINE
  5
1FC
330
1F
100
AcDbEntity
  8
0
100
AcDbLine
 10
-3.356690759594466
 20
16.01948501298603
 30
0.0
 11
-8.203695640892828
 21
16.01948501298603
 31
0.0
  0
LINE
  5
1FD
330
1F
100
AcDbEntity
  8
0
100
AcDbLine
 10
-8.203695640892828
 20
16.01948501298603
 30
0.0
 11
-8.203695640892828
 21
13.03717251512181
 31
0.0
  0
LINE
  5
1FE
330
1F
100
AcDbEntity
  8
0
100
AcDbLine
 10
-8.203695640892828
 20
13.03717251512181
 30
0.0
 11
-2.824775304063574
 21
13.03717251512181
 31
0.0
  0
LINE
  5
1FF
330
1F
100
AcDbEntity
  8
0
100
AcDbLine
 10
-2.824775304063574
 20
13.03717251512181
 30
0.0
 11
-2.824775304063574
 21
12.00322449482019
 31
0.0
  0
LINE
  5
200
330
1F
100
AcDbEntity
  8
0
100
AcDbLine
 10
-2.824775304063574
 20
12.00322449482019
 30
0.0
 11
-9.363151802387135
 21
12.00322449482019
 31
0.0
  0
LINE
  5
201
330
1F
100
AcDbEntity
  8
0
100
AcDbLine
 10
26.44708357638733
 20
12.10998972717364
 30
0.0
 11
38.36802967245807
 21
12.10998972717364
 31
0.0
  0
LINE
  5
202
330
1F
100
AcDbEntity
  8
0
100
AcDbLine
 10
32.4075566244227
 20
21.84946345957189
 30
0.0
 11
26.44708357638733
 21
12.10998972717364
 31
0.0
  0
LINE
  5
203
330
1F
100
AcDbEntity
  8
0
100
AcDbLine
 10
38.36802967245807
 20
12.10998972717364
 30
0.0
 11
32.4075566244227
 21
21.84946345957189
 31
0.0
  0
LINE
  5
204
330
1F
100
AcDbEntity
  8
0
100
AcDbLine
 10
107.9632085276349
 20
11.07967046480697
 30
0.0
 11
-97.42539744221213
 21
11.07967046480697
 31
0.0
  0
LINE
  5
205
330
1F
100
AcDbEntity
  8
0
100
AcDbLine
 10
-97.42539744221213
 20
22.74343456361568
 30
0.0
 11
107.9632085276349
 21
22.74343456361568
 31
0.0
  0
LINE
  5
206
330
1F
100
AcDbEntity
  8
0
100
AcDbLine
 10
-97.42539744221213
 20
11.07967046480697
 30
0.0
 11
-97.42539744221213
 21
22.74343456361568
 31
0.0
  0
LINE
  5
207
330
1F
100
AcDbEntity
  8
0
100
AcDbLine
 10
23.07015373716752
 20
-7.85143088567887
 30
0.0
 11
25.6913572860691
 21
-7.85143088567887
 31
0.0
  0
LINE
  5
208
330
1F
100
AcDbEntity
  8
0
100
AcDbLine
 10
25.6913572860691
 20
-7.85143088567887
 30
0.0
 11
25.6913572860691
 21
-16.57299754726113
 31
0.0
  0
LINE
  5
209
330
1F
100
AcDbEntity
  8
0
100
AcDbLine
 10
25.6913572860691
 20
-16.57299754726113
 30
0.0
 11
23.99319607041503
 21
-16.57299754726113
 31
0.0
  0
LINE
  5
20A
330
1F
100
AcDbEntity
  8
0
100
AcDbLine
 10
23.99319607041503
 20
-16.57299754726113
 30
0.0
 11
23.99319607041503
 21
-10.67381032772415
 31
0.0
  0
LINE
  5
20B
330
1F
100
AcDbEntity
  8
0
100
AcDbLine
 10
24.0050299464823
 20
-9.253745199651052
 30
0.0
 11
22.35420423509733
 21
-16.57299754726113
 31
0.0
  0
LINE
  5
20C
330
1F
100
AcDbEntity
  8
0
100
AcDbLine
 10
22.35420423509733
 20
-16.57299754726113
 30
0.0
 11
20.5850397630396
 21
-16.57299754726113
 31
0.0
  0
LINE
  5
20D
330
1F
100
AcDbEntity
  8
0
100
AcDbLine
 10
20.5850397630396
 20
-16.57299754726113
 30
0.0
 11
18.9460479277219
 21
-9.253745199651052
 31
0.0
  0
LINE
  5
20E
330
1F
100
AcDbEntity
  8
0
100
AcDbLine
 10
18.95788180378918
 20
-10.67381032772415
 30
0.0
 11
18.95788180378918
 21
-16.57299754726113
 31
0.0
  0
LINE
  5
20F
330
1F
100
AcDbEntity
  8
0
100
AcDbLine
 10
18.95788180378918
 20
-16.57299754726113
 30
0.0
 11
17.2597205881351
 21
-16.57299754726113
 31
0.0
  0
LINE
  5
210
330
1F
100
AcDbEntity
  8
0
100
AcDbLine
 10
17.2597205881351
 20
-16.57299754726113
 30
0.0
 11
17.2597205881351
 21
-7.85143088567887
 31
0.0
  0
LINE
  5
211
330
1F
100
AcDbEntity
  8
0
100
AcDbLine
 10
17.2597205881351
 20
-7.85143088567887
 30
0.0
 11
19.91050882720488
 21
-7.85143088567887
 31
0.0
  0
LINE
  5
212
330
1F
100
AcDbEntity
  8
0
100
AcDbLine
 10
19.91050882720488
 20
-7.85143088567887
 30
0.0
 11
21.49624822021983
 21
-14.70916206666519
 31
0.0
  0
LINE
  5
213
330
1F
100
AcDbEntity
  8
0
100
AcDbLine
 10
21.49624822021983
 20
-14.70916206666519
 30
0.0
 11
23.07015373716752
 21
-7.85143088567887
 31
0.0
  0
LINE
  5
214
330
1F
100
AcDbEntity
  8
0
100
AcDbLine
 10
-0.100813757410729
 20
-9.36616702229017
 30
0.0
 11
-0.100813757410729
 21
-11.28917188322249
 31
0.0
  0
LINE
  5
215
330
1F
100
AcDbEntity
  8
0
100
AcDbLine
 10
-0.100813757410729
 20
-11.28917188322249
 30
0.0
 11
2.041117810766189
 21
-11.28917188322249
 31
0.0
  0
LINE
  5
216
330
1F
100
AcDbEntity
  8
0
100
AcDbLine
 10
2.041117810766189
 20
-11.28917188322249
 30
0.0
 11
2.561069010432417
 21
-11.23518009362584
 31
0.0
  0
LINE
  5
217
330
1F
100
AcDbEntity
  8
0
100
AcDbLine
 10
2.561069010432417
 20
-11.23518009362584
 30
0.0
 11
2.973035551064157
 21
-11.0732036449947
 31
0.0
  0
LINE
  5
218
330
1F
100
AcDbEntity
  8
0
100
AcDbLine
 10
2.973035551064157
 20
-11.0732036449947
 30
0.0
 11
3.241517061808915
 21
-10.77365907492554
 31
0.0
  0
LINE
  5
219
330
1F
100
AcDbEntity
  8
0
100
AcDbLine
 10
3.241517061808915
 20
-10.77365907492554
 30
0.0
 11
3.33101030209925
 21
-10.3069601696386
 31
0.0
  0
LINE
  5
21A
330
1F
100
AcDbEntity
  8
0
100
AcDbLine
 10
3.33101030209925
 20
-10.3069601696386
 30
0.0
 11
3.212672133120296
 21
-9.801061450030478
 31
0.0
  0
LINE
  5
21B
330
1F
100
AcDbEntity
  8
0
100
AcDbLine
 10
3.212672133120296
 20
-9.801061450030478
 30
0.0
 11
3.064748756241073
 21
-9.625772667421776
 31
0.0
  0
LINE
  5
21C
330
1F
100
AcDbEntity
  8
0
100
AcDbLine
 10
3.064748756241073
 20
-9.625772667421776
 30
0.0
 11
2.857655259408218
 21
-9.502256597063843
 31
0.0
  0
LINE
  5
21D
330
1F
100
AcDbEntity
  8
0
100
AcDbLine
 10
2.857655259408218
 20
-9.502256597063843
 30
0.0
 11
2.3931759048222
 21
-9.400189245871621
 31
0.0
  0
LINE
  5
21E
330
1F
100
AcDbEntity
  8
0
100
AcDbLine
 10
2.3931759048222
 20
-9.400189245871621
 30
0.0
 11
1.816274165487949
 21
-9.36616702229017
 31
0.0
  0
LINE
  5
21F
330
1F
100
AcDbEntity
  8
0
100
AcDbLine
 10
1.816274165487949
 20
-9.36616702229017
 30
0.0
 11
-0.100813757410729
 21
-9.36616702229017
 31
0.0
  0
LINE
  5
220
330
1F
100
AcDbEntity
  8
0
100
AcDbLine
 10
-0.100813757410729
 20
-12.73290476343013
 30
0.0
 11
-0.100813757410729
 21
-15.05826141064983
 31
0.0
  0
LINE
  5
221
330
1F
100
AcDbEntity
  8
0
100
AcDbLine
 10
-0.100813757410729
 20
-15.05826141064983
 30
0.0
 11
2.041117810766189
 21
-15.05826141064983
 31
0.0
  0
LINE
  5
222
330
1F
100
AcDbEntity
  8
0
100
AcDbLine
 10
2.041117810766189
 20
-15.05826141064983
 30
0.0
 11
2.551454034202876
 21
-15.01980150573167
 31
0.0
  0
LINE
  5
223
330
1F
100
AcDbEntity
  8
0
100
AcDbLine
 10
2.551454034202876
 20
-15.01980150573167
 30
0.0
 11
2.934575453845511
 21
-14.90442102177524
 31
0.0
  0
LINE
  5
224
330
1F
100
AcDbEntity
  8
0
100
AcDbLine
 10
2.934575453845511
 20
-14.90442102177524
 30
0.0
 11
3.188264987465758
 21
-14.7298713275944
 31
0.0
  0
LINE
  5
225
330
1F
100
AcDbEntity
  8
0
100
AcDbLine
 10
3.188264987465758
 20
-14.7298713275944
 30
0.0
 11
3.369471124142806
 21
-14.49023601028377
 31
0.0
  0
LINE
  5
226
330
1F
100
AcDbEntity
  8
0
100
AcDbLine
 10
3.369471124142806
 20
-14.49023601028377
 30
0.0
 11
3.478194407495334
 21
-14.18551404917153
 31
0.0
  0
LINE
  5
227
330
1F
100
AcDbEntity
  8
0
100
AcDbLine
 10
3.478194407495334
 20
-14.18551404917153
 30
0.0
 11
3.514435381142025
 21
-13.81570442358587
 31
0.0
  0
LINE
  5
228
330
1F
100
AcDbEntity
  8
0
100
AcDbLine
 10
3.514435381142025
 20
-13.81570442358587
 30
0.0
 11
3.479303825055946
 21
-13.50210587018652
 31
0.0
  0
LINE
  5
229
330
1F
100
AcDbEntity
  8
0
100
AcDbLine
 10
3.479303825055946
 20
-13.50210587018652
 30
0.0
 11
3.373908805479515
 21
-13.24176090179857
 31
0.0
  0
LINE
  5
22A
330
1F
100
AcDbEntity
  8
0
100
AcDbLine
 10
3.373908805479515
 20
-13.24176090179857
 30
0.0
 11
3.198249795435439
 21
-13.03466864197557
 31
0.0
  0
LINE
  5
22B
330
1F
100
AcDbEntity
  8
0
100
AcDbLine
 10
3.198249795435439
 20
-13.03466864197557
 30
0.0
 11
2.952326267946425
 21
-12.88082821427108
 31
0.0
  0
LINE
  5
22C
330
1F
100
AcDbEntity
  8
0
100
AcDbLine
 10
2.952326267946425
 20
-12.88082821427108
 30
0.0
 11
2.575121786337429
 21
-12.77284392504522
 31
0.0
  0
LINE
  5
22D
330
1F
100
AcDbEntity
  8
0
100
AcDbLine
 10
2.575121786337429
 20
-12.77284392504522
 30
0.0
 11
2.070702500934378
 21
-12.73290476343013
 31
0.0
  0
LINE
  5
22E
330
1F
100
AcDbEntity
  8
0
100
AcDbLine
 10
2.070702500934378
 20
-12.73290476343013
 30
0.0
 11
-0.100813757410729
 21
-12.73290476343013
 31
0.0
  0
LINE
  5
22F
330
1F
100
AcDbEntity
  8
0
100
AcDbLine
 10
4.668238297701414
 20
-8.78039015696002
 30
0.0
 11
4.970002640356681
 21
-9.391313735274748
 31
0.0
  0
LINE
  5
230
330
1F
100
AcDbEntity
  8
0
100
AcDbLine
 10
4.970002640356681
 20
-9.391313735274748
 30
0.0
 11
5.070590083988792
 21
-10.11170121452855
 31
0.0
  0
LINE
  5
231
330
1F
100
AcDbEntity
  8
0
100
AcDbLine
 10
5.070590083988792
 20
-10.11170121452855
 30
0.0
 11
4.970002640356681
 21
-10.83208881212111
 31
0.0
  0
LINE
  5
232
330
1F
100
AcDbEntity
  8
0
100
AcDbLine
 10
4.970002640356681
 20
-10.83208881212111
 30
0.0
 11
4.668238297701414
 21
-11.39567676782797
 31
0.0
  0
LINE
  5
233
330
1F
100
AcDbEntity
  8
0
100
AcDbLine
 10
4.668238297701414
 20
-11.39567676782797
 30
0.0
 11
4.390142476382645
 21
-11.65602210047742
 31
0.0
  0
LINE
  5
234
330
1F
100
AcDbEntity
  8
0
100
AcDbLine
 10
4.390142476382645
 20
-11.65602210047742
 30
0.0
 11
4.00554123793397
 21
-11.89269956265355
 31
0.0
  0
LINE
  5
235
330
1F
100
AcDbEntity
  8
0
100
AcDbLine
 10
4.00554123793397
 20
-11.89269956265355
 30
0.0
 11
4.592058131005903
 21
-12.20629692342008
 31
0.0
  0
LINE
  5
236
330
1F
100
AcDbEntity
  8
0
100
AcDbLine
 10
4.592058131005903
 20
-12.20629692342008
 30
0.0
 11
5.014379172669231
 21
-12.66190150702648
 31
0.0
  0
LINE
  5
237
330
1F
100
AcDbEntity
  8
0
100
AcDbLine
 10
5.014379172669231
 20
-12.66190150702648
 30
0.0
 11
5.269547550649786
 21
-13.24471962228526
 31
0.0
  0
LINE
  5
238
330
1F
100
AcDbEntity
  8
0
100
AcDbLine
 10
5.269547550649786
 20
-13.24471962228526
 30
0.0
 11
5.35460310960341
 21
-13.93996012229226
 31
0.0
  0
LINE
  5
239
330
1F
100
AcDbEntity
  8
0
100
AcDbLine
 10
5.35460310960341
 20
-13.93996012229226
 30
0.0
 11
5.256974120195773
 21
-14.67513987266843
 31
0.0
  0
LINE
  5
23A
330
1F
100
AcDbEntity
  8
0
100
AcDbLine
 10
5.256974120195773
 20
-14.67513987266843
 30
0.0
 11
4.96408519938331
 21
-15.33044056019717
 31
0.0
  0
LINE
  5
23B
330
1F
100
AcDbEntity
  8
0
100
AcDbLine
 10
4.96408519938331
 20
-15.33044056019717
 30
0.0
 11
4.684510032613542
 21
-15.70616628804897
 31
0.0
  0
LINE
  5
23C
330
1F
100
AcDbEntity
  8
0
100
AcDbLine
 10
4.684510032613542
 20
-15.70616628804897
 30
0.0
 11
4.342806705851331
 21
-16.01680537209917
 31
0.0
  0
LINE
  5
23D
330
1F
100
AcDbEntity
  8
0
100
AcDbLine
 10
4.342806705851331
 20
-16.01680537209917
 30
0.0
 11
3.884983814100998
 21
-16.28602630409955
 31
0.0
  0
LINE
  5
23E
330
1F
100
AcDbEntity
  8
0
100
AcDbLine
 10
3.884983814100998
 20
-16.28602630409955
 30
0.0
 11
3.351719585216983
 21
-16.45465878658837
 31
0.0
  0
LINE
  5
23F
330
1F
100
AcDbEntity
  8
0
100
AcDbLine
 10
3.351719585216983
 20
-16.45465878658837
 30
0.0
 11
2.112121067169844
 21
-16.57299754726113
 31
0.0
  0
LINE
  5
240
330
1F
100
AcDbEntity
  8
0
100
AcDbLine
 10
2.112121067169844
 20
-16.57299754726113
 30
0.0
 11
-1.84039353930027
 21
-16.57299754726113
 31
0.0
  0
LINE
  5
241
330
1F
100
AcDbEntity
  8
0
100
AcDbLine
 10
-1.84039353930027
 20
-16.57299754726113
 30
0.0
 11
-1.84039353930027
 21
-7.85143088567887
 31
0.0
  0
LINE
  5
242
330
1F
100
AcDbEntity
  8
0
100
AcDbLine
 10
-1.84039353930027
 20
-7.85143088567887
 30
0.0
 11
2.396134092784463
 21
-7.85143088567887
 31
0.0
  0
LINE
  5
243
330
1F
100
AcDbEntity
  8
0
100
AcDbLine
 10
2.396134092784463
 20
-7.85143088567887
 30
0.0
 11
3.139451374755517
 21
-7.918365856111776
 31
0.0
  0
LINE
  5
244
330
1F
100
AcDbEntity
  8
0
100
AcDbLine
 10
3.139451374755517
 20
-7.918365856111776
 30
0.0
 11
3.765906416166898
 21
-8.095503477536726
 31
0.0
  0
LINE
  5
245
330
1F
100
AcDbEntity
  8
0
100
AcDbLine
 10
3.765906416166898
 20
-8.095503477536726
 30
0.0
 11
4.275501347116299
 21
-8.382844620853035
 31
0.0
  0
LINE
  5
246
330
1F
100
AcDbEntity
  8
0
100
AcDbLine
 10
4.275501347116299
 20
-8.382844620853035
 30
0.0
 11
4.668238297701414
 21
-8.78039015696002
 31
0.0
  0
LINE
  5
247
330
1F
100
AcDbEntity
  8
0
100
AcDbLine
 10
-32.69150669382383
 20
-16.57299754726113
 30
0.0
 11
-32.69150669382383
 21
-7.811333976381473
 31
0.0
  0
LINE
  5
248
330
1F
100
AcDbEntity
  8
0
100
AcDbLine
 10
-32.69150669382383
 20
-7.811333976381473
 30
0.0
 11
-29.38645897574986
 21
-7.811333976381473
 31
0.0
  0
LINE
  5
249
330
1F
100
AcDbEntity
  8
0
100
AcDbLine
 10
-29.38645897574986
 20
-7.811333976381473
 30
0.0
 11
-28.05368204784661
 21
-7.895006070509929
 31
0.0
  0
LINE
  5
24A
330
1F
100
AcDbEntity
  8
0
100
AcDbLine
 10
-28.05368204784661
 20
-7.895006070509929
 30
0.0
 11
-27.46050640478209
 21
-8.051143931933291
 31
0.0
  0
LINE
  5
24B
330
1F
100
AcDbEntity
  8
0
100
AcDbLine
 10
-27.46050640478209
 20
-8.051143931933291
 30
0.0
 11
-26.97192140232873
 21
-8.304401673924156
 31
0.0
  0
LINE
  5
24C
330
1F
100
AcDbEntity
  8
0
100
AcDbLine
 10
-26.97192140232873
 20
-8.304401673924156
 30
0.0
 11
-26.57821410364799
 21
-8.666731421826857
 31
0.0
  0
LINE
  5
24D
330
1F
100
AcDbEntity
  8
0
100
AcDbLine
 10
-26.57821410364799
 20
-8.666731421826857
 30
0.0
 11
-26.26967346946491
 21
-9.150087482436755
 31
0.0
  0
LINE
  5
24E
330
1F
100
AcDbEntity
  8
0
100
AcDbLine
 10
-26.26967346946491
 20
-9.150087482436755
 30
0.0
 11
-26.07020484119366
 21
-9.720850561482852
 31
0.0
  0
LINE
  5
24F
330
1F
100
AcDbEntity
  8
0
100
AcDbLine
 10
-26.07020484119366
 20
-9.720850561482852
 30
0.0
 11
-26.00371574169946
 21
-10.34540311284326
 31
0.0
  0
LINE
  5
250
330
1F
100
AcDbEntity
  8
0
100
AcDbLine
 10
-26.00371574169946
 20
-10.34540311284326
 30
0.0
 11
-26.0481662083242
 21
-10.88273605118074
 31
0.0
  0
LINE
  5
251
330
1F
100
AcDbEntity
  8
0
100
AcDbLine
 10
-26.0481662083242
 20
-10.88273605118074
 30
0.0
 11
-26.18151805270643
 21
-11.37711034590442
 31
0.0
  0
LINE
  5
252
330
1F
100
AcDbEntity
  8
0
100
AcDbLine
 10
-26.18151805270643
 20
-11.37711034590442
 30
0.0
 11
-26.40377194160814
 21
-11.82852777037709
 31
0.0
  0
LINE
  5
253
330
1F
100
AcDbEntity
  8
0
100
AcDbLine
 10
-26.40377194160814
 20
-11.82852777037709
 30
0.0
 11
-26.71492854179133
 21
-12.23699009796154
 31
0.0
  0
LINE
  5
254
330
1F
100
AcDbEntity
  8
0
100
AcDbLine
 10
-26.71492854179133
 20
-12.23699009796154
 30
0.0
 11
-27.14225400853162
 21
-12.57560169227855
 31
0.0
  0
LINE
  5
255
330
1F
100
AcDbEntity
  8
0
100
AcDbLine
 10
-27.14225400853162
 20
-12.57560169227855
 30
0.0
 11
-27.713015658802
 21
-12.81746621843629
 31
0.0
  0
LINE
  5
256
330
1F
100
AcDbEntity
  8
0
100
AcDbLine
 10
-27.713015658802
 20
-12.81746621843629
 30
0.0
 11
-28.42721590191054
 21
-12.96258440202871
 31
0.0
  0
LINE
  5
257
330
1F
100
AcDbEntity
  8
0
100
AcDbLine
 10
-28.42721590191054
 20
-12.96258440202871
 30
0.0
 11
-29.2848571471653
 21
-13.01095696864975
 31
0.0
  0
LINE
  5
258
330
1F
100
AcDbEntity
  8
0
100
AcDbLine
 10
-29.2848571471653
 20
-13.01095696864975
 30
0.0
 11
-31.53205053232953
 21
-13.01095696864975
 31
0.0
  0
LINE
  5
259
330
1F
100
AcDbEntity
  8
0
100
AcDbLine
 10
-31.53205053232953
 20
-13.01095696864975
 30
0.0
 11
-31.53205053232953
 21
-16.57299754726113
 31
0.0
  0
LINE
  5
25A
330
1F
100
AcDbEntity
  8
0
100
AcDbLine
 10
-31.53205053232953
 20
-16.57299754726113
 30
0.0
 11
-32.69150669382383
 21
-16.57299754726113
 31
0.0
  0
LINE
  5
25B
330
1F
100
AcDbEntity
  8
0
100
AcDbLine
 10
-31.53205053232953
 20
-11.97700894834813
 30
0.0
 11
-29.26692741270921
 21
-11.97700894834813
 31
0.0
  0
LINE
  5
25C
330
1F
100
AcDbEntity
  8
0
100
AcDbLine
 10
-29.26692741270921
 20
-11.97700894834813
 30
0.0
 11
-28.30619166046121
 21
-11.87241935363815
 31
0.0
  0
LINE
  5
25D
330
1F
100
AcDbEntity
  8
0
100
AcDbLine
 10
-28.30619166046121
 20
-11.87241935363815
 30
0.0
 11
-27.67118104611653
 21
-11.55864847770586
 31
0.0
  0
LINE
  5
25E
330
1F
100
AcDbEntity
  8
0
100
AcDbLine
 10
-27.67118104611653
 20
-11.55864847770586
 30
0.0
 11
-27.31706820042151
 21
-11.05512219422831
 31
0.0
  0
LINE
  5
25F
330
1F
100
AcDbEntity
  8
0
100
AcDbLine
 10
-27.31706820042151
 20
-11.05512219422831
 30
0.0
 11
-27.19903137210596
 21
-10.38126258175545
 31
0.0
  0
LINE
  5
260
330
1F
100
AcDbEntity
  8
0
100
AcDbLine
 10
-27.19903137210596
 20
-10.38126258175545
 30
0.0
 11
-27.26850874573474
 21
-9.871012024051524
 31
0.0
  0
LINE
  5
261
330
1F
100
AcDbEntity
  8
0
100
AcDbLine
 10
-27.26850874573474
 20
-9.871012024051524
 30
0.0
 11
-27.47694225617547
 21
-9.43995152281033
 31
0.0
  0
LINE
  5
262
330
1F
100
AcDbEntity
  8
0
100
AcDbLine
 10
-27.47694225617547
 20
-9.43995152281033
 30
0.0
 11
-27.79893018372991
 21
-9.114974753346406
 31
0.0
  0
LINE
  5
263
330
1F
100
AcDbEntity
  8
0
100
AcDbLine
 10
-27.79893018372991
 20
-9.114974753346406
 30
0.0
 11
-28.20907307979946
 21
-8.92297751265952
 31
0.0
  0
LINE
  5
264
330
1F
100
AcDbEntity
  8
0
100
AcDbLine
 10
-28.20907307979946
 20
-8.92297751265952
 30
0.0
 11
-29.29083372531734
 21
-8.845281996683097
 31
0.0
  0
LINE
  5
265
330
1F
100
AcDbEntity
  8
0
100
AcDbLine
 10
-29.29083372531734
 20
-8.845281996683097
 30
0.0
 11
-31.53205053232953
 21
-8.845281996683097
 31
0.0
  0
LINE
  5
266
330
1F
100
AcDbEntity
  8
0
100
AcDbLine
 10
-31.53205053232953
 20
-8.845281996683097
 30
0.0
 11
-31.53205053232953
 21
-11.97700894834813
 31
0.0
  0
LINE
  5
267
330
1F
100
AcDbEntity
  8
0
100
AcDbLine
 10
7.81962835260236
 20
-16.57299754726113
 30
0.0
 11
6.009045314309164
 21
-16.57299754726113
 31
0.0
  0
LINE
  5
268
330
1F
100
AcDbEntity
  8
0
100
AcDbLine
 10
6.009045314309164
 20
-16.57299754726113
 30
0.0
 11
6.009045314309164
 21
-7.85143088567887
 31
0.0
  0
LINE
  5
269
330
1F
100
AcDbEntity
  8
0
100
AcDbLine
 10
6.009045314309164
 20
-7.85143088567887
 30
0.0
 11
7.81962835260236
 21
-7.85143088567887
 31
0.0
  0
LINE
  5
26A
330
1F
100
AcDbEntity
  8
0
100
AcDbLine
 10
7.81962835260236
 20
-7.85143088567887
 30
0.0
 11
7.81962835260236
 21
-16.57299754726113
 31
0.0
  0
LINE
  5
26B
330
1F
100
AcDbEntity
  8
0
100
AcDbLine
 10
-17.61343079928189
 20
-16.57299754726113
 30
0.0
 11
-17.61343079928189
 21
-7.811333976381473
 31
0.0
  0
LINE
  5
26C
330
1F
100
AcDbEntity
  8
0
100
AcDbLine
 10
-17.61343079928189
 20
-7.811333976381473
 30
0.0
 11
-13.72865500046077
 21
-7.811333976381473
 31
0.0
  0
LINE
  5
26D
330
1F
100
AcDbEntity
  8
0
100
AcDbLine
 10
-13.72865500046077
 20
-7.811333976381473
 30
0.0
 11
-12.69769456698723
 21
-7.870352390539249
 31
0.0
  0
LINE
  5
26E
330
1F
100
AcDbEntity
  8
0
100
AcDbLine
 10
-12.69769456698723
 20
-7.870352390539249
 30
0.0
 11
-11.94763471115508
 21
-8.047408813386758
 31
0.0
  0
LINE
  5
26F
330
1F
100
AcDbEntity
  8
0
100
AcDbLine
 10
-11.94763471115508
 20
-8.047408813386758
 30
0.0
 11
-11.39928335940647
 21
-8.373878942962811
 31
0.0
  0
LINE
  5
270
330
1F
100
AcDbEntity
  8
0
100
AcDbLine
 10
-11.39928335940647
 20
-8.373878942962811
 30
0.0
 11
-10.97345247237378
 21
-8.881141465595292
 31
0.0
  0
LINE
  5
271
330
1F
100
AcDbEntity
  8
0
100
AcDbLine
 10
-10.97345247237378
 20
-8.881141465595292
 30
0.0
 11
-10.70002356620421
 21
-9.510176159211538
 31
0.0
  0
LINE
  5
272
330
1F
100
AcDbEntity
  8
0
100
AcDbLine
 10
-10.70002356620421
 20
-9.510176159211538
 30
0.0
 11
-10.6088812050998
 21
-10.20196523719448
 31
0.0
  0
LINE
  5
273
330
1F
100
AcDbEntity
  8
0
100
AcDbLine
 10
-10.6088812050998
 20
-10.20196523719448
 30
0.0
 11
-10.75978904889563
 21
-11.06109871261456
 31
0.0
  0
LINE
  5
274
330
1F
100
AcDbEntity
  8
0
100
AcDbLine
 10
-10.75978904889563
 20
-11.06109871261456
 30
0.0
 11
-10.94842470250128
 21
-11.43575462720372
 31
0.0
  0
LINE
  5
275
330
1F
100
AcDbEntity
  8
0
100
AcDbLine
 10
-10.94842470250128
 20
-11.43575462720372
 30
0.0
 11
-11.21251559845508
 21
-11.77380529117903
 31
0.0
  0
LINE
  5
276
330
1F
100
AcDbEntity
  8
0
100
AcDbLine
 10
-11.21251559845508
 20
-11.77380529117903
 30
0.0
 11
-11.55542202766788
 21
-12.06441722186574
 31
0.0
  0
LINE
  5
277
330
1F
100
AcDbEntity
  8
0
100
AcDbLine
 10
-11.55542202766788
 20
-12.06441722186574
 30
0.0
 11
-11.98050506921176
 21
-12.29675646219824
 31
0.0
  0
LINE
  5
278
330
1F
100
AcDbEntity
  8
0
100
AcDbLine
 10
-11.98050506921176
 20
-12.29675646219824
 30
0.0
 11
-13.07720798188922
 21
-12.58661991985545
 31
0.0
  0
LINE
  5
279
330
1F
100
AcDbEntity
  8
0
100
AcDbLine
 10
-13.07720798188922
 20
-12.58661991985545
 30
0.0
 11
-12.37794833810142
 21
-13.02291012495382
 31
0.0
  0
LINE
  5
27A
330
1F
100
AcDbEntity
  8
0
100
AcDbLine
 10
-12.37794833810142
 20
-13.02291012495382
 30
0.0
 11
-11.88338642878422
 21
-13.54735456643649
 31
0.0
  0
LINE
  5
27B
330
1F
100
AcDbEntity
  8
0
100
AcDbLine
 10
-11.88338642878422
 20
-13.54735456643649
 30
0.0
 11
-11.41571925562419
 21
-14.18834286460016
 31
0.0
  0
LINE
  5
27C
330
1F
100
AcDbEntity
  8
0
100
AcDbLine
 10
-11.41571925562419
 20
-14.18834286460016
 30
0.0
 11
-9.891691826855896
 21
-16.57299754726113
 31
0.0
  0
LINE
  5
27D
330
1F
100
AcDbEntity
  8
0
100
AcDbLine
 10
-9.891691826855896
 20
-16.57299754726113
 30
0.0
 11
-11.34997689595183
 21
-16.57299754726113
 31
0.0
  0
LINE
  5
27E
330
1F
100
AcDbEntity
  8
0
100
AcDbLine
 10
-11.34997689595183
 20
-16.57299754726113
 30
0.0
 11
-12.50943305744613
 21
-14.75014121089121
 31
0.0
  0
LINE
  5
27F
330
1F
100
AcDbEntity
  8
0
100
AcDbLine
 10
-12.50943305744613
 20
-14.75014121089121
 30
0.0
 11
-13.34615399873068
 21
-13.54287242418065
 31
0.0
  0
LINE
  5
280
330
1F
100
AcDbEntity
  8
0
100
AcDbLine
 10
-13.34615399873068
 20
-13.54287242418065
 30
0.0
 11
-13.93484694670589
 21
-12.95716776528146
 31
0.0
  0
LINE
  5
281
330
1F
100
AcDbEntity
  8
0
100
AcDbLine
 10
-13.93484694670589
 20
-12.95716776528146
 30
0.0
 11
-14.46377411316076
 21
-12.72408121735219
 31
0.0
  0
LINE
  5
282
330
1F
100
AcDbEntity
  8
0
100
AcDbLine
 10
-14.46377411316076
 20
-12.72408121735219
 30
0.0
 11
-15.10924455358027
 21
-12.68224517028797
 31
0.0
  0
LINE
  5
283
330
1F
100
AcDbEntity
  8
0
100
AcDbLine
 10
-15.10924455358027
 20
-12.68224517028797
 30
0.0
 11
-16.45397463778759
 21
-12.68224517028797
 31
0.0
  0
LINE
  5
284
330
1F
100
AcDbEntity
  8
0
100
AcDbLine
 10
-16.45397463778759
 20
-12.68224517028797
 30
0.0
 11
-16.45397463778759
 21
-16.57299754726113
 31
0.0
  0
LINE
  5
285
330
1F
100
AcDbEntity
  8
0
100
AcDbLine
 10
-16.45397463778759
 20
-16.57299754726113
 30
0.0
 11
-17.61343079928189
 21
-16.57299754726113
 31
0.0
  0
LINE
  5
286
330
1F
100
AcDbEntity
  8
0
100
AcDbLine
 10
-16.45397463778759
 20
-11.67818004074651
 30
0.0
 11
-13.96174154839003
 21
-11.67818004074651
 31
0.0
  0
LINE
  5
287
330
1F
100
AcDbEntity
  8
0
100
AcDbLine
 10
-13.96174154839003
 20
-11.67818004074651
 30
0.0
 11
-13.25351660407226
 21
-11.63709127139616
 31
0.0
  0
LINE
  5
288
330
1F
100
AcDbEntity
  8
0
100
AcDbLine
 10
-13.25351660407226
 20
-11.63709127139616
 30
0.0
 11
-12.71861329276727
 21
-11.51382414156561
 31
0.0
  0
LINE
  5
289
330
1F
100
AcDbEntity
  8
0
100
AcDbLine
 10
-12.71861329276727
 20
-11.51382414156561
 30
0.0
 11
-12.32415886578711
 21
-11.3001617191643
 31
0.0
  0
LINE
  5
28A
330
1F
100
AcDbEntity
  8
0
100
AcDbLine
 10
-12.32415886578711
 20
-11.3001617191643
 30
0.0
 11
-12.03728338343557
 21
-10.98788526418675
 31
0.0
  0
LINE
  5
28B
330
1F
100
AcDbEntity
  8
0
100
AcDbLine
 10
-12.03728338343557
 20
-10.98788526418675
 30
0.0
 11
-11.86246818113043
 21
-10.61061384678229
 31
0.0
  0
LINE
  5
28C
330
1F
100
AcDbEntity
  8
0
100
AcDbLine
 10
-11.86246818113043
 20
-10.61061384678229
 30
0.0
 11
-11.8041968355063
 21
-10.20196523719448
 31
0.0
  0
LINE
  5
28D
330
1F
100
AcDbEntity
  8
0
100
AcDbLine
 10
-11.8041968355063
 20
-10.20196523719448
 30
0.0
 11
-11.91700418408635
 21
-9.635684180872657
 31
0.0
  0
LINE
  5
28E
330
1F
100
AcDbEntity
  8
0
100
AcDbLine
 10
-11.91700418408635
 20
-9.635684180872657
 30
0.0
 11
-12.25542848598475
 21
-9.179970373196918
 31
0.0
  0
LINE
  5
28F
330
1F
100
AcDbEntity
  8
0
100
AcDbLine
 10
-12.25542848598475
 20
-9.179970373196918
 30
0.0
 11
-12.83739712985068
 21
-8.879646820518865
 31
0.0
  0
LINE
  5
290
330
1F
100
AcDbEntity
  8
0
100
AcDbLine
 10
-12.83739712985068
 20
-8.879646820518865
 30
0.0
 11
-13.68084237524451
 21
-8.77953963701074
 31
0.0
  0
LINE
  5
291
330
1F
100
AcDbEntity
  8
0
100
AcDbLine
 10
-13.68084237524451
 20
-8.77953963701074
 30
0.0
 11
-16.45397463778759
 21
-8.77953963701074
 31
0.0
  0
LINE
  5
292
330
1F
100
AcDbEntity
  8
0
100
AcDbLine
 10
-16.45397463778759
 20
-8.77953963701074
 30
0.0
 11
-16.45397463778759
 21
-11.67818004074651
 31
0.0
  0
LINE
  5
293
330
1F
100
AcDbEntity
  8
0
100
AcDbLine
 10
14.33212647734204
 20
-14.4589664128412
 30
0.0
 11
14.61040836371119
 21
-14.01741447940488
 31
0.0
  0
LINE
  5
294
330
1F
100
AcDbEntity
  8
0
100
AcDbLine
 10
14.61040836371119
 20
-14.01741447940488
 30
0.0
 11
14.80918040139265
 21
-13.49154788750508
 31
0.0
  0
LINE
  5
295
330
1F
100
AcDbEntity
  8
0
100
AcDbLine
 10
14.80918040139265
 20
-13.49154788750508
 30
0.0
 11
14.92844318670282
 21
-12.8813645070441
 31
0.0
  0
LINE
  5
296
330
1F
100
AcDbEntity
  8
0
100
AcDbLine
 10
14.92844318670282
 20
-12.8813645070441
 30
0.0
 11
14.96819731595812
 21
-12.18686220792425
 31
0.0
  0
LINE
  5
297
330
1F
100
AcDbEntity
  8
0
100
AcDbLine
 10
14.96819731595812
 20
-12.18686220792425
 30
0.0
 11
14.92844318670282
 21
-11.49476367458805
 31
0.0
  0
LINE
  5
298
330
1F
100
AcDbEntity
  8
0
100
AcDbLine
 10
14.92844318670282
 20
-11.49476367458805
 30
0.0
 11
14.80918040139265
 21
-10.88587462570871
 31
0.0
  0
LINE
  5
299
330
1F
100
AcDbEntity
  8
0
100
AcDbLine
 10
14.80918040139265
 20
-10.88587462570871
 30
0.0
 11
14.61040836371119
 21
-10.36019293396211
 31
0.0
  0
LINE
  5
29A
330
1F
100
AcDbEntity
  8
0
100
AcDbLine
 10
14.61040836371119
 20
-10.36019293396211
 30
0.0
 11
14.33212647734204
 21
-9.917716472024122
 31
0.0
  0
LINE
  5
29B
330
1F
100
AcDbEntity
  8
0
100
AcDbLine
 10
14.33212647734204
 20
-9.917716472024122
 30
0.0
 11
13.9861701197755
 21
-9.566951861763474
 31
0.0
  0
LINE
  5
29C
330
1F
100
AcDbEntity
  8
0
100
AcDbLine
 10
13.9861701197755
 20
-9.566951861763474
 30
0.0
 11
13.58437399175208
 21
-9.316406642174291
 31
0.0
  0
LINE
  5
29D
330
1F
100
AcDbEntity
  8
0
100
AcDbLine
 10
13.58437399175208
 20
-9.316406642174291
 30
0.0
 11
13.12673648183069
 21
-9.16608006162054
 31
0.0
  0
LINE
  5
29E
330
1F
100
AcDbEntity
  8
0
100
AcDbLine
 10
13.12673648183069
 20
-9.16608006162054
 30
0.0
 11
12.61325597857023
 21
-9.115971368466187
 31
0.0
  0
LINE
  5
29F
330
1F
100
AcDbEntity
  8
0
100
AcDbLine
 10
12.61325597857023
 20
-9.115971368466187
 30
0.0
 11
12.09922076652947
 21
-9.165895158693772
 31
0.0
  0
LINE
  5
2A0
330
1F
100
AcDbEntity
  8
0
100
AcDbLine
 10
12.09922076652947
 20
-9.165895158693772
 30
0.0
 11
11.63991912472003
 21
-9.315667028618174
 31
0.0
  0
LINE
  5
2A1
330
1F
100
AcDbEntity
  8
0
100
AcDbLine
 10
11.63991912472003
 20
-9.315667028618174
 30
0.0
 11
11.23534943338012
 21
-9.565287727101861
 31
0.0
  0
LINE
  5
2A2
330
1F
100
AcDbEntity
  8
0
100
AcDbLine
 10
11.23534943338012
 20
-9.565287727101861
 30
0.0
 11
10.88551007274797
 21
-9.914758003007305
 31
0.0
  0
LINE
  5
2A3
330
1F
100
AcDbEntity
  8
0
100
AcDbLine
 10
10.88551007274797
 20
-9.914758003007305
 30
0.0
 11
10.6033451833132
 21
-10.35630993644363
 31
0.0
  0
LINE
  5
2A4
330
1F
100
AcDbEntity
  8
0
100
AcDbLine
 10
10.6033451833132
 20
-10.35630993644363
 30
0.0
 11
10.40179958231526
 21
-10.88217652834343
 31
0.0
  0
LINE
  5
2A5
330
1F
100
AcDbEntity
  8
0
100
AcDbLine
 10
10.40179958231526
 20
-10.88217652834343
 30
0.0
 11
10.28087266511704
 21
-11.49235990880441
 31
0.0
  0
LINE
  5
2A6
330
1F
100
AcDbEntity
  8
0
100
AcDbLine
 10
10.28087266511704
 20
-11.49235990880441
 30
0.0
 11
10.24056382708144
 21
-12.18686220792425
 31
0.0
  0
LINE
  5
2A7
330
1F
100
AcDbEntity
  8
0
100
AcDbLine
 10
10.24056382708144
 20
-12.18686220792425
 30
0.0
 11
10.28087266511704
 21
-12.8813645070441
 31
0.0
  0
LINE
  5
2A8
330
1F
100
AcDbEntity
  8
0
100
AcDbLine
 10
10.28087266511704
 20
-12.8813645070441
 30
0.0
 11
10.40179958231526
 21
-13.49154788750508
 31
0.0
  0
LINE
  5
2A9
330
1F
100
AcDbEntity
  8
0
100
AcDbLine
 10
10.40179958231526
 20
-13.49154788750508
 30
0.0
 11
10.6033451833132
 21
-14.01741447940488
 31
0.0
  0
LINE
  5
2AA
330
1F
100
AcDbEntity
  8
0
100
AcDbLine
 10
10.6033451833132
 20
-14.01741447940488
 30
0.0
 11
10.88551007274797
 21
-14.4589664128412
 31
0.0
  0
LINE
  5
2AB
330
1F
100
AcDbEntity
  8
0
100
AcDbLine
 10
10.88551007274797
 20
-14.4589664128412
 30
0.0
 11
11.23534943338012
 21
-14.80843668874665
 31
0.0
  0
LINE
  5
2AC
330
1F
100
AcDbEntity
  8
0
100
AcDbLine
 10
11.23534943338012
 20
-14.80843668874665
 30
0.0
 11
11.63991912472003
 21
-15.05805738723033
 31
0.0
  0
LINE
  5
2AD
330
1F
100
AcDbEntity
  8
0
100
AcDbLine
 10
11.63991912472003
 20
-15.05805738723033
 30
0.0
 11
12.09922076652947
 21
-15.20782925715474
 31
0.0
  0
LINE
  5
2AE
330
1F
100
AcDbEntity
  8
0
100
AcDbLine
 10
12.09922076652947
 20
-15.20782925715474
 30
0.0
 11
12.61325597857023
 21
-15.25775304738232
 31
0.0
  0
LINE
  5
2AF
330
1F
100
AcDbEntity
  8
0
100
AcDbLine
 10
12.61325597857023
 20
-15.25775304738232
 30
0.0
 11
13.12673648183069
 21
-15.20782925715474
 31
0.0
  0
LINE
  5
2B0
330
1F
100
AcDbEntity
  8
0
100
AcDbLine
 10
13.12673648183069
 20
-15.20782925715474
 30
0.0
 11
13.58437399175208
 21
-15.05805738723033
 31
0.0
  0
LINE
  5
2B1
330
1F
100
AcDbEntity
  8
0
100
AcDbLine
 10
13.58437399175208
 20
-15.05805738723033
 30
0.0
 11
13.9861701197755
 21
-14.80843668874665
 31
0.0
  0
LINE
  5
2B2
330
1F
100
AcDbEntity
  8
0
100
AcDbLine
 10
13.9861701197755
 20
-14.80843668874665
 30
0.0
 11
14.33212647734204
 21
-14.4589664128412
 31
0.0
  0
LINE
  5
2B3
330
1F
100
AcDbEntity
  8
0
100
AcDbLine
 10
15.47113704881734
 20
-15.78436053237609
 30
0.0
 11
14.92197072446085
 21
-16.22961155056673
 31
0.0
  0
LINE
  5
2B4
330
1F
100
AcDbEntity
  8
0
100
AcDbLine
 10
14.92197072446085
 20
-16.22961155056673
 30
0.0
 11
14.2626035574765
 21
-16.54764681085706
 31
0.0
  0
LINE
  5
2B5
330
1F
100
AcDbEntity
  8
0
100
AcDbLine
 10
14.2626035574765
 20
-16.54764681085706
 30
0.0
 11
13.4930328686008
 21
-16.73846726735333
 31
0.0
  0
LINE
  5
2B6
330
1F
100
AcDbEntity
  8
0
100
AcDbLine
 10
13.4930328686008
 20
-16.73846726735333
 30
0.0
 11
12.61325597857023
 21
-16.80207387416181
 31
0.0
  0
LINE
  5
2B7
330
1F
100
AcDbEntity
  8
0
100
AcDbLine
 10
12.61325597857023
 20
-16.80207387416181
 30
0.0
 11
11.73347908853966
 21
-16.73846726735333
 31
0.0
  0
LINE
  5
2B8
330
1F
100
AcDbEntity
  8
0
100
AcDbLine
 10
11.73347908853966
 20
-16.73846726735333
 30
0.0
 11
10.96390839966396
 21
-16.54764681085706
 31
0.0
  0
LINE
  5
2B9
330
1F
100
AcDbEntity
  8
0
100
AcDbLine
 10
10.96390839966396
 20
-16.54764681085706
 30
0.0
 11
10.30454123267962
 21
-16.22961155056673
 31
0.0
  0
LINE
  5
2BA
330
1F
100
AcDbEntity
  8
0
100
AcDbLine
 10
10.30454123267962
 20
-16.22961155056673
 30
0.0
 11
9.75537490832313
 21
-15.78436053237609
 31
0.0
  0
LINE
  5
2BB
330
1F
100
AcDbEntity
  8
0
100
AcDbLine
 10
9.75537490832313
 20
-15.78436053237609
 30
0.0
 11
9.175513117191135
 21
-15.09133851062499
 31
0.0
  0
LINE
  5
2BC
330
1F
100
AcDbEntity
  8
0
100
AcDbLine
 10
9.175513117191135
 20
-15.09133851062499
 30
0.0
 11
8.761327661929315
 21
-14.26075036440243
 31
0.0
  0
LINE
  5
2BD
330
1F
100
AcDbEntity
  8
0
100
AcDbLine
 10
8.761327661929315
 20
-14.26075036440243
 30
0.0
 11
8.512817299980679
 21
-13.29259272105375
 31
0.0
  0
LINE
  5
2BE
330
1F
100
AcDbEntity
  8
0
100
AcDbLine
 10
8.512817299980679
 20
-13.29259272105375
 30
0.0
 11
8.429980788788242
 21
-12.18686220792425
 31
0.0
  0
LINE
  5
2BF
330
1F
100
AcDbEntity
  8
0
100
AcDbLine
 10
8.429980788788242
 20
-12.18686220792425
 30
0.0
 11
8.512817299980679
 21
-11.06338079193978
 31
0.0
  0
LINE
  5
2C0
330
1F
100
AcDbEntity
  8
0
100
AcDbLine
 10
8.512817299980679
 20
-11.06338079193978
 30
0.0
 11
8.761327661929315
 21
-10.08930618097277
 31
0.0
  0
LINE
  5
2C1
330
1F
100
AcDbEntity
  8
0
100
AcDbLine
 10
8.761327661929315
 20
-10.08930618097277
 30
0.0
 11
9.175513117191135
 21
-9.26463500236854
 31
0.0
  0
LINE
  5
2C2
330
1F
100
AcDbEntity
  8
0
100
AcDbLine
 10
9.175513117191135
 20
-9.26463500236854
 30
0.0
 11
9.75537490832313
 21
-8.589363883472414
 31
0.0
  0
LINE
  5
2C3
330
1F
100
AcDbEntity
  8
0
100
AcDbLine
 10
9.75537490832313
 20
-8.589363883472414
 30
0.0
 11
10.30454123267962
 21
-8.144112865281777
 31
0.0
  0
LINE
  5
2C4
330
1F
100
AcDbEntity
  8
0
100
AcDbLine
 10
10.30454123267962
 20
-8.144112865281777
 30
0.0
 11
10.96390839966396
 21
-7.82607760499145
 31
0.0
  0
LINE
  5
2C5
330
1F
100
AcDbEntity
  8
0
100
AcDbLine
 10
10.96390839966396
 20
-7.82607760499145
 30
0.0
 11
11.73347908853966
 21
-7.635257148495175
 31
0.0
  0
LINE
  5
2C6
330
1F
100
AcDbEntity
  8
0
100
AcDbLine
 10
11.73347908853966
 20
-7.635257148495175
 30
0.0
 11
12.61325597857023
 21
-7.571650541686698
 31
0.0
  0
LINE
  5
2C7
330
1F
100
AcDbEntity
  8
0
100
AcDbLine
 10
12.61325597857023
 20
-7.571650541686698
 30
0.0
 11
13.4930328686008
 21
-7.635257148495175
 31
0.0
  0
LINE
  5
2C8
330
1F
100
AcDbEntity
  8
0
100
AcDbLine
 10
13.4930328686008
 20
-7.635257148495175
 30
0.0
 11
14.2626035574765
 21
-7.82607760499145
 31
0.0
  0
LINE
  5
2C9
330
1F
100
AcDbEntity
  8
0
100
AcDbLine
 10
14.2626035574765
 20
-7.82607760499145
 30
0.0
 11
14.92197072446085
 21
-8.144112865281777
 31
0.0
  0
LINE
  5
2CA
330
1F
100
AcDbEntity
  8
0
100
AcDbLine
 10
14.92197072446085
 20
-8.144112865281777
 30
0.0
 11
15.47113704881734
 21
-8.589363883472414
 31
0.0
  0
LINE
  5
2CB
330
1F
100
AcDbEntity
  8
0
100
AcDbLine
 10
15.47113704881734
 20
-8.589363883472414
 30
0.0
 11
16.04841017123892
 21
-9.26463500236854
 31
0.0
  0
LINE
  5
2CC
330
1F
100
AcDbEntity
  8
0
100
AcDbLine
 10
16.04841017123892
 20
-9.26463500236854
 30
0.0
 11
16.46074658428975
 21
-10.08930618097277
 31
0.0
  0
LINE
  5
2CD
330
1F
100
AcDbEntity
  8
0
100
AcDbLine
 10
16.46074658428975
 20
-10.08930618097277
 30
0.0
 11
16.70814752497969
 21
-11.06338079193978
 31
0.0
  0
LINE
  5
2CE
330
1F
100
AcDbEntity
  8
0
100
AcDbLine
 10
16.70814752497969
 20
-11.06338079193978
 30
0.0
 11
16.79061423031859
 21
-12.18686220792425
 31
0.0
  0
LINE
  5
2CF
330
1F
100
AcDbEntity
  8
0
100
AcDbLine
 10
16.79061423031859
 20
-12.18686220792425
 30
0.0
 11
16.70814752497969
 21
-13.29259272105375
 31
0.0
  0
LINE
  5
2D0
330
1F
100
AcDbEntity
  8
0
100
AcDbLine
 10
16.70814752497969
 20
-13.29259272105375
 30
0.0
 11
16.46074658428975
 21
-14.26075036440243
 31
0.0
  0
LINE
  5
2D1
330
1F
100
AcDbEntity
  8
0
100
AcDbLine
 10
16.46074658428975
 20
-14.26075036440243
 30
0.0
 11
16.04841017123892
 21
-15.09133851062499
 31
0.0
  0
LINE
  5
2D2
330
1F
100
AcDbEntity
  8
0
100
AcDbLine
 10
16.04841017123892
 20
-15.09133851062499
 30
0.0
 11
15.47113704881734
 21
-15.78436053237609
 31
0.0
  0
LINE
  5
2D3
330
1F
100
AcDbEntity
  8
0
100
AcDbLine
 10
39.80019294794191
 20
-13.86729450214808
 30
0.0
 11
39.92296921244323
 21
-14.38946466082142
 31
0.0
  0
LINE
  5
2D4
330
1F
100
AcDbEntity
  8
0
100
AcDbLine
 10
39.92296921244323
 20
-14.38946466082142
 30
0.0
 11
40.12562453979199
 21
-14.7607521452274
 31
0.0
  0
LINE
  5
2D5
330
1F
100
AcDbEntity
  8
0
100
AcDbLine
 10
40.12562453979199
 20
-14.7607521452274
 30
0.0
 11
40.38707935841664
 21
-14.99632099787477
 31
0.0
  0
LINE
  5
2D6
330
1F
100
AcDbEntity
  8
0
100
AcDbLine
 10
40.38707935841664
 20
-14.99632099787477
 30
0.0
 11
40.72767219332418
 21
-15.16458383907489
 31
0.0
  0
LINE
  5
2D7
330
1F
100
AcDbEntity
  8
0
100
AcDbLine
 10
40.72767219332418
 20
-15.16458383907489
 30
0.0
 11
41.14740447012686
 21
-15.26554117361652
 31
0.0
  0
LINE
  5
2D8
330
1F
100
AcDbEntity
  8
0
100
AcDbLine
 10
41.14740447012686
 20
-15.26554117361652
 30
0.0
 11
41.64627761443693
 21
-15.29919350628845
 31
0.0
  0
LINE
  5
2D9
330
1F
100
AcDbEntity
  8
0
100
AcDbLine
 10
41.64627761443693
 20
-15.29919350628845
 30
0.0
 11
42.23057554850175
 21
-15.26369205559476
 31
0.0
  0
LINE
  5
2DA
330
1F
100
AcDbEntity
  8
0
100
AcDbLine
 10
42.23057554850175
 20
-15.26369205559476
 30
0.0
 11
42.69357564639083
 21
-15.15718699348114
 31
0.0
  0
LINE
  5
2DB
330
1F
100
AcDbEntity
  8
0
100
AcDbLine
 10
42.69357564639083
 20
-15.15718699348114
 30
0.0
 11
43.02751391003381
 21
-14.99188250111004
 31
0.0
  0
LINE
  5
2DC
330
1F
100
AcDbEntity
  8
0
100
AcDbLine
 10
43.02751391003381
 20
-14.99188250111004
 30
0.0
 11
43.26604035525156
 21
-14.76814890206708
 31
0.0
  0
LINE
  5
2DD
330
1F
100
AcDbEntity
  8
0
100
AcDbLine
 10
43.26604035525156
 20
-14.76814890206708
 30
0.0
 11
43.40915569762376
 21
-14.48598524779313
 31
0.0
  0
LINE
  5
2DE
330
1F
100
AcDbEntity
  8
0
100
AcDbLine
 10
43.40915569762376
 20
-14.48598524779313
 30
0.0
 11
43.45686065273012
 21
-14.14539058972906
 31
0.0
  0
LINE
  5
2DF
330
1F
100
AcDbEntity
  8
0
100
AcDbLine
 10
43.45686065273012
 20
-14.14539058972906
 30
0.0
 11
43.36219011754696
 21
-13.76226860797731
 31
0.0
  0
LINE
  5
2E0
330
1F
100
AcDbEntity
  8
0
100
AcDbLine
 10
43.36219011754696
 20
-13.76226860797731
 30
0.0
 11
43.0781766185773
 21
-13.47677659192798
 31
0.0
  0
LINE
  5
2E1
330
1F
100
AcDbEntity
  8
0
100
AcDbLine
 10
43.0781766185773
 20
-13.47677659192798
 30
0.0
 11
42.59150900523118
 21
-13.25932905262623
 31
0.0
  0
LINE
  5
2E2
330
1F
100
AcDbEntity
  8
0
100
AcDbLine
 10
42.59150900523118
 20
-13.25932905262623
 30
0.0
 11
41.88887207381608
 21
-13.06850786760696
 31
0.0
  0
LINE
  5
2E3
330
1F
100
AcDbEntity
  8
0
100
AcDbLine
 10
41.88887207381608
 20
-13.06850786760696
 30
0.0
 11
40.96582974056857
 21
-12.86141503642964
 31
0.0
  0
LINE
  5
2E4
330
1F
100
AcDbEntity
  8
0
100
AcDbLine
 10
40.96582974056857
 20
-12.86141503642964
 30
0.0
 11
39.8149842427695
 21
-12.54042121467033
 31
0.0
  0
LINE
  5
2E5
330
1F
100
AcDbEntity
  8
0
100
AcDbLine
 10
39.8149842427695
 20
-12.54042121467033
 30
0.0
 11
39.08424344587172
 21
-12.19280103862855
 31
0.0
  0
LINE
  5
2E6
330
1F
100
AcDbEntity
  8
0
100
AcDbLine
 10
39.08424344587172
 20
-12.19280103862855
 30
0.0
 11
38.69853180802053
 21
-11.84850895994899
 31
0.0
  0
LINE
  5
2E7
330
1F
100
AcDbEntity
  8
0
100
AcDbLine
 10
38.69853180802053
 20
-11.84850895994899
 30
0.0
 11
38.42302451858298
 21
-11.41916224129024
 31
0.0
  0
LINE
  5
2E8
330
1F
100
AcDbEntity
  8
0
100
AcDbLine
 10
38.42302451858298
 20
-11.41916224129024
 30
0.0
 11
38.25772075103679
 21
-10.90475911311803
 31
0.0
  0
LINE
  5
2E9
330
1F
100
AcDbEntity
  8
0
100
AcDbLine
 10
38.25772075103679
 20
-10.90475911311803
 30
0.0
 11
38.20261967885968
 21
-10.30529780589807
 31
0.0
  0
LINE
  5
2EA
330
1F
100
AcDbEntity
  8
0
100
AcDbLine
 10
38.20261967885968
 20
-10.30529780589807
 30
0.0
 11
38.25587172176909
 21
-9.744296834423315
 31
0.0
  0
LINE
  5
2EB
330
1F
100
AcDbEntity
  8
0
100
AcDbLine
 10
38.25587172176909
 20
-9.744296834423315
 30
0.0
 11
38.41562838302179
 21
-9.232852291757636
 31
0.0
  0
LINE
  5
2EC
330
1F
100
AcDbEntity
  8
0
100
AcDbLine
 10
38.41562838302179
 20
-9.232852291757636
 30
0.0
 11
38.68189046140439
 21
-8.770962352895456
 31
0.0
  0
LINE
  5
2ED
330
1F
100
AcDbEntity
  8
0
100
AcDbLine
 10
38.68189046140439
 20
-8.770962352895456
 30
0.0
 11
39.05465875570354
 21
-8.358625192831198
 31
0.0
  0
LINE
  5
2EE
330
1F
100
AcDbEntity
  8
0
100
AcDbLine
 10
39.05465875570354
 20
-8.358625192831198
 30
0.0
 11
39.53060288313968
 21
-8.019509591767397
 31
0.0
  0
LINE
  5
2EF
330
1F
100
AcDbEntity
  8
0
100
AcDbLine
 10
39.53060288313968
 20
-8.019509591767397
 30
0.0
 11
40.10639349269938
 21
-7.777285062127671
 31
0.0
  0
LINE
  5
2F0
330
1F
100
AcDbEntity
  8
0
100
AcDbLine
 10
40.10639349269938
 20
-7.777285062127671
 30
0.0
 11
40.78203293081836
 21
-7.631950877238068
 31
0.0
  0
LINE
  5
2F1
330
1F
100
AcDbEntity
  8
0
100
AcDbLine
 10
40.78203293081836
 20
-7.631950877238068
 30
0.0
 11
41.55752354393236
 21
-7.583506310424633
 31
0.0
  0
LINE
  5
2F2
330
1F
100
AcDbEntity
  8
0
100
AcDbLine
 10
41.55752354393236
 20
-7.583506310424633
 30
0.0
 11
42.22151641636499
 21
-7.629177333336535
 31
0.0
  0
LINE
  5
2F3
330
1F
100
AcDbEntity
  8
0
100
AcDbLine
 10
42.22151641636499
 20
-7.629177333336535
 30
0.0
 11
42.83484304858176
 21
-7.766190858785896
 31
0.0
  0
LINE
  5
2F4
330
1F
100
AcDbEntity
  8
0
100
AcDbLine
 10
42.83484304858176
 20
-7.766190858785896
 30
0.0
 11
43.3975056455666
 21
-7.994547571843194
 31
0.0
  0
LINE
  5
2F5
330
1F
100
AcDbEntity
  8
0
100
AcDbLine
 10
43.3975056455666
 20
-7.994547571843194
 30
0.0
 11
43.90950641230342
 21
-8.314248157578914
 31
0.0
  0
LINE
  5
2F6
330
1F
100
AcDbEntity
  8
0
100
AcDbLine
 10
43.90950641230342
 20
-8.314248157578914
 30
0.0
 11
44.33830086199428
 21
-8.720853118895983
 31
0.0
  0
LINE
  5
2F7
330
1F
100
AcDbEntity
  8
0
100
AcDbLine
 10
44.33830086199428
 20
-8.720853118895983
 30
0.0
 11
44.65134367577178
 21
-9.20992382774761
 31
0.0
  0
LINE
  5
2F8
330
1F
100
AcDbEntity
  8
0
100
AcDbLine
 10
44.65134367577178
 20
-9.20992382774761
 30
0.0
 11
44.84863581051572
 21
-9.781462272779684
 31
0.0
  0
LINE
  5
2F9
330
1F
100
AcDbEntity
  8
0
100
AcDbLine
 10
44.84863581051572
 20
-9.781462272779684
 30
0.0
 11
44.93017822310597
 21
-10.4354704426381
 31
0.0
  0
LINE
  5
2FA
330
1F
100
AcDbEntity
  8
0
100
AcDbLine
 10
44.93017822310597
 20
-10.4354704426381
 30
0.0
 11
43.17876456514914
 21
-10.4354704426381
 31
0.0
  0
LINE
  5
2FB
330
1F
100
AcDbEntity
  8
0
100
AcDbLine
 10
43.17876456514914
 20
-10.4354704426381
 30
0.0
 11
43.11811618328379
 21
-10.07046837635537
 31
0.0
  0
LINE
  5
2FC
330
1F
100
AcDbEntity
  8
0
100
AcDbLine
 10
43.11811618328379
 20
-10.07046837635537
 30
0.0
 11
42.98350634965634
 21
-9.762418171806502
 31
0.0
  0
LINE
  5
2FD
330
1F
100
AcDbEntity
  8
0
100
AcDbLine
 10
42.98350634965634
 20
-9.762418171806502
 30
0.0
 11
42.7749344207998
 21
-9.511318780584043
 31
0.0
  0
LINE
  5
2FE
330
1F
100
AcDbEntity
  8
0
100
AcDbLine
 10
42.7749344207998
 20
-9.511318780584043
 30
0.0
 11
42.49239975324715
 21
-9.317169154280537
 31
0.0
  0
LINE
  5
2FF
330
1F
100
AcDbEntity
  8
0
100
AcDbLine
 10
42.49239975324715
 20
-9.317169154280537
 30
0.0
 11
42.01460726589693
 21
-9.1529738501887
 31
0.0
  0
LINE
  5
300
330
1F
100
AcDbEntity
  8
0
100
AcDbLine
 10
42.01460726589693
 20
-9.1529738501887
 30
0.0
 11
41.43326784522596
 21
-9.098242447035934
 31
0.0
  0
LINE
  5
301
330
1F
100
AcDbEntity
  8
0
100
AcDbLine
 10
41.43326784522596
 20
-9.098242447035934
 30
0.0
 11
40.80015512061043
 21
-9.169245348423308
 31
0.0
  0
LINE
  5
302
330
1F
100
AcDbEntity
  8
0
100
AcDbLine
 10
40.80015512061043
 20
-9.169245348423308
 30
0.0
 11
40.30904961883477
 21
-9.382255472650554
 31
0.0
  0
LINE
  5
303
330
1F
100
AcDbEntity
  8
0
100
AcDbLine
 10
40.30904961883477
 20
-9.382255472650554
 30
0.0
 11
39.99397214341529
 21
-9.722479128530175
 31
0.0
  0
LINE
  5
304
330
1F
100
AcDbEntity
  8
0
100
AcDbLine
 10
39.99397214341529
 20
-9.722479128530175
 30
0.0
 11
39.88894701844647
 21
-10.17512516915803
 31
0.0
  0
LINE
  5
305
330
1F
100
AcDbEntity
  8
0
100
AcDbLine
 10
39.88894701844647
 20
-10.17512516915803
 30
0.0
 11
39.99249291630306
 21
-10.58339418932595
 31
0.0
  0
LINE
  5
306
330
1F
100
AcDbEntity
  8
0
100
AcDbLine
 10
39.99249291630306
 20
-10.58339418932595
 30
0.0
 11
40.30313268080113
 21
-10.8733238571273
 31
0.0
  0
LINE
  5
307
330
1F
100
AcDbEntity
  8
0
100
AcDbLine
 10
40.30313268080113
 20
-10.8733238571273
 30
0.0
 11
41.4391847832596
 21
-11.23425707717922
 31
0.0
  0
LINE
  5
308
330
1F
100
AcDbEntity
  8
0
100
AcDbLine
 10
41.4391847832596
 20
-11.23425707717922
 30
0.0
 11
42.94208704380362
 21
-11.59519029723113
 31
0.0
  0
LINE
  5
309
330
1F
100
AcDbEntity
  8
0
100
AcDbLine
 10
42.94208704380362
 20
-11.59519029723113
 30
0.0
 11
43.80891907221773
 21
-11.87180695060704
 31
0.0
  0
LINE
  5
30A
330
1F
100
AcDbEntity
  8
0
100
AcDbLine
 10
43.80891907221773
 20
-11.87180695060704
 30
0.0
 11
44.43315542828037
 21
-12.22830266683038
 31
0.0
  0
LINE
  5
30B
330
1F
100
AcDbEntity
  8
0
100
AcDbLine
 10
44.43315542828037
 20
-12.22830266683038
 30
0.0
 11
44.77485969805458
 21
-12.57037596586001
 31
0.0
  0
LINE
  5
30C
330
1F
100
AcDbEntity
  8
0
100
AcDbLine
 10
44.77485969805458
 20
-12.57037596586001
 30
0.0
 11
45.01893326990531
 21
-12.98123234376676
 31
0.0
  0
LINE
  5
30D
330
1F
100
AcDbEntity
  8
0
100
AcDbLine
 10
45.01893326990531
 20
-12.98123234376676
 30
0.0
 11
45.16537687605361
 21
-13.46087347023656
 31
0.0
  0
LINE
  5
30E
330
1F
100
AcDbEntity
  8
0
100
AcDbLine
 10
45.16537687605361
 20
-13.46087347023656
 30
0.0
 11
45.21419124872058
 21
-14.00930101495539
 31
0.0
  0
LINE
  5
30F
330
1F
100
AcDbEntity
  8
0
100
AcDbLine
 10
45.21419124872058
 20
-14.00930101495539
 30
0.0
 11
45.15705624434901
 21
-14.58158117590562
 31
0.0
  0
LINE
  5
310
330
1F
100
AcDbEntity
  8
0
100
AcDbLine
 10
45.15705624434901
 20
-14.58158117590562
 30
0.0
 11
44.98565065987998
 21
-15.10319544056201
 31
0.0
  0
LINE
  5
311
330
1F
100
AcDbEntity
  8
0
100
AcDbLine
 10
44.98565065987998
 20
-15.10319544056201
 30
0.0
 11
44.69997363828197
 21
-15.57414566998646
 31
0.0
  0
LINE
  5
312
330
1F
100
AcDbEntity
  8
0
100
AcDbLine
 10
44.69997363828197
 20
-15.57414566998646
 30
0.0
 11
44.30002432252353
 21
-15.9944337252409
 31
0.0
  0
LINE
  5
313
330
1F
100
AcDbEntity
  8
0
100
AcDbLine
 10
44.30002432252353
 20
-15.9944337252409
 30
0.0
 11
43.79578975606745
 21
-16.34002099808073
 31
0.0
  0
LINE
  5
314
330
1F
100
AcDbEntity
  8
0
100
AcDbLine
 10
43.79578975606745
 20
-16.34002099808073
 30
0.0
 11
43.19725593951626
 21
-16.58686813324793
 31
0.0
  0
LINE
  5
315
330
1F
100
AcDbEntity
  8
0
100
AcDbLine
 10
43.19725593951626
 20
-16.58686813324793
 30
0.0
 11
42.50442045154797
 21
-16.73497587128428
 31
0.0
  0
LINE
  5
316
330
1F
100
AcDbEntity
  8
0
100
AcDbLine
 10
42.50442045154797
 20
-16.73497587128428
 30
0.0
 11
41.71728087084058
 21
-16.78434495273156
 31
0.0
  0
LINE
  5
317
330
1F
100
AcDbEntity
  8
0
100
AcDbLine
 10
41.71728087084058
 20
-16.78434495273156
 30
0.0
 11
40.91072631640859
 21
-16.73571548299136
 31
0.0
  0
LINE
  5
318
330
1F
100
AcDbEntity
  8
0
100
AcDbLine
 10
40.91072631640859
 20
-16.73571548299136
 30
0.0
 11
40.19514765195801
 21
-16.58982658747241
 31
0.0
  0
LINE
  5
319
330
1F
100
AcDbEntity
  8
0
100
AcDbLine
 10
40.19514765195801
 20
-16.58982658747241
 30
0.0
 11
39.57054236463923
 21
-16.34667753672718
 31
0.0
  0
LINE
  5
31A
330
1F
100
AcDbEntity
  8
0
100
AcDbLine
 10
39.57054236463923
 20
-16.34667753672718
 30
0.0
 11
39.03690794160262
 21
-16.00626760130818
 31
0.0
  0
LINE
  5
31B
330
1F
100
AcDbEntity
  8
0
100
AcDbLine
 10
39.03690794160262
 20
-16.00626760130818
 30
0.0
 11
38.60977760438485
 21
-15.58080231957551
 31
0.0
  0
LINE
  5
31C
330
1F
100
AcDbEntity
  8
0
100
AcDbLine
 10
38.60977760438485
 20
-15.58080231957551
 30
0.0
 11
38.30468563957145
 21
-15.08248637932946
 31
0.0
  0
LINE
  5
31D
330
1F
100
AcDbEntity
  8
0
100
AcDbLine
 10
38.30468563957145
 20
-15.08248637932946
 30
0.0
 11
38.12163113188608
 21
-14.51131777528274
 31
0.0
  0
LINE
  5
31E
330
1F
100
AcDbEntity
  8
0
100
AcDbLine
 10
38.12163113188608
 20
-14.51131777528274
 30
0.0
 11
38.06061316605236
 21
-13.86729450214808
 31
0.0
  0
LINE
  5
31F
330
1F
100
AcDbEntity
  8
0
100
AcDbLine
 10
38.06061316605236
 20
-13.86729450214808
 30
0.0
 11
39.80019294794191
 21
-13.86729450214808
 31
0.0
  0
LINE
  5
320
330
1F
100
AcDbEntity
  8
0
100
AcDbLine
 10
47.32639791850023
 20
-13.83696871549123
 30
0.0
 11
47.44917418300155
 21
-14.35913887416457
 31
0.0
  0
LINE
  5
321
330
1F
100
AcDbEntity
  8
0
100
AcDbLine
 10
47.44917418300155
 20
-14.35913887416457
 30
0.0
 11
47.65182951035031
 21
-14.73042635857055
 31
0.0
  0
LINE
  5
322
330
1F
100
AcDbEntity
  8
0
100
AcDbLine
 10
47.65182951035031
 20
-14.73042635857055
 30
0.0
 11
47.91328432897496
 21
-14.96599521121792
 31
0.0
  0
LINE
  5
323
330
1F
100
AcDbEntity
  8
0
100
AcDbLine
 10
47.91328432897496
 20
-14.96599521121792
 30
0.0
 11
48.25387716388251
 21
-15.13425805241804
 31
0.0
  0
LINE
  5
324
330
1F
100
AcDbEntity
  8
0
100
AcDbLine
 10
48.25387716388251
 20
-15.13425805241804
 30
0.0
 11
48.67360944068517
 21
-15.23521538695967
 31
0.0
  0
LINE
  5
325
330
1F
100
AcDbEntity
  8
0
100
AcDbLine
 10
48.67360944068517
 20
-15.23521538695967
 30
0.0
 11
49.17248258499524
 21
-15.2688677196316
 31
0.0
  0
LINE
  5
326
330
1F
100
AcDbEntity
  8
0
100
AcDbLine
 10
49.17248258499524
 20
-15.2688677196316
 30
0.0
 11
49.75678051906007
 21
-15.23336626893791
 31
0.0
  0
LINE
  5
327
330
1F
100
AcDbEntity
  8
0
100
AcDbLine
 10
49.75678051906007
 20
-15.23336626893791
 30
0.0
 11
50.21978061694915
 21
-15.12686120682429
 31
0.0
  0
LINE
  5
328
330
1F
100
AcDbEntity
  8
0
100
AcDbLine
 10
50.21978061694915
 20
-15.12686120682429
 30
0.0
 11
50.55371888059214
 21
-14.96155671445319
 31
0.0
  0
LINE
  5
329
330
1F
100
AcDbEntity
  8
0
100
AcDbLine
 10
50.55371888059214
 20
-14.96155671445319
 30
0.0
 11
50.79224532580987
 21
-14.73782311541023
 31
0.0
  0
LINE
  5
32A
330
1F
100
AcDbEntity
  8
0
100
AcDbLine
 10
50.79224532580987
 20
-14.73782311541023
 30
0.0
 11
50.93536066818208
 21
-14.45565946113628
 31
0.0
  0
LINE
  5
32B
330
1F
100
AcDbEntity
  8
0
100
AcDbLine
 10
50.93536066818208
 20
-14.45565946113628
 30
0.0
 11
50.98306562328845
 21
-14.11506480307221
 31
0.0
  0
LINE
  5
32C
330
1F
100
AcDbEntity
  8
0
100
AcDbLine
 10
50.98306562328845
 20
-14.11506480307221
 30
0.0
 11
50.88839508810528
 21
-13.73194282132046
 31
0.0
  0
LINE
  5
32D
330
1F
100
AcDbEntity
  8
0
100
AcDbLine
 10
50.88839508810528
 20
-13.73194282132046
 30
0.0
 11
50.60438158913561
 21
-13.44645080527113
 31
0.0
  0
LINE
  5
32E
330
1F
100
AcDbEntity
  8
0
100
AcDbLine
 10
50.60438158913561
 20
-13.44645080527113
 30
0.0
 11
50.1177139757895
 21
-13.22900326596938
 31
0.0
  0
LINE
  5
32F
330
1F
100
AcDbEntity
  8
0
100
AcDbLine
 10
50.1177139757895
 20
-13.22900326596938
 30
0.0
 11
49.4150770443744
 21
-13.03818208095011
 31
0.0
  0
LINE
  5
330
330
1F
100
AcDbEntity
  8
0
100
AcDbLine
 10
49.4150770443744
 20
-13.03818208095011
 30
0.0
 11
48.49203471112688
 21
-12.83108924977279
 31
0.0
  0
LINE
  5
331
330
1F
100
AcDbEntity
  8
0
100
AcDbLine
 10
48.49203471112688
 20
-12.83108924977279
 30
0.0
 11
47.34118921332782
 21
-12.51009542801348
 31
0.0
  0
LINE
  5
332
330
1F
100
AcDbEntity
  8
0
100
AcDbLine
 10
47.34118921332782
 20
-12.51009542801348
 30
0.0
 11
46.61044841643004
 21
-12.1624752519717
 31
0.0
  0
LINE
  5
333
330
1F
100
AcDbEntity
  8
0
100
AcDbLine
 10
46.61044841643004
 20
-12.1624752519717
 30
0.0
 11
46.22473677857884
 21
-11.81818317329214
 31
0.0
  0
LINE
  5
334
330
1F
100
AcDbEntity
  8
0
100
AcDbLine
 10
46.22473677857884
 20
-11.81818317329214
 30
0.0
 11
45.9492294891413
 21
-11.38883645463339
 31
0.0
  0
LINE
  5
335
330
1F
100
AcDbEntity
  8
0
100
AcDbLine
 10
45.9492294891413
 20
-11.38883645463339
 30
0.0
 11
45.7839257215951
 21
-10.87443332646118
 31
0.0
  0
LINE
  5
336
330
1F
100
AcDbEntity
  8
0
100
AcDbLine
 10
45.7839257215951
 20
-10.87443332646118
 30
0.0
 11
45.72882464941799
 21
-10.27497201924122
 31
0.0
  0
LINE
  5
337
330
1F
100
AcDbEntity
  8
0
100
AcDbLine
 10
45.72882464941799
 20
-10.27497201924122
 30
0.0
 11
45.78207669232741
 21
-9.713971047766465
 31
0.0
  0
LINE
  5
338
330
1F
100
AcDbEntity
  8
0
100
AcDbLine
 10
45.78207669232741
 20
-9.713971047766465
 30
0.0
 11
45.94183335358012
 21
-9.202526505100789
 31
0.0
  0
LINE
  5
339
330
1F
100
AcDbEntity
  8
0
100
AcDbLine
 10
45.94183335358012
 20
-9.202526505100789
 30
0.0
 11
46.20809543196271
 21
-8.740636566238608
 31
0.0
  0
LINE
  5
33A
330
1F
100
AcDbEntity
  8
0
100
AcDbLine
 10
46.20809543196271
 20
-8.740636566238608
 30
0.0
 11
46.58086372626185
 21
-8.328299406174349
 31
0.0
  0
LINE
  5
33B
330
1F
100
AcDbEntity
  8
0
100
AcDbLine
 10
46.58086372626185
 20
-8.328299406174349
 30
0.0
 11
47.056807853698
 21
-7.989183805110548
 31
0.0
  0
LINE
  5
33C
330
1F
100
AcDbEntity
  8
0
100
AcDbLine
 10
47.056807853698
 20
-7.989183805110548
 30
0.0
 11
47.63259846325769
 21
-7.746959275470823
 31
0.0
  0
LINE
  5
33D
330
1F
100
AcDbEntity
  8
0
100
AcDbLine
 10
47.63259846325769
 20
-7.746959275470823
 30
0.0
 11
48.30823790137667
 21
-7.601625090581218
 31
0.0
  0
LINE
  5
33E
330
1F
100
AcDbEntity
  8
0
100
AcDbLine
 10
48.30823790137667
 20
-7.601625090581218
 30
0.0
 11
49.08372851449068
 21
-7.553180523767785
 31
0.0
  0
LINE
  5
33F
330
1F
100
AcDbEntity
  8
0
100
AcDbLine
 10
49.08372851449068
 20
-7.553180523767785
 30
0.0
 11
49.74772138692332
 21
-7.598851546679686
 31
0.0
  0
LINE
  5
340
330
1F
100
AcDbEntity
  8
0
100
AcDbLine
 10
49.74772138692332
 20
-7.598851546679686
 30
0.0
 11
50.36104801914007
 21
-7.735865072129046
 31
0.0
  0
LINE
  5
341
330
1F
100
AcDbEntity
  8
0
100
AcDbLine
 10
50.36104801914007
 20
-7.735865072129046
 30
0.0
 11
50.92371061612491
 21
-7.964221785186345
 31
0.0
  0
LINE
  5
342
330
1F
100
AcDbEntity
  8
0
100
AcDbLine
 10
50.92371061612491
 20
-7.964221785186345
 30
0.0
 11
51.43571138286174
 21
-8.283922370922065
 31
0.0
  0
LINE
  5
343
330
1F
100
AcDbEntity
  8
0
100
AcDbLine
 10
51.43571138286174
 20
-8.283922370922065
 30
0.0
 11
51.86450583255261
 21
-8.690527332239135
 31
0.0
  0
LINE
  5
344
330
1F
100
AcDbEntity
  8
0
100
AcDbLine
 10
51.86450583255261
 20
-8.690527332239135
 30
0.0
 11
52.1775486463301
 21
-9.179598041090763
 31
0.0
  0
LINE
  5
345
330
1F
100
AcDbEntity
  8
0
100
AcDbLine
 10
52.1775486463301
 20
-9.179598041090763
 30
0.0
 11
52.37484078107405
 21
-9.751136486122837
 31
0.0
  0
LINE
  5
346
330
1F
100
AcDbEntity
  8
0
100
AcDbLine
 10
52.37484078107405
 20
-9.751136486122837
 30
0.0
 11
52.45638319366428
 21
-10.40514465598125
 31
0.0
  0
LINE
  5
347
330
1F
100
AcDbEntity
  8
0
100
AcDbLine
 10
52.45638319366428
 20
-10.40514465598125
 30
0.0
 11
50.70496953570746
 21
-10.40514465598125
 31
0.0
  0
LINE
  5
348
330
1F
100
AcDbEntity
  8
0
100
AcDbLine
 10
50.70496953570746
 20
-10.40514465598125
 30
0.0
 11
50.64432115384211
 21
-10.04014258969852
 31
0.0
  0
LINE
  5
349
330
1F
100
AcDbEntity
  8
0
100
AcDbLine
 10
50.64432115384211
 20
-10.04014258969852
 30
0.0
 11
50.50971132021466
 21
-9.732092385149652
 31
0.0
  0
LINE
  5
34A
330
1F
100
AcDbEntity
  8
0
100
AcDbLine
 10
50.50971132021466
 20
-9.732092385149652
 30
0.0
 11
50.30113939135813
 21
-9.480992993927195
 31
0.0
  0
LINE
  5
34B
330
1F
100
AcDbEntity
  8
0
100
AcDbLine
 10
50.30113939135813
 20
-9.480992993927195
 30
0.0
 11
50.01860472380547
 21
-9.286843367623687
 31
0.0
  0
LINE
  5
34C
330
1F
100
AcDbEntity
  8
0
100
AcDbLine
 10
50.01860472380547
 20
-9.286843367623687
 30
0.0
 11
49.54081223645525
 21
-9.122648063531852
 31
0.0
  0
LINE
  5
34D
330
1F
100
AcDbEntity
  8
0
100
AcDbLine
 10
49.54081223645525
 20
-9.122648063531852
 30
0.0
 11
48.95947281578428
 21
-9.067916660379085
 31
0.0
  0
LINE
  5
34E
330
1F
100
AcDbEntity
  8
0
100
AcDbLine
 10
48.95947281578428
 20
-9.067916660379085
 30
0.0
 11
48.32636009116874
 21
-9.138919561766459
 31
0.0
  0
LINE
  5
34F
330
1F
100
AcDbEntity
  8
0
100
AcDbLine
 10
48.32636009116874
 20
-9.138919561766459
 30
0.0
 11
47.83525458939308
 21
-9.351929685993705
 31
0.0
  0
LINE
  5
350
330
1F
100
AcDbEntity
  8
0
100
AcDbLine
 10
47.83525458939308
 20
-9.351929685993705
 30
0.0
 11
47.52017711397362
 21
-9.692153341873327
 31
0.0
  0
LINE
  5
351
330
1F
100
AcDbEntity
  8
0
100
AcDbLine
 10
47.52017711397362
 20
-9.692153341873327
 30
0.0
 11
47.41515198900479
 21
-10.14479938250118
 31
0.0
  0
LINE
  5
352
330
1F
100
AcDbEntity
  8
0
100
AcDbLine
 10
47.41515198900479
 20
-10.14479938250118
 30
0.0
 11
47.51869788686138
 21
-10.5530684026691
 31
0.0
  0
LINE
  5
353
330
1F
100
AcDbEntity
  8
0
100
AcDbLine
 10
47.51869788686138
 20
-10.5530684026691
 30
0.0
 11
47.82933765135945
 21
-10.84299807047045
 31
0.0
  0
LINE
  5
354
330
1F
100
AcDbEntity
  8
0
100
AcDbLine
 10
47.82933765135945
 20
-10.84299807047045
 30
0.0
 11
48.96538975381792
 21
-11.20393129052237
 31
0.0
  0
LINE
  5
355
330
1F
100
AcDbEntity
  8
0
100
AcDbLine
 10
48.96538975381792
 20
-11.20393129052237
 30
0.0
 11
50.46829201436194
 21
-11.56486451057428
 31
0.0
  0
LINE
  5
356
330
1F
100
AcDbEntity
  8
0
100
AcDbLine
 10
50.46829201436194
 20
-11.56486451057428
 30
0.0
 11
51.33512404277604
 21
-11.84148116395019
 31
0.0
  0
LINE
  5
357
330
1F
100
AcDbEntity
  8
0
100
AcDbLine
 10
51.33512404277604
 20
-11.84148116395019
 30
0.0
 11
51.9593603988387
 21
-12.19797688017353
 31
0.0
  0
LINE
  5
358
330
1F
100
AcDbEntity
  8
0
100
AcDbLine
 10
51.9593603988387
 20
-12.19797688017353
 30
0.0
 11
52.30106466861291
 21
-12.54005017920316
 31
0.0
  0
LINE
  5
359
330
1F
100
AcDbEntity
  8
0
100
AcDbLine
 10
52.30106466861291
 20
-12.54005017920316
 30
0.0
 11
52.54513824046362
 21
-12.95090655710991
 31
0.0
  0
LINE
  5
35A
330
1F
100
AcDbEntity
  8
0
100
AcDbLine
 10
52.54513824046362
 20
-12.95090655710991
 30
0.0
 11
52.69158184661192
 21
-13.43054768357972
 31
0.0
  0
LINE
  5
35B
330
1F
100
AcDbEntity
  8
0
100
AcDbLine
 10
52.69158184661192
 20
-13.43054768357972
 30
0.0
 11
52.74039621927889
 21
-13.97897522829854
 31
0.0
  0
LINE
  5
35C
330
1F
100
AcDbEntity
  8
0
100
AcDbLine
 10
52.74039621927889
 20
-13.97897522829854
 30
0.0
 11
52.68326121490732
 21
-14.55125538924877
 31
0.0
  0
LINE
  5
35D
330
1F
100
AcDbEntity
  8
0
100
AcDbLine
 10
52.68326121490732
 20
-14.55125538924877
 30
0.0
 11
52.51185563043829
 21
-15.07286965390516
 31
0.0
  0
LINE
  5
35E
330
1F
100
AcDbEntity
  8
0
100
AcDbLine
 10
52.51185563043829
 20
-15.07286965390516
 30
0.0
 11
52.2261786088403
 21
-15.54381988332962
 31
0.0
  0
LINE
  5
35F
330
1F
100
AcDbEntity
  8
0
100
AcDbLine
 10
52.2261786088403
 20
-15.54381988332962
 30
0.0
 11
51.82622929308184
 21
-15.96410793858405
 31
0.0
  0
LINE
  5
360
330
1F
100
AcDbEntity
  8
0
100
AcDbLine
 10
51.82622929308184
 20
-15.96410793858405
 30
0.0
 11
51.32199472662577
 21
-16.30969521142388
 31
0.0
  0
LINE
  5
361
330
1F
100
AcDbEntity
  8
0
100
AcDbLine
 10
51.32199472662577
 20
-16.30969521142388
 30
0.0
 11
50.72346091007458
 21
-16.55654234659108
 31
0.0
  0
LINE
  5
362
330
1F
100
AcDbEntity
  8
0
100
AcDbLine
 10
50.72346091007458
 20
-16.55654234659108
 30
0.0
 11
50.03062542210629
 21
-16.70465008462743
 31
0.0
  0
LINE
  5
363
330
1F
100
AcDbEntity
  8
0
100
AcDbLine
 10
50.03062542210629
 20
-16.70465008462743
 30
0.0
 11
49.2434858413989
 21
-16.75401916607471
 31
0.0
  0
LINE
  5
364
330
1F
100
AcDbEntity
  8
0
100
AcDbLine
 10
49.2434858413989
 20
-16.75401916607471
 30
0.0
 11
48.43693128696691
 21
-16.70538969633451
 31
0.0
  0
LINE
  5
365
330
1F
100
AcDbEntity
  8
0
100
AcDbLine
 10
48.43693128696691
 20
-16.70538969633451
 30
0.0
 11
47.72135262251633
 21
-16.55950080081556
 31
0.0
  0
LINE
  5
366
330
1F
100
AcDbEntity
  8
0
100
AcDbLine
 10
47.72135262251633
 20
-16.55950080081556
 30
0.0
 11
47.09674733519755
 21
-16.31635175007033
 31
0.0
  0
LINE
  5
367
330
1F
100
AcDbEntity
  8
0
100
AcDbLine
 10
47.09674733519755
 20
-16.31635175007033
 30
0.0
 11
46.56311291216093
 21
-15.97594181465133
 31
0.0
  0
LINE
  5
368
330
1F
100
AcDbEntity
  8
0
100
AcDbLine
 10
46.56311291216093
 20
-15.97594181465133
 30
0.0
 11
46.13598257494318
 21
-15.55047653291866
 31
0.0
  0
LINE
  5
369
330
1F
100
AcDbEntity
  8
0
100
AcDbLine
 10
46.13598257494318
 20
-15.55047653291866
 30
0.0
 11
45.83089061012977
 21
-15.05216059267261
 31
0.0
  0
LINE
  5
36A
330
1F
100
AcDbEntity
  8
0
100
AcDbLine
 10
45.83089061012977
 20
-15.05216059267261
 30
0.0
 11
45.64783610244439
 21
-14.48099198862589
 31
0.0
  0
LINE
  5
36B
330
1F
100
AcDbEntity
  8
0
100
AcDbLine
 10
45.64783610244439
 20
-14.48099198862589
 30
0.0
 11
45.58681813661069
 21
-13.83696871549123
 31
0.0
  0
LINE
  5
36C
330
1F
100
AcDbEntity
  8
0
100
AcDbLine
 10
45.58681813661069
 20
-13.83696871549123
 30
0.0
 11
47.32639791850023
 21
-13.83696871549123
 31
0.0
  0
LINE
  5
36D
330
1F
100
AcDbEntity
  8
0
100
AcDbLine
 10
-19.86032852285093
 20
-7.782021862121336
 30
0.0
 11
-18.70087236135663
 21
-7.782021862121336
 31
0.0
  0
LINE
  5
36E
330
1F
100
AcDbEntity
  8
0
100
AcDbLine
 10
-18.70087236135663
 20
-7.782021862121336
 30
0.0
 11
-18.70087236135663
 21
-12.84418355689287
 31
0.0
  0
LINE
  5
36F
330
1F
100
AcDbEntity
  8
0
100
AcDbLine
 10
-18.70087236135663
 20
-12.84418355689287
 30
0.0
 11
-18.7755792147209
 21
-14.02904085536908
 31
0.0
  0
LINE
  5
370
330
1F
100
AcDbEntity
  8
0
100
AcDbLine
 10
-18.7755792147209
 20
-14.02904085536908
 30
0.0
 11
-18.99970126895825
 21
-14.94196248825628
 31
0.0
  0
LINE
  5
371
330
1F
100
AcDbEntity
  8
0
100
AcDbLine
 10
-18.99970126895825
 20
-14.94196248825628
 30
0.0
 11
-19.41880821047636
 21
-15.64645200025716
 31
0.0
  0
LINE
  5
372
330
1F
100
AcDbEntity
  8
0
100
AcDbLine
 10
-19.41880821047636
 20
-15.64645200025716
 30
0.0
 11
-20.07847362540013
 21
-16.20600876741115
 31
0.0
  0
LINE
  5
373
330
1F
100
AcDbEntity
  8
0
100
AcDbLine
 10
-20.07847362540013
 20
-16.20600876741115
 30
0.0
 11
-20.98018924522413
 21
-16.57132771581804
 31
0.0
  0
LINE
  5
374
330
1F
100
AcDbEntity
  8
0
100
AcDbLine
 10
-20.98018924522413
 20
-16.57132771581804
 30
0.0
 11
-22.12545164247126
 21
-16.6930998868018
 31
0.0
  0
LINE
  5
375
330
1F
100
AcDbEntity
  8
0
100
AcDbLine
 10
-22.12545164247126
 20
-16.6930998868018
 30
0.0
 11
-23.24456646174355
 21
-16.58701615502454
 31
0.0
  0
LINE
  5
376
330
1F
100
AcDbEntity
  8
0
100
AcDbLine
 10
-23.24456646174355
 20
-16.58701615502454
 30
0.0
 11
-24.13955847970622
 21
-16.2687628380075
 31
0.0
  0
LINE
  5
377
330
1F
100
AcDbEntity
  8
0
100
AcDbLine
 10
-24.13955847970622
 20
-16.2687628380075
 30
0.0
 11
-24.81042993757606
 21
-15.74954808544056
 31
0.0
  0
LINE
  5
378
330
1F
100
AcDbEntity
  8
0
100
AcDbLine
 10
-24.81042993757606
 20
-15.74954808544056
 30
0.0
 11
-25.25717859413629
 21
-15.04057602776482
 31
0.0
  0
LINE
  5
379
330
1F
100
AcDbEntity
  8
0
100
AcDbLine
 10
-25.25717859413629
 20
-15.04057602776482
 30
0.0
 11
-25.50819529488213
 21
-14.08955376518883
 31
0.0
  0
LINE
  5
37A
330
1F
100
AcDbEntity
  8
0
100
AcDbLine
 10
-25.50819529488213
 20
-14.08955376518883
 30
0.0
 11
-25.59186697065011
 21
-12.84418355689287
 31
0.0
  0
LINE
  5
37B
330
1F
100
AcDbEntity
  8
0
100
AcDbLine
 10
-25.59186697065011
 20
-12.84418355689287
 30
0.0
 11
-25.59186697065011
 21
-7.782021862121336
 31
0.0
  0
LINE
  5
37C
330
1F
100
AcDbEntity
  8
0
100
AcDbLine
 10
-25.59186697065011
 20
-7.782021862121336
 30
0.0
 11
-24.4324108091558
 21
-7.782021862121336
 31
0.0
  0
LINE
  5
37D
330
1F
100
AcDbEntity
  8
0
100
AcDbLine
 10
-24.4324108091558
 20
-7.782021862121336
 30
0.0
 11
-24.4324108091558
 21
-12.83820697874083
 31
0.0
  0
LINE
  5
37E
330
1F
100
AcDbEntity
  8
0
100
AcDbLine
 10
-24.4324108091558
 20
-12.83820697874083
 30
0.0
 11
-24.37936894326717
 21
-13.82957263051686
 31
0.0
  0
LINE
  5
37F
330
1F
100
AcDbEntity
  8
0
100
AcDbLine
 10
-24.37936894326717
 20
-13.82957263051686
 30
0.0
 11
-24.22024228475865
 21
-14.52061372853799
 31
0.0
  0
LINE
  5
380
330
1F
100
AcDbEntity
  8
0
100
AcDbLine
 10
-24.22024228475865
 20
-14.52061372853799
 30
0.0
 11
-23.93187276992994
 21
-14.99948736300458
 31
0.0
  0
LINE
  5
381
330
1F
100
AcDbEntity
  8
0
100
AcDbLine
 10
-23.93187276992994
 20
-14.99948736300458
 30
0.0
 11
-23.49109975021068
 21
-15.35434638074652
 31
0.0
  0
LINE
  5
382
330
1F
100
AcDbEntity
  8
0
100
AcDbLine
 10
-23.49109975021068
 20
-15.35434638074652
 30
0.0
 11
-22.91660146296939
 21
-15.57398599389913
 31
0.0
  0
LINE
  5
383
330
1F
100
AcDbEntity
  8
0
100
AcDbLine
 10
-22.91660146296939
 20
-15.57398599389913
 30
0.0
 11
-22.22705347105581
 21
-15.64719871019612
 31
0.0
  0
LINE
  5
384
330
1F
100
AcDbEntity
  8
0
100
AcDbLine
 10
-22.22705347105581
 20
-15.64719871019612
 30
0.0
 11
-21.63350300969401
 21
-15.61096597689696
 31
0.0
  0
LINE
  5
385
330
1F
100
AcDbEntity
  8
0
100
AcDbLine
 10
-21.63350300969401
 20
-15.61096597689696
 30
0.0
 11
-21.13184460579696
 21
-15.50226741466943
 31
0.0
  0
LINE
  5
386
330
1F
100
AcDbEntity
  8
0
100
AcDbLine
 10
-21.13184460579696
 20
-15.50226741466943
 30
0.0
 11
-20.72207655043686
 21
-15.32110248001845
 31
0.0
  0
LINE
  5
387
330
1F
100
AcDbEntity
  8
0
100
AcDbLine
 10
-20.72207655043686
 20
-15.32110248001845
 30
0.0
 11
-20.40419713468589
 21
-15.06747062944896
 31
0.0
  0
LINE
  5
388
330
1F
100
AcDbEntity
  8
0
100
AcDbLine
 10
-20.40419713468589
 20
-15.06747062944896
 30
0.0
 11
-20.16625385219287
 21
-14.71074357897671
 31
0.0
  0
LINE
  5
389
330
1F
100
AcDbEntity
  8
0
100
AcDbLine
 10
-20.16625385219287
 20
-14.71074357897671
 30
0.0
 11
-19.99629499597391
 21
-14.22029201365772
 31
0.0
  0
LINE
  5
38A
330
1F
100
AcDbEntity
  8
0
100
AcDbLine
 10
-19.99629499597391
 20
-14.22029201365772
 30
0.0
 11
-19.86032852285093
 21
-12.83820697874083
 31
0.0
  0
LINE
  5
38B
330
1F
100
AcDbEntity
  8
0
100
AcDbLine
 10
-19.86032852285093
 20
-12.83820697874083
 30
0.0
 11
-19.86032852285093
 21
-7.782021862121336
 31
0.0
  0
LINE
  5
38C
330
1F
100
AcDbEntity
  8
0
100
AcDbLine
 10
-9.363151802387135
 20
-16.57299754726113
 30
0.0
 11
-9.363151802387135
 21
-7.811333976381473
 31
0.0
  0
LINE
  5
38D
330
1F
100
AcDbEntity
  8
0
100
AcDbLine
 10
-9.363151802387135
 20
-7.811333976381473
 30
0.0
 11
-3.027978961232678
 21
-7.811333976381473
 31
0.0
  0
LINE
  5
38E
330
1F
100
AcDbEntity
  8
0
100
AcDbLine
 10
-3.027978961232678
 20
-7.811333976381473
 30
0.0
 11
-3.027978961232678
 21
-8.845281996683097
 31
0.0
  0
LINE
  5
38F
330
1F
100
AcDbEntity
  8
0
100
AcDbLine
 10
-3.027978961232678
 20
-8.845281996683097
 30
0.0
 11
-8.203695640892828
 21
-8.845281996683097
 31
0.0
  0
LINE
  5
390
330
1F
100
AcDbEntity
  8
0
100
AcDbLine
 10
-8.203695640892828
 20
-8.845281996683097
 30
0.0
 11
-8.203695640892828
 21
-11.52876558694569
 31
0.0
  0
LINE
  5
391
330
1F
100
AcDbEntity
  8
0
100
AcDbLine
 10
-8.203695640892828
 20
-11.52876558694569
 30
0.0
 11
-3.356690759594466
 21
-11.52876558694569
 31
0.0
  0
LINE
  5
392
330
1F
100
AcDbEntity
  8
0
100
AcDbLine
 10
-3.356690759594466
 20
-11.52876558694569
 30
0.0
 11
-3.356690759594466
 21
-12.55673702909528
 31
0.0
  0
LINE
  5
393
330
1F
100
AcDbEntity
  8
0
100
AcDbLine
 10
-3.356690759594466
 20
-12.55673702909528
 30
0.0
 11
-8.203695640892828
 21
-12.55673702909528
 31
0.0
  0
LINE
  5
394
330
1F
100
AcDbEntity
  8
0
100
AcDbLine
 10
-8.203695640892828
 20
-12.55673702909528
 30
0.0
 11
-8.203695640892828
 21
-15.53904952695951
 31
0.0
  0
LINE
  5
395
330
1F
100
AcDbEntity
  8
0
100
AcDbLine
 10
-8.203695640892828
 20
-15.53904952695951
 30
0.0
 11
-2.824775304063574
 21
-15.53904952695951
 31
0.0
  0
LINE
  5
396
330
1F
100
AcDbEntity
  8
0
100
AcDbLine
 10
-2.824775304063574
 20
-15.53904952695951
 30
0.0
 11
-2.824775304063574
 21
-16.57299754726113
 31
0.0
  0
LINE
  5
397
330
1F
100
AcDbEntity
  8
0
100
AcDbLine
 10
-2.824775304063574
 20
-16.57299754726113
 30
0.0
 11
-9.363151802387135
 21
-16.57299754726113
 31
0.0
  0
LINE
  5
398
330
1F
100
AcDbEntity
  8
0
100
AcDbLine
 10
26.44708357638733
 20
-16.72040959763892
 30
0.0
 11
38.36802967245807
 21
-16.72040959763892
 31
0.0
  0
LINE
  5
399
330
1F
100
AcDbEntity
  8
0
100
AcDbLine
 10
32.4075566244227
 20
-6.98093586524066
 30
0.0
 11
26.44708357638733
 21
-16.72040959763892
 31
0.0
  0
LINE
  5
39A
330
1F
100
AcDbEntity
  8
0
100
AcDbLine
 10
38.36802967245807
 20
-16.72040959763892
 30
0.0
 11
32.4075566244227
 21
-6.98093586524066
 31
0.0
  0
LINE
  5
39B
330
1F
100
AcDbEntity
  8
0
100
AcDbLine
 10
23.99319607041503
 20
17.90241171435717
 30
0.0
 11
24.0050299464823
 21
19.32247684243026
 31
0.0
  0
LINE
  5
39C
330
1F
100
AcDbEntity
  8
0
100
AcDbLine
 10
18.9460479277219
 20
19.32247684243026
 30
0.0
 11
18.95788180378918
 21
17.90241171435717
 31
0.0
  0
LINE
  5
39D
330
1F
100
AcDbEntity
  8
0
100
AcDbLine
 10
23.99319607041503
 20
-10.67381032772415
 30
0.0
 11
24.0050299464823
 21
-9.253745199651052
 31
0.0
  0
LINE
  5
39E
330
1F
100
AcDbEntity
  8
0
100
AcDbLine
 10
18.9460479277219
 20
-9.253745199651052
 30
0.0
 11
18.95788180378918
 21
-10.67381032772415
 31
0.0
  0
LINE
  5
39F
330
1F
100
AcDbEntity
  8
0
 62
    49
100
AcDbLine
 10
52.45397122747968
 20
22.96835791471491
 30
0.0
 11
52.45397122747968
 21
45.76083832007151
 31
0.0
  0
LINE
  5
3A0
330
1F
100
AcDbEntity
  8
0
 62
    49
100
AcDbLine
 10
-32.69150669382383
 20
22.96835791471491
 30
0.0
 11
-32.69150669382383
 21
45.76083832007151
 31
0.0
  0
LINE
  5
3A1
330
1F
100
AcDbEntity
  8
0
 62
    49
100
AcDbLine
 10
52.45397122747968
 20
45.31099161787304
 30
0.0
 11
13.55498033478193
 21
45.31099161787301
 31
0.0
  0
LINE
  5
3A2
330
1F
100
AcDbEntity
  8
0
 62
    49
100
AcDbLine
 10
6.207484198873645
 20
45.31099161787301
 30
0.0
 11
-32.69150669382383
 21
45.31099161787304
 31
0.0
  0
LINE
  5
3A3
330
1F
100
AcDbEntity
  8
0
 62
    49
100
AcDbLine
 10
-32.69150669382383
 20
22.96835791471491
 30
0.0
 11
-32.69150669382383
 21
45.76083832007151
 31
0.0
  0
LINE
  5
3A4
330
1F
100
AcDbEntity
  8
0
 62
    49
100
AcDbLine
 10
-97.42539744221213
 20
22.96835791471491
 30
0.0
 11
-97.42539744221213
 21
45.76083832007151
 31
0.0
  0
LINE
  5
3A5
330
1F
100
AcDbEntity
  8
0
 62
    49
100
AcDbLine
 10
-32.69150669382383
 20
45.31099161787304
 30
0.0
 11
-61.38470400006396
 21
45.31099161787301
 31
0.0
  0
LINE
  5
3A6
330
1F
100
AcDbEntity
  8
0
 62
    49
100
AcDbLine
 10
-68.73220013597252
 20
45.31099161787301
 30
0.0
 11
-97.42539744221213
 21
45.31099161787304
 31
0.0
  0
LINE
  5
3A7
330
1F
100
AcDbEntity
  8
0
 62
    49
100
AcDbLine
 10
-97.42539744221213
 20
10.85474711370773
 30
0.0
 11
-97.42539744221213
 21
2.065084627727075
 31
0.0
  0
LINE
  5
3A8
330
1F
100
AcDbEntity
  8
0
 62
    49
100
AcDbLine
 10
-97.42539744221213
 20
2.514931329925554
 30
0.0
 11
7.332100954369807
 21
2.514931329925587
 31
0.0
  0
LINE
  5
3A9
330
1F
100
AcDbEntity
  8
0
 62
    49
100
AcDbLine
 10
12.43036357928577
 20
2.514931329925587
 30
0.0
 11
107.9632085276349
 21
2.514931329925557
 31
0.0
  0
LINE
  5
3AA
330
1F
100
AcDbEntity
  8
0
 62
    49
100
AcDbLine
 10
52.45397122747968
 20
22.96835791471491
 30
0.0
 11
52.45397122747968
 21
45.76083832007151
 31
0.0
  0
LINE
  5
3AB
330
1F
100
AcDbEntity
  8
0
 62
    49
100
AcDbLine
 10
107.9632085276349
 20
45.31099161787304
 30
0.0
 11
88.4946646696281
 21
45.31099161787301
 31
0.0
  0
LINE
  5
3AC
330
1F
100
AcDbEntity
  8
0
 62
    49
100
AcDbLine
 10
81.14716853371952
 20
45.31099161787301
 30
0.0
 11
52.45397122747968
 21
45.31099161787304
 31
0.0
  0
POLYLINE
  5
3AD
330
1F
100
AcDbEntity
  8
0
 62
    49
100
AcDbPolyFaceMesh
 66
     1
 10
0.0
 20
0.0
 30
0.0
 70
    64
 71
     3
 72
     1
  0
VERTEX
  5
3AE
330
3AD
100
AcDbEntity
  8
0
100
AcDbVertex
100
AcDbPolyFaceMeshVertex
 10
52.45397122747968
 20
45.31099161787307
 30
0.0
 70
   192
  0
VERTEX
  5
3AF
330
3AD
100
AcDbEntity
  8
0
100
AcDbVertex
100
AcDbPolyFaceMeshVertex
 10
51.10443112088424
 20
44.86114491567459
 30
0.0
 70
   192
  0
VERTEX
  5
3B0
330
3AD
100
AcDbEntity
  8
0
100
AcDbVertex
100
AcDbPolyFaceMeshVertex
 10
51.10443112088424
 20
45.76083832007156
 30
0.0
 70
   192
  0
VERTEX
  5
3B1
330
3AD
100
AcDbEntity
  8
0
 62
    49
100
AcDbFaceRecord
 10
0.0
 20
0.0
 30
0.0
 70
   128
 71
     1
 72
     2
 73
     3
  0
SEQEND
  5
3B2
330
3AD
100
AcDbEntity
  8
0
 62
    49
  0
POLYLINE
  5
3B3
330
1F
100
AcDbEntity
  8
0
 62
    49
100
AcDbPolyFaceMesh
 66
     1
 10
0.0
 20
0.0
 30
0.0
 70
    64
 71
     3
 72
     1
  0
VERTEX
  5
3B4
330
3B3
100
AcDbEntity
  8
0
100
AcDbVertex
100
AcDbPolyFaceMeshVertex
 10
-31.3419665872284
 20
44.86114491567459
 30
0.0
 70
   192
  0
VERTEX
  5
3B5
330
3B3
100
AcDbEntity
  8
0
100
AcDbVertex
100
AcDbPolyFaceMeshVertex
 10
-32.69150669382383
 20
45.31099161787307
 30
0.0
 70
   192
  0
VERTEX
  5
3B6
330
3B3
100
AcDbEntity
  8
0
100
AcDbVertex
100
AcDbPolyFaceMeshVertex
 10
-31.3419665872284
 20
45.76083832007156
 30
0.0
 70
   192
  0
VERTEX
  5
3B7
330
3B3
100
AcDbEntity
  8
0
 62
    49
100
AcDbFaceRecord
 10
0.0
 20
0.0
 30
0.0
 70
   128
 71
     1
 72
     2
 73
     3
  0
SEQEND
  5
3B8
330
3B3
100
AcDbEntity
  8
0
 62
    49
  0
POLYLINE
  5
3B9
330
1F
100
AcDbEntity
  8
0
 62
    49
100
AcDbPolyFaceMesh
 66
     1
 10
0.0
 20
0.0
 30
0.0
 70
    64
 71
     3
 72
     1
  0
VERTEX
  5
3BA
330
3B9
100
AcDbEntity
  8
0
100
AcDbVertex
100
AcDbPolyFaceMeshVertex
 10
-32.69150669382383
 20
45.31099161787307
 30
0.0
 70
   192
  0
VERTEX
  5
3BB
330
3B9
100
AcDbEntity
  8
0
100
AcDbVertex
100
AcDbPolyFaceMeshVertex
 10
-34.04104680041927
 20
44.86114491567459
 30
0.0
 70
   192
  0
VERTEX
  5
3BC
330
3B9
100
AcDbEntity
  8
0
100
AcDbVertex
100
AcDbPolyFaceMeshVertex
 10
-34.04104680041927
 20
45.76083832007156
 30
0.0
 70
   192
  0
VERTEX
  5
3BD
330
3B9
100
AcDbEntity
  8
0
 62
    49
100
AcDbFaceRecord
 10
0.0
 20
0.0
 30
0.0
 70
   128
 71
     1
 72
     2
 73
     3
  0
SEQEND
  5
3BE
330
3B9
100
AcDbEntity
  8
0
 62
    49
  0
POLYLINE
  5
3BF
330
1F
100
AcDbEntity
  8
0
 62
    49
100
AcDbPolyFaceMesh
 66
     1
 10
0.0
 20
0.0
 30
0.0
 70
    64
 71
     3
 72
     1
  0
VERTEX
  5
3C0
330
3BF
100
AcDbEntity
  8
0
100
AcDbVertex
100
AcDbPolyFaceMeshVertex
 10
-96.07585733561669
 20
44.86114491567459
 30
0.0
 70
   192
  0
VERTEX
  5
3C1
330
3BF
100
AcDbEntity
  8
0
100
AcDbVertex
100
AcDbPolyFaceMeshVertex
 10
-97.42539744221213
 20
45.31099161787307
 30
0.0
 70
   192
  0
VERTEX
  5
3C2
330
3BF
100
AcDbEntity
  8
0
100
AcDbVertex
100
AcDbPolyFaceMeshVertex
 10
-96.07585733561669
 20
45.76083832007156
 30
0.0
 70
   192
  0
VERTEX
  5
3C3
330
3BF
100
AcDbEntity
  8
0
 62
    49
100
AcDbFaceRecord
 10
0.0
 20
0.0
 30
0.0
 70
   128
 71
     1
 72
     2
 73
     3
  0
SEQEND
  5
3C4
330
3BF
100
AcDbEntity
  8
0
 62
    49
  0
POLYLINE
  5
3C5
330
1F
100
AcDbEntity
  8
0
 62
    49
100
AcDbPolyFaceMesh
 66
     1
 10
0.0
 20
0.0
 30
0.0
 70
    64
 71
     3
 72
     1
  0
VERTEX
  5
3C6
330
3C5
100
AcDbEntity
  8
0
100
AcDbVertex
100
AcDbPolyFaceMeshVertex
 10
-96.07585733561669
 20
2.065084627727108
 30
0.0
 70
   192
  0
VERTEX
  5
3C7
330
3C5
100
AcDbEntity
  8
0
100
AcDbVertex
100
AcDbPolyFaceMeshVertex
 10
-97.42539744221213
 20
2.514931329925587
 30
0.0
 70
   192
  0
VERTEX
  5
3C8
330
3C5
100
AcDbEntity
  8
0
100
AcDbVertex
100
AcDbPolyFaceMeshVertex
 10
-96.07585733561669
 20
2.964778032124065
 30
0.0
 70
   192
  0
VERTEX
  5
3C9
330
3C5
100
AcDbEntity
  8
0
 62
    49
100
AcDbFaceRecord
 10
0.0
 20
0.0
 30
0.0
 70
   128
 71
     1
 72
     2
 73
     3
  0
SEQEND
  5
3CA
330
3C5
100
AcDbEntity
  8
0
 62
    49
  0
POLYLINE
  5
3CB
330
1F
100
AcDbEntity
  8
0
 62
    49
100
AcDbPolyFaceMesh
 66
     1
 10
0.0
 20
0.0
 30
0.0
 70
    64
 71
     3
 72
     1
  0
VERTEX
  5
3CC
330
3CB
100
AcDbEntity
  8
0
100
AcDbVertex
100
AcDbPolyFaceMeshVertex
 10
53.80351133407512
 20
44.86114491567459
 30
0.0
 70
   192
  0
VERTEX
  5
3CD
330
3CB
100
AcDbEntity
  8
0
100
AcDbVertex
100
AcDbPolyFaceMeshVertex
 10
52.45397122747968
 20
45.31099161787307
 30
0.0
 70
   192
  0
VERTEX
  5
3CE
330
3CB
100
AcDbEntity
  8
0
100
AcDbVertex
100
AcDbPolyFaceMeshVertex
 10
53.80351133407512
 20
45.76083832007156
 30
0.0
 70
   192
  0
VERTEX
  5
3CF
330
3CB
100
AcDbEntity
  8
0
 62
    49
100
AcDbFaceRecord
 10
0.0
 20
0.0
 30
0.0
 70
   128
 71
     1
 72
     2
 73
     3
  0
SEQEND
  5
3D0
330
3CB
100
AcDbEntity
  8
0
 62
    49
  0
MTEXT
  5
3D2
330
1F
100
AcDbEntity
  8
0
 62
    49
100
AcDbMText
 10
6.432407549972983
 20
44.48105144311901
 30
0.0
 40
1.668355461377537
 41
0.0
 71
     7
 72
     1
  1
1' 6 1/4"
  7
TAHOMA
  0
MTEXT
  5
3D3
330
1F
100
AcDbEntity
  8
0
 62
    49
100
AcDbMText
 10
-68.50727678487291
 20
44.48105144311901
 30
0.0
 40
1.668355461377537
 41
0.0
 71
     7
 72
     1
  1
1' 1 7/8"
  7
TAHOMA
  0
MTEXT
  5
3D4
330
1F
100
AcDbEntity
  8
0
 62
    49
100
AcDbMText
 10
7.557024305469147
 20
1.684991155171526
 30
0.0
 40
1.668355461377542
 41
0.0
 71
     7
 72
     1
  1
3' 10"
  7
TAHOMA
  0
MTEXT
  5
3D5
330
1F
100
AcDbEntity
  8
0
 62
    49
100
AcDbMText
 10
81.37209188481889
 20
44.48105144311901
 30
0.0
 40
1.668355461377537
 41
0.0
 71
     7
 72
     1
  1
1' 1 7/8"
  7
TAHOMA
  0
ENDSEC
  0
SECTION
  2
OBJECTS
  0
DICTIONARY
  5
C
330
0
100
AcDbDictionary
  3
ACAD_GROUP
350
D
  3
ACAD_LAYOUT
350
1A
  3
ACAD_MATERIAL
350
43
  3
ACAD_MLEADERSTYLE
350
6B
  3
ACAD_MLINESTYLE
350
17
  3
ACAD_PLOTSETTINGS
350
19
  3
ACAD_SCALELIST
350
47
  3
ACAD_VISUALSTYLE
350
2A
  3
ACDBHEADERROUNDTRIPXREC
350
3D6
  3
ACDBVARIABLEDICTIONARY
350
3F7
  0
DICTIONARY
  5
3FE
330
8
100
AcDbDictionary
280
     1
  3
ACAD_XREC_ROUNDTRIP
360
3FF
  0
DICTIONARY
  5
D
102
{ACAD_REACTORS
330
C
102
}
330
C
100
AcDbDictionary
  0
DICTIONARY
  5
1A
102
{ACAD_REACTORS
330
C
102
}
330
C
100
AcDbDictionary
  0
DICTIONARY
  5
43
102
{ACAD_REACTORS
330
C
102
}
330
C
100
AcDbDictionary
  3
BYBLOCK
350
45
  3
BYLAYER
350
44
  3
GLOBAL
350
46
  0
DICTIONARY
  5
6B
102
{ACAD_REACTORS
330
C
102
}
330
C
100
AcDbDictionary
  3
STANDARD
350
6C
  0
DICTIONARY
  5
17
102
{ACAD_REACTORS
330
C
102
}
330
C
100
AcDbDictionary
  3
STANDARD
350
18
  0
DICTIONARY
  5
19
102
{ACAD_REACTORS
330
C
102
}
330
C
100
AcDbDictionary
  0
DICTIONARY
  5
47
102
{ACAD_REACTORS
330
C
102
}
330
C
100
AcDbDictionary
  3
A0
350
48
  3
A1
350
49
  3
A2
350
4A
  3
A3
350
4B
  3
A4
350
4C
  3
A5
350
4D
  3
A6
350
4E
  3
A7
350
4F
  3
A8
350
50
  3
A9
350
51
  3
B0
350
52
  3
B1
350
53
  3
B2
350
54
  3
B3
350
55
  3
B4
350
56
  3
B5
350
57
  3
B6
350
58
  3
B7
350
59
  3
B8
350
5A
  3
B9
350
5B
  3
C0
350
5C
  3
C1
350
5D
  3
C2
350
5E
  3
C3
350
5F
  3
C4
350
60
  3
C5
350
61
  3
C6
350
62
  3
C7
350
63
  3
C8
350
64
  3
C9
350
65
  3
D0
350
66
  3
D1
350
67
  3
D2
350
68
  0
DICTIONARY
  5
2A
102
{ACAD_REACTORS
330
C
102
}
330
C
100
AcDbDictionary
  3
2DWIREFRAME
350
2F
  3
BASIC
350
32
  3
BRIGHTEN
350
36
  3
COLORCHANGE
350
3A
  3
CONCEPTUAL
350
34
  3
DIM
350
35
  3
EDGECOLOROFF
350
3D
  3
FACEPATTERN
350
39
  3
FLAT
350
2B
  3
FLATWITHEDGES
350
2C
  3
GOURAUD
350
2D
  3
GOURAUDWITHEDGES
350
2E
  3
HIDDEN
350
31
  3
JITTEROFF
350
3B
  3
LINEPATTERN
350
38
  3
OVERHANGOFF
350
3C
  3
REALISTIC
350
33
  3
SHADED
350
42
  3
SHADED_WITH_EDGES
350
41
  3
SHADES_OF_GRAY
350
3E
  3
SKETCHY
350
3F
  3
THICKEN
350
37
  3
WIREFRAME
350
30
  3
X-RAY
350
40
  0
DICTIONARY
  5
3D6
102
{ACAD_REACTORS
330
C
102
}
330
C
100
AcDbDictionary
  3
CEPSNID
350
3E0
  3
CEPSNTYPE
350
3DF
  3
DIMSTYLEDATA
350
3F6
  3
FINGERPRINTGUID
350
3E1
  3
HYPERLINKBASE
350
3D9
  3
INSUNITS
350
3DE
  3
LAYOUTDICT
350
3DB
  3
LWETCUNION
350
3DD
  3
PLOTSETDICT
350
3DC
  3
PSVPSCALE
350
3E3
  3
PUCSBASE
350
3E6
  3
PUCSORGBACK
350
3EC
  3
PUCSORGBOTTOM
350
3E8
  3
PUCSORGFRONT
350
3EB
  3
PUCSORGLEFT
350
3E9
  3
PUCSORGRIGHT
350
3EA
  3
PUCSORGTOP
350
3E7
  3
PUCSORTHOREF
350
3E4
  3
PUCSORTHOVIEW
350
3E5
  3
STYLESHEET
350
3DA
  3
TSTACKALIGN
350
3D7
  3
TSTACKSIZE
350
3D8
  3
UCSBASE
350
3EF
  3
UCSORGBACK
350
3F5
  3
UCSORGBOTTOM
350
3F1
  3
UCSORGFRONT
350
3F4
  3
UCSORGLEFT
350
3F2
  3
UCSORGRIGHT
350
3F3
  3
UCSORGTOP
350
3F0
  3
UCSORTHOREF
350
3ED
  3
UCSORTHOVIEW
350
3EE
  3
VERSIONGUID
350
3E2
  0
DICTIONARY
  5
3F7
102
{ACAD_REACTORS
330
C
102
}
330
C
100
AcDbDictionary
  3
CANNOSCALE
350
400
  3
CMLEADERSTYLE
350
3F9
  3
CTABLESTYLE
350
3F8
  3
DIMASSOC
350
3FC
  3
HIDETEXT
350
3FD
  3
MSLTSCALE
350
401
  0
XRECORD
  5
3FF
102
{ACAD_REACTORS
330
3FE
102
}
330
3FE
100
AcDbXrecord
102
VTR_0.000_0.000_1.000_1.000_VISUALSTYLE
340
2F
102
VTR_0.000_0.000_1.000_1.000_GRIDDISPLAY
 70
     3
102
VTR_0.000_0.000_1.000_1.000_GRIDMAJOR
 70
     5
102
VTR_0.000_0.000_1.000_1.000_DEFAULTLIGHTING
280
     1
102
VTR_0.000_0.000_1.000_1.000_DEFAULTLIGHTINGTYPE
 70
     1
102
VTR_0.000_0.000_1.000_1.000_BRIGHTNESS
141
0.0
102
VTR_0.000_0.000_1.000_1.000_CONTRAST
142
0.0
  0
MATERIAL
  5
45
102
{ACAD_REACTORS
330
43
102
}
102
{ACAD_XDICTIONARY
360
404
102
}
330
43
100
AcDbMaterial
  1
BYBLOCK
  0
MATERIAL
  5
44
102
{ACAD_REACTORS
330
43
102
}
102
{ACAD_XDICTIONARY
360
402
102
}
330
43
100
AcDbMaterial
  1
BYLAYER
  0
MATERIAL
  5
46
102
{ACAD_REACTORS
330
43
102
}
102
{ACAD_XDICTIONARY
360
406
102
}
330
43
100
AcDbMaterial
  1
GLOBAL
  0
ACAD_PROXY_OBJECT
  5
6C
102
{ACAD_REACTORS
330
6B
102
}
330
6B
100
AcDbProxyObject
 90
      499
 91
      505
 93
      610
310
40901902A4063FBFFFFFE056BD1B81E855B9FC0AD7A3703D0AD73F4214DD185B99185C9900AD7A3703D0AC73F90141901A02B5E8DC0F42B1CFC02B5E8DC0F42B1CFE5764000000000000300FC0
340
14
340
0
340
11
340
0
 94
        0
1001
ACAD_MLEADERVER
1070
     2
  0
MLINESTYLE
  5
18
102
{ACAD_REACTORS
330
17
102
}
330
17
100
AcDbMlineStyle
  2
Standard
 70
     0
  3

 62
   256
 51
90.0
 52
90.0
 71
     2
 49
0.5
 62
   256
  6
BYLAYER
 49
-0.5
 62
   256
  6
BYLAYER
  0
ACAD_PROXY_OBJECT
  5
48
102
{ACAD_REACTORS
330
47
102
}
330
47
100
AcDbProxyObject
 90
      499
 91
      503
 93
       41
310
903313A31580
  0
ACAD_PROXY_OBJECT
  5
49
102
{ACAD_REACTORS
330
47
102
}
330
47
100
AcDbProxyObject
 90
      499
 91
      503
 93
      105
310
903313A324000000000000004000
  0
ACAD_PROXY_OBJECT
  5
4A
102
{ACAD_REACTORS
330
47
102
}
330
47
100
AcDbProxyObject
 90
      499
 91
      503
 93
      105
310
903313A344000000000000104000
  0
ACAD_PROXY_OBJECT
  5
4B
102
{ACAD_REACTORS
330
47
102
}
330
47
100
AcDbProxyObject
 90
      499
 91
      503
 93
      105
310
903313A354000000000000144000
  0
ACAD_PROXY_OBJECT
  5
4C
102
{ACAD_REACTORS
330
47
102
}
330
47
100
AcDbProxyObject
 90
      499
 91
      503
 93
      105
310
903313A384000000000000204000
  0
ACAD_PROXY_OBJECT
  5
4D
102
{ACAD_REACTORS
330
47
102
}
330
47
100
AcDbProxyObject
 90
      499
 91
      503
 93
      113
310
904313A31304000000000000244000
  0
ACAD_PROXY_OBJECT
  5
4E
102
{ACAD_REACTORS
330
47
102
}
330
47
100
AcDbProxyObject
 90
      499
 91
      503
 93
      113
310
904313A31364000000000000304000
  0
ACAD_PROXY_OBJECT
  5
4F
102
{ACAD_REACTORS
330
47
102
}
330
47
100
AcDbProxyObject
 90
      499
 91
      503
 93
      113
310
904313A32304000000000000344000
  0
ACAD_PROXY_OBJECT
  5
50
102
{ACAD_REACTORS
330
47
102
}
330
47
100
AcDbProxyObject
 90
      499
 91
      503
 93
      113
310
904313A333040000000000003E4000
  0
ACAD_PROXY_OBJECT
  5
51
102
{ACAD_REACTORS
330
47
102
}
330
47
100
AcDbProxyObject
 90
      499
 91
      503
 93
      113
310
904313A34304000000000000444000
  0
ACAD_PROXY_OBJECT
  5
52
102
{ACAD_REACTORS
330
47
102
}
330
47
100
AcDbProxyObject
 90
      499
 91
      503
 93
      113
310
904313A35304000000000000494000
  0
ACAD_PROXY_OBJECT
  5
53
102
{ACAD_REACTORS
330
47
102
}
330
47
100
AcDbProxyObject
 90
      499
 91
      503
 93
      121
310
905313A3130304000000000000594000
  0
ACAD_PROXY_OBJECT
  5
54
102
{ACAD_REACTORS
330
47
102
}
330
47
100
AcDbProxyObject
 90
      499
 91
      503
 93
      105
310
903323A310000000000000010100
  0
ACAD_PROXY_OBJECT
  5
55
102
{ACAD_REACTORS
330
47
102
}
330
47
100
AcDbProxyObject
 90
      499
 91
      503
 93
      105
310
903343A310000000000000410100
  0
ACAD_PROXY_OBJECT
  5
56
102
{ACAD_REACTORS
330
47
102
}
330
47
100
AcDbProxyObject
 90
      499
 91
      503
 93
      105
310
903383A310000000000000810100
  0
ACAD_PROXY_OBJECT
  5
57
102
{ACAD_REACTORS
330
47
102
}
330
47
100
AcDbProxyObject
 90
      499
 91
      503
 93
      113
310
90431303A310000000000000910100
  0
ACAD_PROXY_OBJECT
  5
58
102
{ACAD_REACTORS
330
47
102
}
330
47
100
AcDbProxyObject
 90
      499
 91
      503
 93
      121
310
9053130303A310000000000001650100
  0
ACAD_PROXY_OBJECT
  5
59
102
{ACAD_REACTORS
330
47
102
}
330
47
100
AcDbProxyObject
 90
      499
 91
      503
 93
      257
310
90E312F31323822203D2031272D3022000000000000200FC000000000000284000
  0
ACAD_PROXY_OBJECT
  5
5A
102
{ACAD_REACTORS
330
47
102
}
330
47
100
AcDbProxyObject
 90
      499
 91
      503
 93
      249
310
90D312F363422203D2031272D3022000000000000240FC000000000000284000
  0
ACAD_PROXY_OBJECT
  5
5B
102
{ACAD_REACTORS
330
47
102
}
330
47
100
AcDbProxyObject
 90
      499
 91
      503
 93
      249
310
90D312F333222203D2031272D3022000000000000280FC000000000000284000
  0
ACAD_PROXY_OBJECT
  5
5C
102
{ACAD_REACTORS
330
47
102
}
330
47
100
AcDbProxyObject
 90
      499
 91
      503
 93
      249
310
90D312F313622203D2031272D30220000000000002C0FC000000000000284000
  0
ACAD_PROXY_OBJECT
  5
5D
102
{ACAD_REACTORS
330
47
102
}
330
47
100
AcDbProxyObject
 90
      499
 91
      503
 93
      249
310
90D332F333222203D2031272D30220000000000002E0FC000000000000284000
  0
ACAD_PROXY_OBJECT
  5
5E
102
{ACAD_REACTORS
330
47
102
}
330
47
100
AcDbProxyObject
 90
      499
 91
      503
 93
      241
310
90C312F3822203D2031272D3022000000000000300FC000000000000284000
  0
ACAD_PROXY_OBJECT
  5
5F
102
{ACAD_REACTORS
330
47
102
}
330
47
100
AcDbProxyObject
 90
      499
 91
      503
 93
      249
310
90D332F313622203D2031272D3022000000000000320FC000000000000284000
  0
ACAD_PROXY_OBJECT
  5
60
102
{ACAD_REACTORS
330
47
102
}
330
47
100
AcDbProxyObject
 90
      499
 91
      503
 93
      241
310
90C312F3422203D2031272D3022000000000000340FC000000000000284000
  0
ACAD_PROXY_OBJECT
  5
61
102
{ACAD_REACTORS
330
47
102
}
330
47
100
AcDbProxyObject
 90
      499
 91
      503
 93
      241
310
90C332F3822203D2031272D3022000000000000360FC000000000000284000
  0
ACAD_PROXY_OBJECT
  5
62
102
{ACAD_REACTORS
330
47
102
}
330
47
100
AcDbProxyObject
 90
      499
 91
      503
 93
      241
310
90C312F3222203D2031272D3022000000000000380FC000000000000284000
  0
ACAD_PROXY_OBJECT
  5
63
102
{ACAD_REACTORS
330
47
102
}
330
47
100
AcDbProxyObject
 90
      499
 91
      503
 93
      241
310
90C332F3422203D2031272D30220000000000003A0FC000000000000284000
  0
ACAD_PROXY_OBJECT
  5
64
102
{ACAD_REACTORS
330
47
102
}
330
47
100
AcDbProxyObject
 90
      499
 91
      503
 93
      161
310
90A3122203D2031272D30224000000000000284000
  0
ACAD_PROXY_OBJECT
  5
65
102
{ACAD_REACTORS
330
47
102
}
330
47
100
AcDbProxyObject
 90
      499
 91
      503
 93
      257
310
90E312D312F3222203D2031272D30220000000000003E0FC000000000000284000
  0
ACAD_PROXY_OBJECT
  5
66
102
{ACAD_REACTORS
330
47
102
}
330
47
100
AcDbProxyObject
 90
      499
 91
      503
 93
      225
310
90A3322203D2031272D302200000000000002100000000000000284000
  0
ACAD_PROXY_OBJECT
  5
67
102
{ACAD_REACTORS
330
47
102
}
330
47
100
AcDbProxyObject
 90
      499
 91
      503
 93
      225
310
90A3622203D2031272D302200000000000006100000000000000284000
  0
ACAD_PROXY_OBJECT
  5
68
102
{ACAD_REACTORS
330
47
102
}
330
47
100
AcDbProxyObject
 90
      499
 91
      503
 93
      249
310
90D31272D3022203D2031272D30220000000000000A100000000000000284000
  0
ACAD_PROXY_OBJECT
  5
2F
102
{ACAD_REACTORS
330
2A
102
}
330
2A
100
AcDbProxyObject
 90
      499
 91
      501
 93
      436
310
42CC9915DA5C99599C985B595049028333333333333E33F0000000000000F90107901411070040501600405405064090741402480A0340
1001
ACAD
1000
AcDbSavedByObjectVersion
1070
     0
  0
ACAD_PROXY_OBJECT
  5
32
102
{ACAD_REACTORS
330
2A
102
}
330
2A
100
AcDbProxyObject
 90
      499
 91
      501
 93
      388
310
4150985CDA58D07406404333333333333E33F0000000000000F90107A41107004050150841D405064090741402480A0350
1001
ACAD
1000
AcDbSavedByObjectVersion
1070
     0
  0
ACAD_PROXY_OBJECT
  5
36
102
{ACAD_REACTORS
330
2A
102
}
330
2A
100
AcDbProxyObject
 90
      499
 91
      501
 93
      428
310
42109C9A59DA1D195B90C409028333333333333E33F0000000000000F9010790141107004050150841D405064090741402480A029950
1001
ACAD
1000
AcDbSavedByObjectVersion
1070
     0
  0
ACAD_PROXY_OBJECT
  5
3A
102
{ACAD_REACTORS
330
2A
102
}
330
2A
100
AcDbProxyObject
 90
      499
 91
      501
 93
      452
310
42D0DBDB1BDC90DA185B99D95104090240C333333333333E33F0000000000000F90108901411070040501508421405064090741402480A0350
1001
ACAD
1000
AcDbSavedByObjectVersion
1070
     0
  0
ACAD_PROXY_OBJECT
  5
34
102
{ACAD_REACTORS
330
2A
102
}
330
2A
100
AcDbProxyObject
 90
      499
 91
      501
 93
      500
310
4290DBDB98D95C1D1D585B10940D028333333333333E33F0000000000000F90107902409070040501000000000018199010841D405064090740C02480A0340
1001
ACAD
1000
AcDbSavedByObjectVersion
1070
     0
  0
ACAD_PROXY_OBJECT
  5
35
102
{ACAD_REACTORS
330
2A
102
}
330
2A
100
AcDbProxyObject
 90
      499
 91
      501
 93
      412
310
40D11A5B50B409028333333333333E33F0000000000000F9010790141107004050150841D405064090741402480A02677FFFFFD0
1001
ACAD
1000
AcDbSavedByObjectVersion
1070
     0
  0
ACAD_PROXY_OBJECT
  5
3D
102
{ACAD_REACTORS
330
2A
102
}
330
2A
100
AcDbProxyObject
 90
      499
 91
      501
 93
      452
310
43115919D950DBDB1BDC93D999916409028333333333333E33F0000000000000F9010790141107004050150841D405064090741402480A0350
1001
ACAD
1000
AcDbSavedByObjectVersion
1070
     0
  0
ACAD_PROXY_OBJECT
  5
39
102
{ACAD_REACTORS
330
2A
102
}
330
2A
100
AcDbProxyObject
 90
      499
 91
      501
 93
      444
310
42D19858D95C185D1D195C9B90F409028333333333333E33F0000000000000F9010790141107004050150841D405064090741402480A0350
1001
ACAD
1000
AcDbSavedByObjectVersion
1070
     0
  0
ACAD_PROXY_OBJECT
  5
2B
102
{ACAD_REACTORS
330
2A
102
}
330
2A
100
AcDbProxyObject
 90
      499
 91
      501
 93
      380
310
41119B185D240901404333333333333E33F0000000000000F9010740A907004050150841D405064090741402480A1B50
1001
ACAD
1000
AcDbSavedByObjectVersion
1070
     0
  0
ACAD_PROXY_OBJECT
  5
2C
102
{ACAD_REACTORS
330
2A
102
}
330
2A
100
AcDbProxyObject
 90
      499
 91
      501
 93
      468
310
43519B185D15DA5D1A115919D95CD0140901404333333333333E33F0000000000000F90107409019070040501600405405064090741402480A1B50
1001
ACAD
1000
AcDbSavedByObjectVersion
1070
     0
  0
ACAD_PROXY_OBJECT
  5
2D
102
{ACAD_REACTORS
330
2A
102
}
330
2A
100
AcDbProxyObject
 90
      499
 91
      501
 93
      404
310
41D1DBDD5C985D5910240902404333333333333E33F0000000000000F9010740A9070040501641D405064090741402480A1B50
1001
ACAD
1000
AcDbSavedByObjectVersion
1070
     0
  0
ACAD_PROXY_OBJECT
  5
2E
102
{ACAD_REACTORS
330
2A
102
}
330
2A
100
AcDbProxyObject
 90
      499
 91
      501
 93
      492
310
4411DBDD5C985D5915DA5D1A115919D95CD0340902404333333333333E33F0000000000000F90107409019070040501600405405064090741402480A1B50
1001
ACAD
1000
AcDbSavedByObjectVersion
1070
     0
  0
ACAD_PROXY_OBJECT
  5
31
102
{ACAD_REACTORS
330
2A
102
}
330
2A
100
AcDbProxyObject
 90
      499
 91
      501
 93
      476
310
41921A5919195B90640502408333333333333E33F0000000000000F901079024090700405020000000000001110200405405064090740C02480A0340
1001
ACAD
1000
AcDbSavedByObjectVersion
1070
     0
  0
ACAD_PROXY_OBJECT
  5
3B
102
{ACAD_REACTORS
330
2A
102
}
330
2A
100
AcDbProxyObject
 90
      499
 91
      501
 93
      428
310
42529A5D1D195C93D999914409028333333333333E33F0000000000000F9010790141107004050150A41D405064090741402480A0350
1001
ACAD
1000
AcDbSavedByObjectVersion
1070
     0
  0
ACAD_PROXY_OBJECT
  5
38
102
{ACAD_REACTORS
330
2A
102
}
330
2A
100
AcDbProxyObject
 90
      499
 91
      501
 93
      444
310
42D31A5B995C185D1D195C9B90E409028333333333333E33F0000000000000F9010790141107004050750841D405064090741402483A0350
1001
ACAD
1000
AcDbSavedByObjectVersion
1070
     0
  0
ACAD_PROXY_OBJECT
  5
3C
102
{ACAD_REACTORS
330
2A
102
}
330
2A
100
AcDbProxyObject
 90
      499
 91
      501
 93
      444
310
42D3DD995C9A185B99D3D999915409028333333333333E33F0000000000000F9010790141107004050150941D405064090741402480A0350
1001
ACAD
1000
AcDbSavedByObjectVersion
1070
     0
  0
ACAD_PROXY_OBJECT
  5
33
102
{ACAD_REACTORS
330
2A
102
}
330
2A
100
AcDbProxyObject
 90
      499
 91
      501
 93
      428
310
425499585B1A5CDD1A58D08409038333333333333E33F0000000000000F9010740A907004050150800405405064090740C02480A1B40
1001
ACAD
1000
AcDbSavedByObjectVersion
1070
     0
  0
ACAD_PROXY_OBJECT
  5
42
102
{ACAD_REACTORS
330
2A
102
}
330
2A
100
AcDbProxyObject
 90
      499
 91
      501
 93
      420
310
4194DA1859195911B40902404333333333333E33F0000000000000F9010740A41107004050150800405405064090840C02480A0B40
1001
ACAD
1000
AcDbSavedByObjectVersion
1070
     0
  0
ACAD_PROXY_OBJECT
  5
41
102
{ACAD_REACTORS
330
2A
102
}
330
2A
100
AcDbProxyObject
 90
      499
 91
      501
 93
      516
310
4454DA18591959081DDA5D1A08195919D95CD1A40902404333333333333E33F0000000000000F901074090142907004050250800405405064090740C02480A0B40
1001
ACAD
1000
AcDbSavedByObjectVersion
1070
     0
  0
ACAD_PROXY_OBJECT
  5
3E
102
{ACAD_REACTORS
330
2A
102
}
330
2A
100
AcDbProxyObject
 90
      499
 91
      501
 93
      532
310
4394DA1859195CC81BD98811DC985E5174090240C333333333333E33F0000000000000F901079024090741D01000000000000111010841D405064090740C02480A0340
1001
ACAD
1000
AcDbSavedByObjectVersion
1070
     0
  0
ACAD_PROXY_OBJECT
  5
3F
102
{ACAD_REACTORS
330
2A
102
}
330
2A
100
AcDbProxyObject
 90
      499
 91
      501
 93
      476
310
41D4DAD95D18DA1E51840502408333333333333E33F0000000000000F901079024090741D01000000000000111010B41D405064090741802480A0340
1001
ACAD
1000
AcDbSavedByObjectVersion
1070
     0
  0
ACAD_PROXY_OBJECT
  5
37
102
{ACAD_REACTORS
330
2A
102
}
330
2A
100
AcDbProxyObject
 90
      499
 91
      501
 93
      412
310
41D51A1A58DAD95B90D409028333333333333E33F0000000000000F9010790141107004050150C41D405064090741402480A0350
1001
ACAD
1000
AcDbSavedByObjectVersion
1070
     0
  0
ACAD_PROXY_OBJECT
  5
30
102
{ACAD_REACTORS
330
2A
102
}
330
2A
100
AcDbProxyObject
 90
      499
 91
      501
 93
      420
310
4255DA5C99599C985B595059028333333333333E33F0000000000000F90107901411070040501600405405064090740C02480A0340
1001
ACAD
1000
AcDbSavedByObjectVersion
1070
     0
  0
ACAD_PROXY_OBJECT
  5
40
102
{ACAD_REACTORS
330
2A
102
}
330
2A
100
AcDbProxyObject
 90
      499
 91
      501
 93
      404
310
41560B54985E51940902404000000000000E03F0000000000000F9010740501907004050150841D405064090740C02480A1B40
1001
ACAD
1000
AcDbSavedByObjectVersion
1070
     0
  0
XRECORD
  5
3E0
102
{ACAD_REACTORS
330
3D6
102
}
330
3D6
100
AcDbXrecord
340
0
  0
XRECORD
  5
3DF
102
{ACAD_REACTORS
330
3D6
102
}
330
3D6
100
AcDbXrecord
 90
        0
  0
XRECORD
  5
3F6
102
{ACAD_REACTORS
330
3D6
102
}
330
3D6
100
AcDbXrecord
1000
DSTYLE
1002
{
1070
   340
340
11
1002
}
  0
XRECORD
  5
3E1
102
{ACAD_REACTORS
330
3D6
102
}
330
3D6
100
AcDbXrecord
  1
{FFEE4E4A-DBC6-4F0D-B0B7-CF49F412F7AD}
  0
XRECORD
  5
3D9
102
{ACAD_REACTORS
330
3D6
102
}
330
3D6
100
AcDbXrecord
  1

  0
XRECORD
  5
3DE
102
{ACAD_REACTORS
330
3D6
102
}
330
3D6
100
AcDbXrecord
 90
        1
  0
XRECORD
  5
3DB
102
{ACAD_REACTORS
330
3D6
102
}
330
3D6
100
AcDbXrecord
340
1A
  0
XRECORD
  5
3DD
102
{ACAD_REACTORS
330
3D6
102
}
330
3D6
100
AcDbXrecord
 90
    10781
  0
XRECORD
  5
3DC
102
{ACAD_REACTORS
330
3D6
102
}
330
3D6
100
AcDbXrecord
340
19
  0
XRECORD
  5
3E3
102
{ACAD_REACTORS
330
3D6
102
}
330
3D6
100
AcDbXrecord
 40
0.0
  0
XRECORD
  5
3E6
102
{ACAD_REACTORS
330
3D6
102
}
330
3D6
100
AcDbXrecord
340
0
  0
XRECORD
  5
3EC
102
{ACAD_REACTORS
330
3D6
102
}
330
3D6
100
AcDbXrecord
 10
0.0
 20
0.0
 30
0.0
  0
XRECORD
  5
3E8
102
{ACAD_REACTORS
330
3D6
102
}
330
3D6
100
AcDbXrecord
 10
0.0
 20
0.0
 30
0.0
  0
XRECORD
  5
3EB
102
{ACAD_REACTORS
330
3D6
102
}
330
3D6
100
AcDbXrecord
 10
0.0
 20
0.0
 30
0.0
  0
XRECORD
  5
3E9
102
{ACAD_REACTORS
330
3D6
102
}
330
3D6
100
AcDbXrecord
 10
0.0
 20
0.0
 30
0.0
  0
XRECORD
  5
3EA
102
{ACAD_REACTORS
330
3D6
102
}
330
3D6
100
AcDbXrecord
 10
0.0
 20
0.0
 30
0.0
  0
XRECORD
  5
3E7
102
{ACAD_REACTORS
330
3D6
102
}
330
3D6
100
AcDbXrecord
 10
0.0
 20
0.0
 30
0.0
  0
XRECORD
  5
3E4
102
{ACAD_REACTORS
330
3D6
102
}
330
3D6
100
AcDbXrecord
340
0
  0
XRECORD
  5
3E5
102
{ACAD_REACTORS
330
3D6
102
}
330
3D6
100
AcDbXrecord
 70
     0
  0
XRECORD
  5
3DA
102
{ACAD_REACTORS
330
3D6
102
}
330
3D6
100
AcDbXrecord
  1

  0
XRECORD
  5
3D7
102
{ACAD_REACTORS
330
3D6
102
}
330
3D6
100
AcDbXrecord
 90
        1
  0
XRECORD
  5
3D8
102
{ACAD_REACTORS
330
3D6
102
}
330
3D6
100
AcDbXrecord
 90
       70
  0
XRECORD
  5
3EF
102
{ACAD_REACTORS
330
3D6
102
}
330
3D6
100
AcDbXrecord
340
0
  0
XRECORD
  5
3F5
102
{ACAD_REACTORS
330
3D6
102
}
330
3D6
100
AcDbXrecord
 10
0.0
 20
0.0
 30
0.0
  0
XRECORD
  5
3F1
102
{ACAD_REACTORS
330
3D6
102
}
330
3D6
100
AcDbXrecord
 10
0.0
 20
0.0
 30
0.0
  0
XRECORD
  5
3F4
102
{ACAD_REACTORS
330
3D6
102
}
330
3D6
100
AcDbXrecord
 10
0.0
 20
0.0
 30
0.0
  0
XRECORD
  5
3F2
102
{ACAD_REACTORS
330
3D6
102
}
330
3D6
100
AcDbXrecord
 10
0.0
 20
0.0
 30
0.0
  0
XRECORD
  5
3F3
102
{ACAD_REACTORS
330
3D6
102
}
330
3D6
100
AcDbXrecord
 10
0.0
 20
0.0
 30
0.0
  0
XRECORD
  5
3F0
102
{ACAD_REACTORS
330
3D6
102
}
330
3D6
100
AcDbXrecord
 10
0.0
 20
0.0
 30
0.0
  0
XRECORD
  5
3ED
102
{ACAD_REACTORS
330
3D6
102
}
330
3D6
100
AcDbXrecord
340
0
  0
XRECORD
  5
3EE
102
{ACAD_REACTORS
330
3D6
102
}
330
3D6
100
AcDbXrecord
 70
     0
  0
XRECORD
  5
3E2
102
{ACAD_REACTORS
330
3D6
102
}
330
3D6
100
AcDbXrecord
  1
{FAEB1C32-E019-11D5-929B-00C0DF256EC4}
  0
DICTIONARYVAR
  5
400
102
{ACAD_REACTORS
330
3F7
102
}
330
3F7
100
DictionaryVariables
280
     0
  1
1:1
  0
DICTIONARYVAR
  5
3F9
102
{ACAD_REACTORS
330
3F7
102
}
330
3F7
100
DictionaryVariables
280
     0
  1
Standard
  0
DICTIONARYVAR
  5
3F8
102
{ACAD_REACTORS
330
3F7
102
}
330
3F7
100
DictionaryVariables
280
     0
  1
Standard
  0
DICTIONARYVAR
  5
3FC
102
{ACAD_REACTORS
330
3F7
102
}
330
3F7
100
DictionaryVariables
280
     0
  1
2
  0
DICTIONARYVAR
  5
3FD
102
{ACAD_REACTORS
330
3F7
102
}
330
3F7
100
DictionaryVariables
280
     0
  1
1
  0
DICTIONARYVAR
  5
401
102
{ACAD_REACTORS
330
3F7
102
}
330
3F7
100
DictionaryVariables
280
     0
  1
1
  0
DICTIONARY
  5
404
330
45
100
AcDbDictionary
280
     1
  3
ACAD_XREC_ROUNDTRIP
360
405
  0
DICTIONARY
  5
402
330
44
100
AcDbDictionary
280
     1
  3
ACAD_XREC_ROUNDTRIP
360
403
  0
DICTIONARY
  5
406
330
46
100
AcDbDictionary
280
     1
  3
ACAD_XREC_ROUNDTRIP
360
407
  0
XRECORD
  5
405
102
{ACAD_REACTORS
330
404
102
}
330
404
100
AcDbXrecord
102
MATERIAL
148
0.0
149
0.0
149
0.0
 93
        0
 94
      127
282
     0
 72
     1
 77
     1
171
     1
175
     1
179
     1
273
     0
  0
XRECORD
  5
403
102
{ACAD_REACTORS
330
402
102
}
330
402
100
AcDbXrecord
102
MATERIAL
148
0.0
149
0.0
149
0.0
 93
        0
 94
      127
282
     0
 72
     1
 77
     1
171
     1
175
     1
179
     1
273
     0
  0
XRECORD
  5
407
102
{ACAD_REACTORS
330
406
102
}
330
406
100
AcDbXrecord
102
MATERIAL
148
0.0
149
0.0
149
0.0
 93
        0
 94
      127
282
     0
 72
     1
 77
     1
171
     1
175
     1
179
     1
273
     0
  0
ENDSEC
  0
EOF
