  0
SECTION
  2
HEADER
  9
$ACADVER
  1
AC1014
  9
$ACADMAINTVER
 70
     9
  9
$DWGCODEPAGE
  3
ANSI_1252
  9
$INSBASE
 10
0.0
 20
0.0
 30
0.0
  9
$EXTMIN
 10
1.000000000000000E+20
 20
1.000000000000000E+20
 30
1.000000000000000E+20
  9
$EXTMAX
 10
-1.000000000000000E+20
 20
-1.000000000000000E+20
 30
-1.000000000000000E+20
  9
$LIMMIN
 10
0.0
 20
0.0
  9
$LIMMAX
 10
12.0
 20
9.0
  9
$ORTHOMODE
 70
     0
  9
$REGENMODE
 70
     1
  9
$FILLMODE
 70
     1
  9
$QTEXTMODE
 70
     0
  9
$MIRRTEXT
 70
     1
  9
$DRAGMODE
 70
     2
  9
$LTSCALE
 40
25.4
  9
$OSMODE
 70
    37
  9
$ATTMODE
 70
     1
  9
$TEXTSIZE
 40
0.2
  9
$TRACEWID
 40
0.05
  9
$TEXTSTYLE
  7
STANDARD
  9
$CLAYER
  8
0
  9
$CELTYPE
  6
BYLAYER
  9
$CECOLOR
 62
   256
  9
$CELTSCALE
 40
1.0
  9
$DELOBJ
 70
     1
  9
$DISPSILH
 70
     0
  9
$DIMSCALE
 40
1.0
  9
$DIMASZ
 40
0.18
  9
$DIMEXO
 40
0.0625
  9
$DIMDLI
 40
0.38
  9
$DIMRND
 40
0.0
  9
$DIMDLE
 40
0.0
  9
$DIMEXE
 40
0.18
  9
$DIMTP
 40
0.0
  9
$DIMTM
 40
0.0
  9
$DIMTXT
 40
0.18
  9
$DIMCEN
 40
0.09
  9
$DIMTSZ
 40
0.0
  9
$DIMTOL
 70
     0
  9
$DIMLIM
 70
     0
  9
$DIMTIH
 70
     1
  9
$DIMTOH
 70
     1
  9
$DIMSE1
 70
     0
  9
$DIMSE2
 70
     0
  9
$DIMTAD
 70
     0
  9
$DIMZIN
 70
     0
  9
$DIMBLK
  1

  9
$DIMASO
 70
     1
  9
$DIMSHO
 70
     1
  9
$DIMPOST
  1

  9
$DIMAPOST
  1

  9
$DIMALT
 70
     0
  9
$DIMALTD
 70
     2
  9
$DIMALTF
 40
25.4
  9
$DIMLFAC
 40
1.0
  9
$DIMTOFL
 70
     0
  9
$DIMTVP
 40
0.0
  9
$DIMTIX
 70
     0
  9
$DIMSOXD
 70
     0
  9
$DIMSAH
 70
     0
  9
$DIMBLK1
  1

  9
$DIMBLK2
  1

  9
$DIMSTYLE
  2
STANDARD
  9
$DIMCLRD
 70
     0
  9
$DIMCLRE
 70
     0
  9
$DIMCLRT
 70
     0
  9
$DIMTFAC
 40
1.0
  9
$DIMGAP
 40
0.09
  9
$DIMJUST
 70
     0
  9
$DIMSD1
 70
     0
  9
$DIMSD2
 70
     0
  9
$DIMTOLJ
 70
     1
  9
$DIMTZIN
 70
     0
  9
$DIMALTZ
 70
     0
  9
$DIMALTTZ
 70
     0
  9
$DIMFIT
 70
     3
  9
$DIMUPT
 70
     0
  9
$DIMUNIT
 70
     2
  9
$DIMDEC
 70
     4
  9
$DIMTDEC
 70
     4
  9
$DIMALTU
 70
     2
  9
$DIMALTTD
 70
     2
  9
$DIMTXSTY
  7
STANDARD
  9
$DIMAUNIT
 70
     0
  9
$LUNITS
 70
     2
  9
$LUPREC
 70
     4
  9
$SKETCHINC
 40
0.1
  9
$FILLETRAD
 40
0.5
  9
$AUNITS
 70
     0
  9
$AUPREC
 70
     0
  9
$MENU
  1
.
  9
$ELEVATION
 40
0.0
  9
$PELEVATION
 40
0.0
  9
$THICKNESS
 40
0.0
  9
$LIMCHECK
 70
     0
  9
$CHAMFERA
 40
0.0
  9
$CHAMFERB
 40
0.0
  9
$CHAMFERC
 40
0.0
  9
$CHAMFERD
 40
0.0
  9
$SKPOLY
 70
     0
  9
$TDCREATE
 40
2459101.532325058
  9
$TDUPDATE
 40
2459101.532325718
  9
$TDINDWG
 40
0.0000000116
  9
$TDUSRTIMER
 40
0.0000000116
  9
$USRTIMER
 70
     1
  9
$ANGBASE
 50
0.0
  9
$ANGDIR
 70
     0
  9
$PDMODE
 70
     0
  9
$PDSIZE
 40
0.0
  9
$PLINEWID
 40
0.0
  9
$COORDS
 70
     1
  9
$SPLFRAME
 70
     0
  9
$SPLINETYPE
 70
     6
  9
$SPLINESEGS
 70
     8
  9
$ATTDIA
 70
     0
  9
$ATTREQ
 70
     1
  9
$HANDLING
 70
     1
  9
$HANDSEED
  5
2AE
  9
$SURFTAB1
 70
     6
  9
$SURFTAB2
 70
     6
  9
$SURFTYPE
 70
     6
  9
$SURFU
 70
     6
  9
$SURFV
 70
     6
  9
$UCSNAME
  2

  9
$UCSORG
 10
0.0
 20
0.0
 30
0.0
  9
$UCSXDIR
 10
1.0
 20
0.0
 30
0.0
  9
$UCSYDIR
 10
0.0
 20
1.0
 30
0.0
  9
$PUCSNAME
  2

  9
$PUCSORG
 10
0.0
 20
0.0
 30
0.0
  9
$PUCSXDIR
 10
1.0
 20
0.0
 30
0.0
  9
$PUCSYDIR
 10
0.0
 20
1.0
 30
0.0
  9
$USERI1
 70
     0
  9
$USERI2
 70
     0
  9
$USERI3
 70
     0
  9
$USERI4
 70
     0
  9
$USERI5
 70
     0
  9
$USERR1
 40
0.0
  9
$USERR2
 40
0.0
  9
$USERR3
 40
0.0
  9
$USERR4
 40
0.0
  9
$USERR5
 40
0.0
  9
$WORLDVIEW
 70
     1
  9
$SHADEDGE
 70
     3
  9
$SHADEDIF
 70
    70
  9
$TILEMODE
 70
     1
  9
$MAXACTVP
 70
    64
  9
$PINSBASE
 10
0.0
 20
0.0
 30
0.0
  9
$PLIMCHECK
 70
     0
  9
$PEXTMIN
 10
1.000000000000000E+20
 20
1.000000000000000E+20
 30
1.000000000000000E+20
  9
$PEXTMAX
 10
-1.000000000000000E+20
 20
-1.000000000000000E+20
 30
-1.000000000000000E+20
  9
$PLIMMIN
 10
0.0
 20
0.0
  9
$PLIMMAX
 10
12.0
 20
9.0
  9
$UNITMODE
 70
     0
  9
$VISRETAIN
 70
     1
  9
$PLINEGEN
 70
     0
  9
$PSLTSCALE
 70
     1
  9
$TREEDEPTH
 70
  3020
  9
$PICKSTYLE
 70
     1
  9
$CMLSTYLE
  2
STANDARD
  9
$CMLJUST
 70
     0
  9
$CMLSCALE
 40
1.0
  9
$PROXYGRAPHICS
 70
     1
  9
$MEASUREMENT
 70
     1
  0
ENDSEC
  0
SECTION
  2
CLASSES
  0
CLASS
  1
ACDBDICTIONARYWDFLT
  2
AcDbDictionaryWithDefault
  3
ObjectDBX Classes
 90
        0
280
     0
281
     0
  0
CLASS
  1
VISUALSTYLE
  2
AcDbVisualStyle
  3
ObjectDBX Classes
 90
     4095
280
     0
281
     0
  0
CLASS
  1
MATERIAL
  2
AcDbMaterial
  3
ObjectDBX Classes
 90
     1153
280
     0
281
     0
  0
CLASS
  1
SCALE
  2
AcDbScale
  3
ObjectDBX Classes
 90
     1153
280
     0
281
     0
  0
CLASS
  1
TABLESTYLE
  2
AcDbTableStyle
  3
ObjectDBX Classes
 90
     4095
280
     0
281
     0
  0
CLASS
  1
MLEADERSTYLE
  2
AcDbMLeaderStyle
  3
ACDB_MLEADERSTYLE_CLASS
 90
     4095
280
     0
281
     0
  0
CLASS
  1
SUN
  2
AcDbSun
  3
SCENEOE
 90
     1153
280
     0
281
     0
  0
CLASS
  1
DICTIONARYVAR
  2
AcDbDictionaryVar
  3
ObjectDBX Classes
 90
        0
280
     0
281
     0
  0
CLASS
  1
XRECORD
  2
AcDbXrecord
  3
ObjectDBX Classes
 90
        0
280
     0
281
     0
  0
CLASS
  1
LWPOLYLINE
  2
AcDbPolyline
  3
ObjectDBX Classes
 90
        0
280
     0
281
     1
  0
CLASS
  1
HATCH
  2
AcDbHatch
  3
ObjectDBX Classes
 90
        0
280
     0
281
     1
  0
CLASS
  1
ACDBPLACEHOLDER
  2
AcDbPlaceHolder
  3
ObjectDBX Classes
 90
        0
280
     0
281
     0
  0
CLASS
  1
LAYOUT
  2
AcDbLayout
  3
ObjectDBX Classes
 90
        0
280
     0
281
     0
  0
ENDSEC
  0
SECTION
  2
TABLES
  0
TABLE
  2
VPORT
  5
8
102
{ACAD_XDICTIONARY
360
2A3
102
}
330
0
100
AcDbSymbolTable
 70
     1
  0
VPORT
  5
29
330
8
100
AcDbSymbolTableRecord
100
AcDbViewportTableRecord
  2
*ACTIVE
 70
     0
 10
0.0
 20
0.0
 11
1.0
 21
1.0
 12
0.0
 22
0.0
 13
0.0
 23
0.0
 14
0.5
 24
0.5
 15
0.5
 25
0.5
 16
1.771498800868379E-5
 26
0.003596419959042992
 36
0.9999935327039157
 17
905.7684563777161
 27
420.1664696928374
 37
4.518170830203417
 40
1879.470689445088
 41
1.3333
 42
3737.472343270037
 43
-3712.072343270037
 44
21662.52765672996
 50
0.0
 51
0.2822229923046416
 71
     0
 72
   100
 73
     1
 74
     3
 75
     0
 76
     0
 77
     0
 78
     0
  0
ENDTAB
  0
TABLE
  2
LTYPE
  5
5
330
0
100
AcDbSymbolTable
 70
     1
  0
LTYPE
  5
14
330
5
100
AcDbSymbolTableRecord
100
AcDbLinetypeTableRecord
  2
BYBLOCK
 70
     0
  3

 72
    65
 73
     0
 40
0.0
  0
LTYPE
  5
15
330
5
100
AcDbSymbolTableRecord
100
AcDbLinetypeTableRecord
  2
BYLAYER
 70
     0
  3

 72
    65
 73
     0
 40
0.0
  0
LTYPE
  5
16
330
5
100
AcDbSymbolTableRecord
100
AcDbLinetypeTableRecord
  2
CONTINUOUS
 70
     0
  3
Solid line
 72
    65
 73
     0
 40
0.0
  0
ENDTAB
  0
TABLE
  2
LAYER
  5
2
330
0
100
AcDbSymbolTable
 70
     1
  0
LAYER
  5
10
330
2
100
AcDbSymbolTableRecord
100
AcDbLayerTableRecord
  2
0
 70
     0
 62
    13
  6
CONTINUOUS
  0
ENDTAB
  0
TABLE
  2
STYLE
  5
3
330
0
100
AcDbSymbolTable
 70
     2
  0
STYLE
  5
11
330
3
100
AcDbSymbolTableRecord
100
AcDbTextStyleTableRecord
  2
STANDARD
 70
     0
 40
0.0
 41
1.0
 50
0.0
 71
     0
 42
0.2
  3
txt
  4

  0
STYLE
  5
6E
330
3
100
AcDbSymbolTableRecord
100
AcDbTextStyleTableRecord
  2
TAHOMA
 70
     0
 40
0.0
 41
1.0
 50
0.0
 71
     0
 42
0.2
  3
Tahoma
  4

1001
ACAD
1000
Tahoma
1071
       34
  0
ENDTAB
  0
TABLE
  2
VIEW
  5
6
330
0
100
AcDbSymbolTable
 70
     0
  0
ENDTAB
  0
TABLE
  2
UCS
  5
7
330
0
100
AcDbSymbolTable
 70
     0
  0
ENDTAB
  0
TABLE
  2
APPID
  5
9
330
0
100
AcDbSymbolTable
 70
     2
  0
APPID
  5
12
330
9
100
AcDbSymbolTableRecord
100
AcDbRegAppTableRecord
  2
ACAD
 70
     0
  0
APPID
  5
2AD
330
9
100
AcDbSymbolTableRecord
100
AcDbRegAppTableRecord
  2
ACAD_MLEADERVER
 70
     0
  0
ENDTAB
  0
TABLE
  2
DIMSTYLE
  5
A
330
0
100
AcDbSymbolTable
 70
     2
  0
DIMSTYLE
105
27
330
A
100
AcDbSymbolTableRecord
100
AcDbDimStyleTableRecord
  2
STANDARD
 70
     0
  3

  4

  5

  6

  7

 40
1.0
 41
0.18
 42
0.0625
 43
0.38
 44
0.18
 45
0.0
 46
0.0
 47
0.0
 48
0.0
140
0.18
141
0.09
142
0.0
143
25.4
144
1.0
145
0.0
146
1.0
147
0.09
 71
     0
 72
     0
 73
     1
 74
     1
 75
     0
 76
     0
 77
     0
 78
     0
170
     0
171
     2
172
     0
173
     0
174
     0
175
     0
176
     0
177
     0
178
     0
270
     2
271
     4
272
     4
273
     2
274
     2
340
11
275
     0
280
     0
281
     0
282
     0
283
     1
284
     0
285
     0
286
     0
287
     3
288
     0
  0
DIMSTYLE
105
6F
330
A
100
AcDbSymbolTableRecord
100
AcDbDimStyleTableRecord
  2
DIMENSIONS
 70
     0
  3
mm
  4

  5

  6

  7

 40
1.0
 41
12.7
 42
12.7
 43
0.38
 44
12.7
 45
0.0
 46
0.0
 47
0.0
 48
0.0
140
25.4
141
0.09
142
0.0
143
25.4
144
1.0
145
0.0
146
1.0
147
2.54
 71
     0
 72
     0
 73
     1
 74
     1
 75
     0
 76
     0
 77
     0
 78
     0
170
     0
171
     2
172
     0
173
     0
174
     0
175
     0
176
     0
177
     0
178
     0
270
     2
271
     1
272
     4
273
     2
274
     2
340
6E
275
     0
280
     0
281
     0
282
     0
283
     1
284
     0
285
     0
286
     0
287
     3
288
     0
  0
ENDTAB
  0
TABLE
  2
BLOCK_RECORD
  5
1
330
0
100
AcDbSymbolTable
 70
     9
  0
BLOCK_RECORD
  5
1F
330
1
100
AcDbSymbolTableRecord
100
AcDbBlockTableRecord
  2
*MODEL_SPACE
  0
BLOCK_RECORD
  5
1B
330
1
100
AcDbSymbolTableRecord
100
AcDbBlockTableRecord
  2
*PAPER_SPACE
  0
BLOCK_RECORD
  5
70
330
1
100
AcDbSymbolTableRecord
100
AcDbBlockTableRecord
  2
RIGHT_SIDE
  0
BLOCK_RECORD
  5
73
330
1
100
AcDbSymbolTableRecord
100
AcDbBlockTableRecord
  2
RAIL
  0
BLOCK_RECORD
  5
76
330
1
100
AcDbSymbolTableRecord
100
AcDbBlockTableRecord
  2
STEP
  0
BLOCK_RECORD
  5
79
330
1
100
AcDbSymbolTableRecord
100
AcDbBlockTableRecord
  2
RH_SIDE
  0
BLOCK_RECORD
  5
7C
330
1
100
AcDbSymbolTableRecord
100
AcDbBlockTableRecord
  2
PLATFORM
  0
BLOCK_RECORD
  5
7F
330
1
100
AcDbSymbolTableRecord
100
AcDbBlockTableRecord
  2
LH_SIDE
  0
BLOCK_RECORD
  5
82
330
1
100
AcDbSymbolTableRecord
100
AcDbBlockTableRecord
  2
DOWEL
  0
BLOCK_RECORD
  5
85
330
1
100
AcDbSymbolTableRecord
100
AcDbBlockTableRecord
  2
BOTTOM_RAIL
  0
BLOCK_RECORD
  5
88
330
1
100
AcDbSymbolTableRecord
100
AcDbBlockTableRecord
  2
LEARNING_TOWER_2017
  0
ENDTAB
  0
ENDSEC
  0
SECTION
  2
BLOCKS
  0
BLOCK
  5
20
330
1F
100
AcDbEntity
  8
0
100
AcDbBlockBegin
  2
*MODEL_SPACE
 70
     0
 10
0.0
 20
0.0
 30
0.0
  3
*MODEL_SPACE
  1

  0
ENDBLK
  5
21
330
1F
100
AcDbEntity
  8
0
100
AcDbBlockEnd
  0
BLOCK
  5
1C
330
1B
100
AcDbEntity
 67
     1
  8
0
100
AcDbBlockBegin
  2
*PAPER_SPACE
 70
     0
 10
0.0
 20
0.0
 30
0.0
  3
*PAPER_SPACE
  1

  0
ENDBLK
  5
1D
330
1B
100
AcDbEntity
 67
     1
  8
0
100
AcDbBlockEnd
  0
BLOCK
  5
71
330
70
100
AcDbEntity
  8
0
100
AcDbBlockBegin
  2
RIGHT_SIDE
 70
     0
 10
0.0
 20
0.0
 30
0.0
  3
RIGHT_SIDE
  1

  0
LINE
  5
8B
330
70
100
AcDbEntity
  8
0
 62
     0
100
AcDbLine
 10
427.0913688463667
 20
162.0000000000014
 30
18.00000000000061
 11
427.0490443926123
 21
162.0000000000008
 31
18.00000000000061
  0
LINE
  5
8C
330
70
100
AcDbEntity
  8
0
 62
     0
100
AcDbLine
 10
395.3000000000046
 20
391.0000000000016
 30
9.000000000000382
 11
395.3000000000033
 21
409.0000000000016
 31
9.000000000000922
  0
LINE
  5
8D
330
70
100
AcDbEntity
  8
0
 62
     0
100
AcDbLine
 10
395.3000000000033
 20
409.0000000000016
 30
9.000000000000922
 11
0.000000000003023
 21
409.0000000000031
 31
9.000000000002556
  0
LINE
  5
8E
330
70
100
AcDbEntity
  8
0
 62
     0
100
AcDbLine
 10
0.000000000003023
 20
409.0000000000031
 30
9.000000000002556
 11
0.0000000000030681
 21
391.0000000000018
 31
9.000000000002917
  0
LINE
  5
8F
330
70
100
AcDbEntity
  8
0
 62
     0
100
AcDbLine
 10
0.0000000000030681
 20
391.0000000000018
 30
9.000000000002917
 11
395.3000000000046
 21
391.0000000000016
 31
9.000000000000382
  0
CIRCLE
  5
90
330
70
100
AcDbEntity
  8
0
 62
     0
100
AcDbCircle
 10
-101.000000000004
 20
400.0000000000034
 30
-8.999999999999893
 40
1.499999999999975
210
2.405690530582193E-15
220
3.353132393867666E-15
230
-1.0
  0
CIRCLE
  5
91
330
70
100
AcDbEntity
  8
0
 62
     0
100
AcDbCircle
 10
-335.3000000000042
 20
400.0000000000035
 30
-9.00000000000092
 40
1.499999999999975
210
-4.075142080335987E-15
220
-3.759955310073580E-15
230
-1.0
  0
LINE
  5
92
330
70
100
AcDbEntity
  8
0
 62
     0
100
AcDbLine
 10
0.0000000000029328
 20
259.000000000002
 30
9.000000000005173
 11
427.299999999999
 21
259.000000000004
 31
9.00000000000264
  0
LINE
  5
93
330
70
100
AcDbEntity
  8
0
 62
     0
100
AcDbLine
 10
0.0000000000028425
 20
241.0000000000017
 30
9.000000000003729
 11
0.0000000000029328
 21
259.000000000002
 31
9.000000000005173
  0
LINE
  5
94
330
70
100
AcDbEntity
  8
0
 62
     0
100
AcDbLine
 10
427.3000000000005
 20
241.0000000000041
 30
9.00000000000101
 11
0.0000000000028425
 21
241.0000000000017
 31
9.000000000003729
  0
LINE
  5
95
330
70
100
AcDbEntity
  8
0
 62
     0
100
AcDbLine
 10
427.299999999999
 20
259.000000000004
 30
9.00000000000264
 11
427.3000000000005
 21
241.0000000000041
 31
9.00000000000101
  0
CIRCLE
  5
96
330
70
100
AcDbEntity
  8
0
 62
     0
100
AcDbCircle
 10
-367.2999999999991
 20
250.0000000000034
 30
-8.999999999990608
 40
1.499999999999997
210
0.0
220
2.757300560713493E-14
230
-1.0
  0
CIRCLE
  5
97
330
70
100
AcDbEntity
  8
0
 62
     0
100
AcDbCircle
 10
-133.0000000000027
 20
250.0000000000025
 30
-8.999999999988574
 40
1.50000000000002
210
-1.754096811800626E-14
220
7.285448837002606E-14
230
-1.0
  0
LINE
  5
98
330
70
100
AcDbEntity
  8
0
 62
     0
100
AcDbLine
 10
427.0490443926175
 20
180.0000000000011
 30
9.000000000001021
 11
479.5259589288521
 21
180.0000000000009
 31
8.999999999997412
  0
LINE
  5
99
330
70
100
AcDbEntity
  8
0
 62
     0
100
AcDbLine
 10
427.0490443926175
 20
180.0000000000011
 30
9.000000000001021
 11
427.049044392612
 21
162.0000000000009
 31
9.000000000000751
  0
LINE
  5
9A
330
70
100
AcDbEntity
  8
0
 62
     0
100
AcDbLine
 10
427.049044392612
 20
162.0000000000009
 30
9.000000000000751
 11
484.349044392612
 21
162.0000000000011
 31
8.999999999997046
  0
LINE
  5
9B
330
70
100
AcDbEntity
  8
0
 62
     0
100
AcDbLine
 10
479.5259589288521
 20
180.0000000000009
 30
8.999999999997412
 11
484.349044392612
 21
162.0000000000011
 31
8.999999999997046
  0
CIRCLE
  5
9C
330
70
100
AcDbEntity
  8
0
 62
     0
100
AcDbCircle
 10
-457.0490443926121
 20
171.0000000000011
 30
-9.00000000000381
 40
1.499999999999987
210
-7.543507430611113E-15
220
1.746344471730971E-15
230
-1.0
  0
LINE
  5
9D
330
70
100
AcDbEntity
  8
0
 62
     0
100
AcDbLine
 10
40.99999999999859
 20
105.9999999999896
 30
9.000000000017883
 11
22.9999999999974
 21
105.9999999999897
 31
9.000000000015094
  0
LINE
  5
9E
330
70
100
AcDbEntity
  8
0
 62
     0
100
AcDbLine
 10
22.9999999999974
 20
105.9999999999897
 30
9.000000000015094
 11
22.9999999999974
 21
63.9999999999896
 31
9.000000000015094
  0
LINE
  5
9F
330
70
100
AcDbEntity
  8
0
 62
     0
100
AcDbLine
 10
22.9999999999974
 20
63.9999999999896
 30
9.000000000015094
 11
40.99999999999859
 21
63.9999999999896
 31
9.000000000016533
  0
LINE
  5
A0
330
70
100
AcDbEntity
  8
0
 62
     0
100
AcDbLine
 10
40.99999999999859
 20
63.9999999999896
 30
9.000000000016533
 11
40.99999999999859
 21
105.9999999999896
 31
9.000000000017883
  0
CIRCLE
  5
A1
330
70
100
AcDbEntity
  8
0
 62
     0
100
AcDbCircle
 10
-31.99999999999977
 20
94.99999999998985
 30
-9.000000000011708
 40
1.499999999999999
210
7.722911616119472E-14
220
2.487770772805735E-14
230
-1.0
  0
CIRCLE
  5
A2
330
70
100
AcDbEntity
  8
0
 62
     0
100
AcDbCircle
 10
-31.99999999999961
 20
74.9999999999896
 30
-9.000000000015124
 40
1.499999999999998
210
5.854257095210768E-14
220
-1.568643460945806E-14
230
-1.0
  0
CIRCLE
  5
A3
330
70
100
AcDbEntity
  8
0
 62
     0
100
AcDbCircle
 10
-266.6264437506336
 20
810.3597639578346
 30
-9.000000000015639
 40
12.50000000000002
210
4.109307697623474E-14
220
-3.023061524025525E-14
230
-1.0
  0
CIRCLE
  5
A4
330
70
100
AcDbEntity
  8
0
 62
     0
100
AcDbCircle
 10
-266.6264437506331
 20
810.3597639578348
 30
-9.00000000000336
 40
1.500000000000023
210
-5.528777038124544E-16
220
-1.257949906398497E-15
230
-1.0
  0
LINE
  5
A5
330
70
100
AcDbEntity
  8
0
 62
     0
100
AcDbLine
 10
23.00000000000329
 20
818.0000000000015
 30
8.999999999984869
 11
41.00000000000362
 21
818.000000000002
 31
8.9999999999855
  0
LINE
  5
A6
330
70
100
AcDbEntity
  8
0
 62
     0
100
AcDbLine
 10
23.00000000000333
 20
754.0000000000016
 30
8.999999999988935
 11
23.00000000000329
 21
818.0000000000015
 31
8.999999999984869
  0
LINE
  5
A7
330
70
100
AcDbEntity
  8
0
 62
     0
100
AcDbLine
 10
41.00000000000374
 20
754.0000000000017
 30
8.999999999985596
 11
23.00000000000333
 21
754.0000000000016
 31
8.999999999988935
  0
LINE
  5
A8
330
70
100
AcDbEntity
  8
0
 62
     0
100
AcDbLine
 10
41.00000000000362
 20
818.000000000002
 30
8.9999999999855
 11
41.00000000000374
 21
754.0000000000017
 31
8.999999999985596
  0
CIRCLE
  5
A9
330
70
100
AcDbEntity
  8
0
 62
     0
100
AcDbCircle
 10
-32.00000000000273
 20
770.000000000001
 30
-9.000000000036676
 40
1.50000000000002
210
-9.527650376184688E-14
220
-6.015928496102101E-14
230
-1.0
  0
CIRCLE
  5
AA
330
70
100
AcDbEntity
  8
0
 62
     0
100
AcDbCircle
 10
-32.00000000000283
 20
802.0000000000013
 30
-9.000000000004132
 40
1.083653531387428
210
-7.537699232034954E-14
220
-2.044825196975271E-14
230
-1.0
  0
LINE
  5
AB
330
70
100
AcDbEntity
  8
0
 62
     0
100
AcDbLine
 10
0.000000000003023
 20
409.0000000000031
 30
9.000000000002556
 11
0.0000000000017709
 21
786.0000000000016
 31
9.000000000005343
  0
LINE
  5
AC
330
70
100
AcDbEntity
  8
0
 62
     0
100
AcDbLine
 10
395.3000000000033
 20
409.0000000000016
 30
9.000000000000922
 11
0.000000000003023
 21
409.0000000000031
 31
9.000000000002556
  0
LINE
  5
AD
330
70
100
AcDbEntity
  8
0
 62
     0
100
AcDbLine
 10
395.3000000000046
 20
391.0000000000016
 30
9.000000000000382
 11
395.3000000000033
 21
409.0000000000016
 31
9.000000000000922
  0
LINE
  5
AE
330
70
100
AcDbEntity
  8
0
 62
     0
100
AcDbLine
 10
0.0000000000030681
 20
391.0000000000018
 30
9.000000000002917
 11
395.3000000000046
 21
391.0000000000016
 31
9.000000000000382
  0
LINE
  5
AF
330
70
100
AcDbEntity
  8
0
 62
     0
100
AcDbLine
 10
0.0000000000029328
 20
259.000000000002
 30
9.000000000005173
 11
0.0000000000030681
 21
391.0000000000018
 31
9.000000000002917
  0
LINE
  5
B0
330
70
100
AcDbEntity
  8
0
 62
     0
100
AcDbLine
 10
0.0000000000029328
 20
259.000000000002
 30
9.000000000005173
 11
427.299999999999
 21
259.000000000004
 31
9.00000000000264
  0
LINE
  5
B1
330
70
100
AcDbEntity
  8
0
 62
     0
100
AcDbLine
 10
427.299999999999
 20
259.000000000004
 30
9.00000000000264
 11
427.3000000000005
 21
241.0000000000041
 31
9.00000000000101
  0
LINE
  5
B2
330
70
100
AcDbEntity
  8
0
 62
     0
100
AcDbLine
 10
427.3000000000005
 20
241.0000000000041
 30
9.00000000000101
 11
0.0000000000028425
 21
241.0000000000017
 31
9.000000000003729
  0
LINE
  5
B3
330
70
100
AcDbEntity
  8
0
 62
     0
100
AcDbLine
 10
-0.0000000000000338
 20
64.00000000000132
 30
9.000000000004352
 11
0.0000000000028425
 21
241.0000000000017
 31
9.000000000003729
  0
ARC
  5
B4
330
70
100
AcDbEntity
  8
0
 62
     0
100
AcDbCircle
 10
-64.0000000000017
 20
64.00000000000146
 30
-9.000000000002577
 40
64.00000000000001
210
-3.274082383410560E-15
220
1.343890276839224E-15
230
-1.0
100
AcDbArc
 50
269.9999999999998
 51
359.9999999999999
  0
LINE
  5
B5
330
70
100
AcDbEntity
  8
0
 62
     0
100
AcDbLine
 10
461.4991380202078
 20
-0.0000000000000045
 30
9.000000000000469
 11
64.000000000002
 21
0.0000000000017037
 31
9.000000000002368
  0
ARC
  5
B6
330
70
100
AcDbEntity
  8
0
 62
     0
100
AcDbCircle
 10
-461.4991380202071
 20
50.84130260738883
 30
-9.000000000026718
 40
50.84130260738773
210
-5.006977701011428E-14
220
-1.201151264778061E-14
230
-1.0
100
AcDbArc
 50
165.0000000000017
 51
269.9999999999997
  0
LINE
  5
B7
330
70
100
AcDbEntity
  8
0
 62
     0
100
AcDbLine
 10
484.349044392612
 20
162.0000000000011
 30
8.999999999997046
 11
510.6080652508617
 21
63.99999999999993
 31
9.000000000000382
  0
LINE
  5
B8
330
70
100
AcDbEntity
  8
0
 62
     0
100
AcDbLine
 10
427.049044392612
 20
162.0000000000009
 30
9.000000000000751
 11
484.349044392612
 21
162.0000000000011
 31
8.999999999997046
  0
LINE
  5
B9
330
70
100
AcDbEntity
  8
0
 62
     0
100
AcDbLine
 10
427.0490443926175
 20
180.0000000000011
 30
9.000000000001021
 11
427.049044392612
 21
162.0000000000009
 31
9.000000000000751
  0
LINE
  5
BA
330
70
100
AcDbEntity
  8
0
 62
     0
100
AcDbLine
 10
427.0490443926175
 20
180.0000000000011
 30
9.000000000001021
 11
479.5259589288521
 21
180.0000000000009
 31
8.999999999997412
  0
LINE
  5
BB
330
70
100
AcDbEntity
  8
0
 62
     0
100
AcDbLine
 10
317.1487483155958
 20
786.0000000000014
 30
9.00000000000435
 11
479.5259589288521
 21
180.0000000000009
 31
8.999999999997412
  0
ARC
  5
BC
330
70
100
AcDbEntity
  8
0
 62
     0
100
AcDbCircle
 10
233.7423244537592
 20
763.6513160826545
 30
9.000000000002734
 40
86.34868391734729
100
AcDbArc
 50
14.99999999999987
 51
90.00000000000146
  0
LINE
  5
BD
330
70
100
AcDbEntity
  8
0
 62
     0
100
AcDbLine
 10
64.00000000000381
 20
850.0000000000025
 30
8.999999999999748
 11
233.742324453757
 21
850.0000000000025
 31
8.9999999999993
  0
ARC
  5
BE
330
70
100
AcDbEntity
  8
0
 62
     0
100
AcDbCircle
 10
64.00000000000374
 20
786.0000000000015
 30
9.00000000000525
 40
63.99999999999993
100
AcDbArc
 50
89.99999999999994
 51
179.9999999999998
  0
LINE
  5
BF
330
70
100
AcDbEntity
  8
0
 62
     0
100
AcDbLine
 10
444.3503897046161
 20
64.00000000000016
 30
9.000000000000469
 11
403.0862140702285
 21
218.0000000000033
 31
8.999999999997582
  0
LINE
  5
C0
330
70
100
AcDbEntity
  8
0
 62
     0
100
AcDbLine
 10
64.00000000000169
 20
64.00000000000136
 30
9.000000000002453
 11
444.3503897046161
 21
64.00000000000016
 31
9.000000000000469
  0
LINE
  5
C1
330
70
100
AcDbEntity
  8
0
 62
     0
100
AcDbLine
 10
64.00000000000203
 20
218.0000000000041
 30
9.000000000002816
 11
64.00000000000169
 21
64.00000000000136
 31
9.000000000002453
  0
LINE
  5
C2
330
70
100
AcDbEntity
  8
0
 62
     0
100
AcDbLine
 10
64.00000000000203
 20
218.0000000000041
 30
9.000000000002816
 11
403.0862140702285
 21
218.0000000000033
 31
8.999999999997582
  0
LINE
  5
C3
330
70
100
AcDbEntity
  8
0
 62
     0
100
AcDbLine
 10
385.9374657546333
 20
282.0000000000034
 30
9.000000000001462
 11
362.893835205557
 21
368.0000000000013
 31
9.000000000000837
  0
LINE
  5
C4
330
70
100
AcDbEntity
  8
0
 62
     0
100
AcDbLine
 10
385.9374657546333
 20
282.0000000000034
 30
9.000000000001462
 11
64.00000000000227
 21
282.0000000000039
 31
9.000000000002542
  0
LINE
  5
C5
330
70
100
AcDbEntity
  8
0
 62
     0
100
AcDbLine
 10
64.00000000000246
 20
368.0000000000036
 30
8.999999999998305
 11
64.00000000000227
 21
282.0000000000039
 31
9.000000000002542
  0
LINE
  5
C6
330
70
100
AcDbEntity
  8
0
 62
     0
100
AcDbLine
 10
362.893835205557
 20
368.0000000000013
 30
9.000000000000837
 11
64.00000000000246
 21
368.0000000000036
 31
8.999999999998305
  0
LINE
  5
C7
330
70
100
AcDbEntity
  8
0
 62
     0
100
AcDbLine
 10
345.7450868899663
 20
432.0000000000015
 30
9.000000000001828
 11
250.8910727693509
 21
786.0000000000011
 31
9.000000000004443
  0
LINE
  5
C8
330
70
100
AcDbEntity
  8
0
 62
     0
100
AcDbLine
 10
64.00000000000261
 20
432.0000000000018
 30
9.000000000002998
 11
345.7450868899663
 21
432.0000000000015
 31
9.000000000001828
  0
LINE
  5
C9
330
70
100
AcDbEntity
  8
0
 62
     0
100
AcDbLine
 10
64.0000000000037
 20
786.0000000000015
 30
9.00000000000516
 11
64.00000000000261
 21
432.0000000000018
 31
9.000000000002998
  0
LINE
  5
CA
330
70
100
AcDbEntity
  8
0
 62
     0
100
AcDbLine
 10
250.8910727693509
 20
786.0000000000011
 30
9.000000000004443
 11
64.0000000000037
 21
786.0000000000015
 31
9.00000000000516
  0
LINE
  5
CB
330
70
100
AcDbEntity
  8
0
 62
     0
100
AcDbLine
 10
40.99999999999859
 20
105.9999999999896
 30
9.000000000017883
 11
22.9999999999974
 21
105.9999999999897
 31
9.000000000015094
  0
LINE
  5
CC
330
70
100
AcDbEntity
  8
0
 62
     0
100
AcDbLine
 10
40.99999999999859
 20
63.9999999999896
 30
9.000000000016533
 11
40.99999999999859
 21
105.9999999999896
 31
9.000000000017883
  0
LINE
  5
CD
330
70
100
AcDbEntity
  8
0
 62
     0
100
AcDbLine
 10
22.9999999999974
 20
63.9999999999896
 30
9.000000000015094
 11
40.99999999999859
 21
63.9999999999896
 31
9.000000000016533
  0
LINE
  5
CE
330
70
100
AcDbEntity
  8
0
 62
     0
100
AcDbLine
 10
22.9999999999974
 20
105.9999999999897
 30
9.000000000015094
 11
22.9999999999974
 21
63.9999999999896
 31
9.000000000015094
  0
LINE
  5
CF
330
70
100
AcDbEntity
  8
0
 62
     0
100
AcDbLine
 10
23.00000000000329
 20
818.0000000000015
 30
8.999999999984869
 11
41.00000000000362
 21
818.000000000002
 31
8.9999999999855
  0
LINE
  5
D0
330
70
100
AcDbEntity
  8
0
 62
     0
100
AcDbLine
 10
41.00000000000362
 20
818.000000000002
 30
8.9999999999855
 11
41.00000000000374
 21
754.0000000000017
 31
8.999999999985596
  0
LINE
  5
D1
330
70
100
AcDbEntity
  8
0
 62
     0
100
AcDbLine
 10
41.00000000000374
 20
754.0000000000017
 30
8.999999999985596
 11
23.00000000000333
 21
754.0000000000016
 31
8.999999999988935
  0
LINE
  5
D2
330
70
100
AcDbEntity
  8
0
 62
     0
100
AcDbLine
 10
23.00000000000333
 20
754.0000000000016
 30
8.999999999988935
 11
23.00000000000329
 21
818.0000000000015
 31
8.999999999984869
  0
CIRCLE
  5
D3
330
70
100
AcDbEntity
  8
0
 62
     0
100
AcDbCircle
 10
-266.6264437506336
 20
810.3597639578346
 30
-9.000000000015639
 40
12.50000000000002
210
4.109307697623474E-14
220
-3.023061524025525E-14
230
-1.0
  0
ENDBLK
  5
72
330
70
100
AcDbEntity
  8
0
100
AcDbBlockEnd
  0
BLOCK
  5
74
330
73
100
AcDbEntity
  8
0
100
AcDbBlockBegin
  2
RAIL
 70
     0
 10
0.0
 20
0.0
 30
0.0
  3
RAIL
  1

  0
LINE
  5
D4
330
73
100
AcDbEntity
  8
0
 62
     0
100
AcDbLine
 10
63.17311521666494
 20
1.607334189083334
 30
0.0874642875653486
 11
-0.8268847833349411
 21
1.607334189083333
 31
0.0874642875652583
  0
LINE
  5
D5
330
73
100
AcDbEntity
  8
0
 62
     0
100
AcDbLine
 10
-0.8268847833349411
 20
1.607334189083333
 30
0.0874642875652583
 11
-0.8268847833347607
 21
319.6073341890832
 31
0.0874642875652583
  0
LINE
  5
D6
330
73
100
AcDbEntity
  8
0
 62
     0
100
AcDbLine
 10
-0.8268847833347607
 20
319.6073341890832
 30
0.0874642875652583
 11
63.17311521666512
 21
319.6073341890832
 31
0.0874642875653486
  0
LINE
  5
D7
330
73
100
AcDbEntity
  8
0
 62
     0
100
AcDbLine
 10
63.17311521666512
 20
319.6073341890832
 30
0.0874642875653486
 11
63.17311521666494
 21
1.607334189083334
 31
0.0874642875653486
  0
ENDBLK
  5
75
330
73
100
AcDbEntity
  8
0
100
AcDbBlockEnd
  0
BLOCK
  5
77
330
76
100
AcDbEntity
  8
0
100
AcDbBlockBegin
  2
STEP
 70
     0
 10
0.0
 20
0.0
 30
0.0
  3
STEP
  1

  0
LINE
  5
D8
330
76
100
AcDbEntity
  8
0
 62
     0
100
AcDbLine
 10
0.0
 20
0.0
 30
0.0000000000000451
 11
0.0
 21
317.9999999999999
 31
0.0000000000000451
  0
LINE
  5
D9
330
76
100
AcDbEntity
  8
0
 62
     0
100
AcDbLine
 10
0.0
 20
317.9999999999999
 30
0.0000000000000451
 11
60.00000000000007
 21
317.9999999999999
 31
0.0000000000000451
  0
ARC
  5
DA
330
76
100
AcDbEntity
  8
0
 62
     0
100
AcDbCircle
 10
-60.00000000000025
 20
298.0000000000001
 30
-0.0000000000000451
 40
19.99999999999975
210
0.0
220
0.0
230
-1.0
100
AcDbArc
 50
89.99999999999949
 51
180.0000000000007
  0
LINE
  5
DB
330
76
100
AcDbEntity
  8
0
 62
     0
100
AcDbLine
 10
80.00000000000003
 20
19.99999999999996
 30
0.0
 11
80.00000000000003
 21
297.9999999999999
 31
0.0000000000000451
  0
ARC
  5
DC
330
76
100
AcDbEntity
  8
0
 62
     0
100
AcDbCircle
 10
60.00000000000025
 20
19.99999999999979
 30
0.0
 40
19.99999999999975
100
AcDbArc
 50
269.9999999999995
 51
0.0000000000005089
  0
LINE
  5
DD
330
76
100
AcDbEntity
  8
0
 62
     0
100
AcDbLine
 10
0.0
 20
0.0
 30
0.0000000000000451
 11
60.00000000000007
 21
0.0
 31
0.0
  0
ENDBLK
  5
78
330
76
100
AcDbEntity
  8
0
100
AcDbBlockEnd
  0
BLOCK
  5
7A
330
79
100
AcDbEntity
  8
0
100
AcDbBlockBegin
  2
RH_SIDE
 70
     0
 10
0.0
 20
0.0
 30
0.0
  3
RH_SIDE
  1

  0
LINE
  5
DE
330
79
100
AcDbEntity
  8
0
 62
     0
100
AcDbLine
 10
55.17113421215491
 20
115.913005112001
 30
16.12365861428792
 11
55.17113421215412
 21
73.91300511200049
 31
16.12365861428928
  0
LINE
  5
DF
330
79
100
AcDbEntity
  8
0
 62
     0
100
AcDbLine
 10
37.17113421215436
 20
73.91300511200049
 30
16.12365861428459
 11
37.17113421215436
 21
115.913005112001
 31
16.12365861428784
  0
LINE
  5
E0
330
79
100
AcDbEntity
  8
0
 62
     0
100
AcDbLine
 10
55.17113421215412
 20
73.91300511200049
 30
16.12365861428928
 11
37.17113421215436
 21
73.91300511200049
 31
16.12365861428459
  0
LINE
  5
E1
330
79
100
AcDbEntity
  8
0
 62
     0
100
AcDbLine
 10
37.17113421215436
 20
115.913005112001
 30
16.12365861428784
 11
55.17113421215491
 21
115.913005112001
 31
16.12365861428792
  0
INSERT
  5
E2
330
79
100
AcDbEntity
  8
0
 62
     0
100
AcDbBlockReference
  2
RIGHT_SIDE
 10
14.17113421215691
 20
9.913005112011266
 30
-1.876341385730265
  0
ENDBLK
  5
7B
330
79
100
AcDbEntity
  8
0
100
AcDbBlockEnd
  0
BLOCK
  5
7D
330
7C
100
AcDbEntity
  8
0
100
AcDbBlockBegin
  2
PLATFORM
 70
     0
 10
0.0
 20
0.0
 30
0.0
  3
PLATFORM
  1

  0
LINE
  5
E3
330
7C
100
AcDbEntity
  8
0
 62
     0
100
AcDbLine
 10
0.0
 20
318.0000000000002
 30
0.0
 11
354.2999999999997
 21
318.0000000000002
 31
0.0
  0
LINE
  5
E4
330
7C
100
AcDbEntity
  8
0
 62
     0
100
AcDbLine
 10
354.2999999999997
 20
318.0000000000002
 30
0.0
 11
354.2999999999997
 21
0.0
 31
0.0
  0
LINE
  5
E5
330
7C
100
AcDbEntity
  8
0
 62
     0
100
AcDbLine
 10
354.2999999999997
 20
0.0
 30
0.0
 11
0.0
 21
0.0
 31
0.0
  0
LINE
  5
E6
330
7C
100
AcDbEntity
  8
0
 62
     0
100
AcDbLine
 10
0.0
 20
0.0
 30
0.0
 11
0.0
 21
318.0000000000002
 31
0.0
  0
ENDBLK
  5
7E
330
7C
100
AcDbEntity
  8
0
100
AcDbBlockEnd
  0
BLOCK
  5
80
330
7F
100
AcDbEntity
  8
0
100
AcDbBlockBegin
  2
LH_SIDE
 70
     0
 10
0.0
 20
0.0
 30
0.0
  3
LH_SIDE
  1

  0
LINE
  5
E7
330
7F
100
AcDbEntity
  8
0
 62
     0
100
AcDbLine
 10
36.58085223481165
 20
234.0592570748365
 30
-4.525849897970541
 11
36.58085223480696
 21
252.0592570748364
 31
-4.525849897969695
  0
LINE
  5
E8
330
7F
100
AcDbEntity
  8
0
 62
     0
100
AcDbLine
 10
36.58085223480696
 20
252.0592570748364
 30
-4.525849897969695
 11
-390.7191477651855
 21
252.0592570748359
 31
-4.525849897971454
  0
LINE
  5
E9
330
7F
100
AcDbEntity
  8
0
 62
     0
100
AcDbLine
 10
-390.7191477651866
 20
234.0592570748361
 30
-4.525849897971221
 11
-390.7191477651855
 21
252.0592570748359
 31
-4.525849897971454
  0
LINE
  5
EA
330
7F
100
AcDbEntity
  8
0
 62
     0
100
AcDbLine
 10
36.58085223481165
 20
234.0592570748365
 30
-4.525849897970541
 11
-390.7191477651866
 21
234.0592570748361
 31
-4.525849897971221
  0
CIRCLE
  5
EB
330
7F
100
AcDbEntity
  8
0
 62
     0
100
AcDbCircle
 10
330.7191477651905
 20
243.059257074836
 30
4.525849897970366
 40
1.500000000000004
210
4.970268867435878E-15
220
3.024989010072296E-15
230
-1.0
  0
CIRCLE
  5
EC
330
7F
100
AcDbEntity
  8
0
 62
     0
100
AcDbCircle
 10
96.41914776518772
 20
243.059257074841
 30
4.525849897962358
 40
1.499999999999997
210
3.053113317746013E-15
220
-3.101963130802205E-14
230
-1.0
  0
LINE
  5
ED
330
7F
100
AcDbEntity
  8
0
 62
     0
100
AcDbLine
 10
36.58085223480786
 20
384.0592570748377
 30
-4.525849897970868
 11
-358.7191477651939
 21
384.0592570748418
 31
-4.525849897977365
  0
LINE
  5
EE
330
7F
100
AcDbEntity
  8
0
 62
     0
100
AcDbLine
 10
36.58085223480786
 20
402.0592570748379
 30
-4.525849897975244
 11
36.58085223480786
 21
384.0592570748377
 31
-4.525849897970868
  0
LINE
  5
EF
330
7F
100
AcDbEntity
  8
0
 62
     0
100
AcDbLine
 10
-358.7191477651944
 20
402.0592570748371
 30
-4.52584989797669
 11
36.58085223480786
 21
402.0592570748379
 31
-4.525849897975244
  0
LINE
  5
F0
330
7F
100
AcDbEntity
  8
0
 62
     0
100
AcDbLine
 10
-358.7191477651939
 20
384.0592570748418
 30
-4.525849897977365
 11
-358.7191477651944
 21
402.0592570748371
 31
-4.52584989797669
  0
CIRCLE
  5
F1
330
7F
100
AcDbEntity
  8
0
 62
     0
100
AcDbCircle
 10
298.719147765193
 20
393.0592570748332
 30
4.525849898346602
 40
1.499999999999974
210
-1.855091651036681E-13
220
8.121802814461347E-13
230
-1.0
  0
CIRCLE
  5
F2
330
7F
100
AcDbEntity
  8
0
 62
     0
100
AcDbCircle
 10
64.41914776520169
 20
393.0592570748415
 30
4.525849897475672
 40
1.499999999999975
210
2.997944466438188E-12
220
-7.820567821799715E-13
230
-1.0
  0
LINE
  5
F3
330
7F
100
AcDbEntity
  8
0
 62
     0
100
AcDbLine
 10
-442.9451066940447
 20
173.0592570748356
 30
-4.525849897972708
 11
-447.7681921578039
 21
155.0592570748354
 31
-4.525849897973159
  0
LINE
  5
F4
330
7F
100
AcDbEntity
  8
0
 62
     0
100
AcDbLine
 10
-390.4681921578044
 20
155.0592570748354
 30
-4.525849897972976
 11
-447.7681921578039
 21
155.0592570748354
 31
-4.525849897973159
  0
LINE
  5
F5
330
7F
100
AcDbEntity
  8
0
 62
     0
100
AcDbLine
 10
-390.4681921578044
 20
155.0592570748354
 30
-4.525849897972976
 11
-390.4681921578049
 21
173.0592570748356
 31
-4.525849897972616
  0
LINE
  5
F6
330
7F
100
AcDbEntity
  8
0
 62
     0
100
AcDbLine
 10
-390.4681921578049
 20
173.0592570748356
 30
-4.525849897972616
 11
-442.9451066940447
 21
173.0592570748356
 31
-4.525849897972708
  0
CIRCLE
  5
F7
330
7F
100
AcDbEntity
  8
0
 62
     0
100
AcDbCircle
 10
420.4681921578045
 20
164.0592570748354
 30
4.525849897965562
 40
1.499999999999995
210
2.429911747906954E-14
220
2.553327305889524E-14
230
-1.0
  0
CIRCLE
  5
F8
330
7F
100
AcDbEntity
  8
0
 62
     0
100
AcDbCircle
 10
230.0455915158216
 20
803.419021032671
 30
4.525849898050653
 40
12.49999999999994
210
-9.971466974831229E-14
220
5.004377325711868E-14
230
-1.0
  0
CIRCLE
  5
F9
330
7F
100
AcDbEntity
  8
0
 62
     0
100
AcDbCircle
 10
230.0455915158221
 20
803.4190210326713
 30
4.525849897985728
 40
1.499999999999997
210
4.626667311190298E-15
220
-8.922322233379980E-16
230
-1.0
  0
LINE
  5
FA
330
7F
100
AcDbEntity
  8
0
 62
     0
100
AcDbLine
 10
13.58085223480605
 20
747.0592570748363
 30
-4.525849897971579
 11
-4.419147765194545
 21
747.0592570748369
 31
-4.525849897970765
  0
LINE
  5
FB
330
7F
100
AcDbEntity
  8
0
 62
     0
100
AcDbLine
 10
13.58085223480551
 20
811.0592570748361
 30
-4.52584989797158
 11
13.58085223480605
 21
747.0592570748363
 31
-4.525849897971579
  0
LINE
  5
FC
330
7F
100
AcDbEntity
  8
0
 62
     0
100
AcDbLine
 10
-4.419147765194545
 20
811.0592570748364
 30
-4.52584989797132
 11
13.58085223480551
 21
811.0592570748361
 31
-4.52584989797158
  0
LINE
  5
FD
330
7F
100
AcDbEntity
  8
0
 62
     0
100
AcDbLine
 10
-4.419147765194545
 20
811.0592570748364
 30
-4.52584989797132
 11
-4.419147765194545
 21
747.0592570748369
 31
-4.525849897970765
  0
CIRCLE
  5
FE
330
7F
100
AcDbEntity
  8
0
 62
     0
100
AcDbCircle
 10
-4.580852234805787
 20
795.0592570748365
 30
4.525849897945699
 40
1.50000000000002
210
-4.707962414979798E-14
220
-3.007964248051050E-14
230
-1.0
  0
CIRCLE
  5
FF
330
7F
100
AcDbEntity
  8
0
 62
     0
100
AcDbCircle
 10
-4.580852234805774
 20
763.0592570748364
 30
4.525849897988952
 40
1.50000000000002
210
-4.406507405471562E-14
220
2.544098236735444E-14
230
-1.0
  0
LINE
  5
100
330
7F
100
AcDbEntity
  8
0
 62
     0
100
AcDbLine
 10
36.5808522348075
 20
57.0592570748351
 30
-4.52584989797053
 11
36.58085223481165
 21
234.0592570748365
 31
-4.525849897970541
  0
LINE
  5
101
330
7F
100
AcDbEntity
  8
0
 62
     0
100
AcDbLine
 10
36.58085223481165
 20
234.0592570748365
 30
-4.525849897970541
 11
-390.7191477651866
 21
234.0592570748361
 31
-4.525849897971221
  0
LINE
  5
102
330
7F
100
AcDbEntity
  8
0
 62
     0
100
AcDbLine
 10
-390.7191477651866
 20
234.0592570748361
 30
-4.525849897971221
 11
-390.7191477651855
 21
252.0592570748359
 31
-4.525849897971454
  0
LINE
  5
103
330
7F
100
AcDbEntity
  8
0
 62
     0
100
AcDbLine
 10
36.58085223480696
 20
252.0592570748364
 30
-4.525849897969695
 11
-390.7191477651855
 21
252.0592570748359
 31
-4.525849897971454
  0
LINE
  5
104
330
7F
100
AcDbEntity
  8
0
 62
     0
100
AcDbLine
 10
36.58085223480696
 20
252.0592570748364
 30
-4.525849897969695
 11
36.58085223480786
 21
384.0592570748377
 31
-4.525849897970868
  0
LINE
  5
105
330
7F
100
AcDbEntity
  8
0
 62
     0
100
AcDbLine
 10
36.58085223480786
 20
384.0592570748377
 30
-4.525849897970868
 11
-358.7191477651939
 21
384.0592570748418
 31
-4.525849897977365
  0
LINE
  5
106
330
7F
100
AcDbEntity
  8
0
 62
     0
100
AcDbLine
 10
-358.7191477651939
 20
384.0592570748418
 30
-4.525849897977365
 11
-358.7191477651944
 21
402.0592570748371
 31
-4.52584989797669
  0
LINE
  5
107
330
7F
100
AcDbEntity
  8
0
 62
     0
100
AcDbLine
 10
-358.7191477651944
 20
402.0592570748371
 30
-4.52584989797669
 11
36.58085223480786
 21
402.0592570748379
 31
-4.525849897975244
  0
LINE
  5
108
330
7F
100
AcDbEntity
  8
0
 62
     0
100
AcDbLine
 10
36.58085223480786
 20
402.0592570748379
 30
-4.525849897975244
 11
36.58085223480624
 21
779.0592570748366
 31
-4.525849897969628
  0
ARC
  5
109
330
7F
100
AcDbEntity
  8
0
 62
     0
100
AcDbCircle
 10
27.41914776519384
 20
779.0592570748368
 30
4.525849897970018
 40
63.99999999999991
210
3.274082383410591E-15
220
2.203098814491390E-17
230
-1.0
100
AcDbArc
 50
90.0
 51
180.0000000000001
  0
LINE
  5
10A
330
7F
100
AcDbEntity
  8
0
 62
     0
100
AcDbLine
 10
-27.41914776519383
 20
843.0592570748122
 30
-4.525849897970089
 11
-197.1614722189485
 21
843.0592570748124
 31
-4.525849897970406
  0
ARC
  5
10B
330
7F
100
AcDbEntity
  8
0
 62
     0
100
AcDbCircle
 10
197.1614722189458
 20
756.7105731574891
 30
4.525849897996553
 40
86.34868391734733
210
-6.207660540715291E-14
220
1.803801995499644E-14
230
-1.0
100
AcDbArc
 50
14.99999999999902
 51
89.99999999999845
  0
LINE
  5
10C
330
7F
100
AcDbEntity
  8
0
 62
     0
100
AcDbLine
 10
-280.5678960807876
 20
779.0592570748361
 30
-4.525849897965083
 11
-442.9451066940447
 21
173.0592570748356
 31
-4.525849897972708
  0
LINE
  5
10D
330
7F
100
AcDbEntity
  8
0
 62
     0
100
AcDbLine
 10
-390.4681921578049
 20
173.0592570748356
 30
-4.525849897972616
 11
-442.9451066940447
 21
173.0592570748356
 31
-4.525849897972708
  0
LINE
  5
10E
330
7F
100
AcDbEntity
  8
0
 62
     0
100
AcDbLine
 10
-390.4681921578044
 20
155.0592570748354
 30
-4.525849897972976
 11
-390.4681921578049
 21
173.0592570748356
 31
-4.525849897972616
  0
LINE
  5
10F
330
7F
100
AcDbEntity
  8
0
 62
     0
100
AcDbLine
 10
-390.4681921578044
 20
155.0592570748354
 30
-4.525849897972976
 11
-447.7681921578039
 21
155.0592570748354
 31
-4.525849897973159
  0
LINE
  5
110
330
7F
100
AcDbEntity
  8
0
 62
     0
100
AcDbLine
 10
-447.7681921578039
 20
155.0592570748354
 30
-4.525849897973159
 11
-474.0272130160548
 21
57.05925707483514
 31
-4.525849897967518
  0
ARC
  5
111
330
7F
100
AcDbEntity
  8
0
 62
     0
100
AcDbCircle
 10
-424.9182857854004
 20
43.90055968222344
 30
-4.525849897966558
 40
50.84130260738771
100
AcDbArc
 50
165.000000000001
 51
270.0
  0
LINE
  5
112
330
7F
100
AcDbEntity
  8
0
 62
     0
100
AcDbLine
 10
-424.9182857854004
 20
-6.940742925165034
 30
-4.525849897967247
 11
-27.41914776519238
 21
-6.940742925163318
 31
-4.525849897965442
  0
ARC
  5
113
330
7F
100
AcDbEntity
  8
0
 62
     0
100
AcDbCircle
 10
-27.41914776519256
 20
57.05925707483636
 30
-4.52584989797116
 40
64.00000000000001
100
AcDbArc
 50
270.0000000000002
 51
359.9999999999989
  0
LINE
  5
114
330
7F
100
AcDbEntity
  8
0
 62
     0
100
AcDbLine
 10
-27.41914776519202
 20
211.0592570748366
 30
-4.525849897964943
 11
-366.5053618354169
 21
211.0592570748362
 31
-4.525849897966569
  0
LINE
  5
115
330
7F
100
AcDbEntity
  8
0
 62
     0
100
AcDbLine
 10
-27.41914776519202
 20
211.0592570748366
 30
-4.525849897964943
 11
-27.41914776519238
 21
57.05925707483627
 31
-4.52584989797116
  0
LINE
  5
116
330
7F
100
AcDbEntity
  8
0
 62
     0
100
AcDbLine
 10
-27.41914776519238
 20
57.05925707483627
 30
-4.52584989797116
 11
-407.7695374698089
 21
57.05925707483535
 31
-4.525849897972708
  0
LINE
  5
117
330
7F
100
AcDbEntity
  8
0
 62
     0
100
AcDbLine
 10
-407.7695374698089
 20
57.05925707483535
 30
-4.525849897972708
 11
-366.5053618354169
 21
211.0592570748362
 31
-4.525849897966569
  0
LINE
  5
118
330
7F
100
AcDbEntity
  8
0
 62
     0
100
AcDbLine
 10
-349.3566135198255
 20
275.059257074836
 30
-4.52584989797203
 11
-27.4191477651931
 21
275.0592570748365
 31
-4.525849897970852
  0
LINE
  5
119
330
7F
100
AcDbEntity
  8
0
 62
     0
100
AcDbLine
 10
-349.3566135198255
 20
275.059257074836
 30
-4.52584989797203
 11
-326.3129829707494
 21
361.0592570748418
 31
-4.525849897966703
  0
LINE
  5
11A
330
7F
100
AcDbEntity
  8
0
 62
     0
100
AcDbLine
 10
-326.3129829707494
 20
361.0592570748418
 30
-4.525849897966703
 11
-27.41914776519328
 21
361.0592570748364
 31
-4.525849897971395
  0
LINE
  5
11B
330
7F
100
AcDbEntity
  8
0
 62
     0
100
AcDbLine
 10
-27.41914776519328
 20
361.0592570748364
 30
-4.525849897971395
 11
-27.4191477651931
 21
275.0592570748365
 31
-4.525849897970852
  0
LINE
  5
11C
330
7F
100
AcDbEntity
  8
0
 62
     0
100
AcDbLine
 10
-27.41914776519383
 20
425.0592570748367
 30
-4.525849897970541
 11
-309.1642346551573
 21
425.059257074836
 31
-4.525849897971624
  0
LINE
  5
11D
330
7F
100
AcDbEntity
  8
0
 62
     0
100
AcDbLine
 10
-309.1642346551573
 20
425.059257074836
 30
-4.525849897971624
 11
-214.3102205345411
 21
779.0592570748366
 31
-4.525849897970439
  0
LINE
  5
11E
330
7F
100
AcDbEntity
  8
0
 62
     0
100
AcDbLine
 10
-214.3102205345411
 20
779.0592570748366
 30
-4.525849897970439
 11
-27.41914776519383
 21
779.0592570748368
 31
-4.525849897970091
  0
LINE
  5
11F
330
7F
100
AcDbEntity
  8
0
 62
     0
100
AcDbLine
 10
-27.41914776519383
 20
779.0592570748368
 30
-4.525849897970091
 11
-27.41914776519383
 21
425.0592570748367
 31
-4.525849897970541
  0
LINE
  5
120
330
7F
100
AcDbEntity
  8
0
 62
     0
100
AcDbLine
 10
13.58085223480605
 20
747.0592570748363
 30
-4.525849897971579
 11
-4.419147765194545
 21
747.0592570748369
 31
-4.525849897970765
  0
LINE
  5
121
330
7F
100
AcDbEntity
  8
0
 62
     0
100
AcDbLine
 10
-4.419147765194545
 20
811.0592570748364
 30
-4.52584989797132
 11
-4.419147765194545
 21
747.0592570748369
 31
-4.525849897970765
  0
LINE
  5
122
330
7F
100
AcDbEntity
  8
0
 62
     0
100
AcDbLine
 10
-4.419147765194545
 20
811.0592570748364
 30
-4.52584989797132
 11
13.58085223480551
 21
811.0592570748361
 31
-4.52584989797158
  0
LINE
  5
123
330
7F
100
AcDbEntity
  8
0
 62
     0
100
AcDbLine
 10
13.58085223480551
 20
811.0592570748361
 30
-4.52584989797158
 11
13.58085223480605
 21
747.0592570748363
 31
-4.525849897971579
  0
CIRCLE
  5
124
330
7F
100
AcDbEntity
  8
0
 62
     0
100
AcDbCircle
 10
230.0455915158216
 20
803.419021032671
 30
4.525849898050653
 40
12.49999999999994
210
-9.971466974831229E-14
220
5.004377325711868E-14
230
-1.0
  0
LINE
  5
125
330
7F
100
AcDbEntity
  8
0
 62
     0
100
AcDbLine
 10
13.58085223480804
 20
99.05925707483654
 30
-4.525849897974421
 11
13.58085223480786
 21
57.05925707483612
 31
-4.525849897974197
  0
LINE
  5
126
330
7F
100
AcDbEntity
  8
0
 62
     0
100
AcDbLine
 10
13.58085223480786
 20
57.05925707483612
 30
-4.525849897974197
 11
-4.419147765192198
 21
57.05925707483614
 31
-4.525849897974466
  0
LINE
  5
127
330
7F
100
AcDbEntity
  8
0
 62
     0
100
AcDbLine
 10
-4.419147765192198
 20
57.05925707483614
 30
-4.525849897974466
 11
-4.419147765192198
 21
99.05925707483651
 31
-4.525849897974468
  0
LINE
  5
128
330
7F
100
AcDbEntity
  8
0
 62
     0
100
AcDbLine
 10
-4.419147765192198
 20
99.05925707483651
 30
-4.525849897974468
 11
13.58085223480804
 21
99.05925707483654
 31
-4.525849897974421
  0
LINE
  5
129
330
7F
100
AcDbEntity
  8
0
 62
     0
100
AcDbLine
 10
13.58085223480804
 20
99.05925707483654
 30
-4.525849897974421
 11
13.58085223480786
 21
57.05925707483612
 31
-4.525849897974197
  0
LINE
  5
12A
330
7F
100
AcDbEntity
  8
0
 62
     0
100
AcDbLine
 10
-4.419147765192198
 20
99.05925707483651
 30
-4.525849897974468
 11
13.58085223480804
 21
99.05925707483654
 31
-4.525849897974421
  0
LINE
  5
12B
330
7F
100
AcDbEntity
  8
0
 62
     0
100
AcDbLine
 10
-4.419147765192198
 20
57.05925707483614
 30
-4.525849897974466
 11
-4.419147765192198
 21
99.05925707483651
 31
-4.525849897974468
  0
LINE
  5
12C
330
7F
100
AcDbEntity
  8
0
 62
     0
100
AcDbLine
 10
13.58085223480786
 20
57.05925707483612
 30
-4.525849897974197
 11
-4.419147765192198
 21
57.05925707483614
 31
-4.525849897974466
  0
CIRCLE
  5
12D
330
7F
100
AcDbEntity
  8
0
 62
     0
100
AcDbCircle
 10
-4.580852234808457
 20
88.05925707483658
 30
4.525849897972258
 40
1.499999999999997
210
9.399888275162499E-16
220
-9.860014039807618E-15
230
-1.0
  0
CIRCLE
  5
12E
330
7F
100
AcDbEntity
  8
0
 62
     0
100
AcDbCircle
 10
-4.580852234808277
 20
68.05925707483614
 30
4.525849897972277
 40
1.499999999999997
210
9.399888275153600E-16
220
-9.860014039807615E-15
230
-1.0
  0
ENDBLK
  5
81
330
7F
100
AcDbEntity
  8
0
100
AcDbBlockEnd
  0
BLOCK
  5
83
330
82
100
AcDbEntity
  8
0
100
AcDbBlockBegin
  2
DOWEL
 70
     0
 10
0.0
 20
0.0
 30
0.0
  3
DOWEL
  1

  0
CIRCLE
  5
12F
330
82
100
AcDbEntity
  8
0
 62
     0
100
AcDbCircle
 10
-12.48143260547118
 20
12.48143260547118
 30
0.0
 40
12.50000000000001
210
0.0
220
1.0
230
0.0
  0
CIRCLE
  5
130
330
82
100
AcDbEntity
  8
0
 62
     0
100
AcDbCircle
 10
-12.48143260547118
 20
12.48143260547118
 30
0.0
 40
12.50000000000001
210
0.0
220
1.0
230
0.0
  0
LINE
  5
131
330
82
100
AcDbEntity
  8
0
 62
     0
100
AcDbLine
 10
4.137307761472652
 20
0.0
 30
3.174146180966678
 11
4.137307761472652
 21
317.9999999999999
 31
3.174146180966678
  0
CIRCLE
  5
132
330
82
100
AcDbEntity
  8
0
 62
     0
100
AcDbCircle
 10
-12.48143260547118
 20
12.48143260547118
 30
317.9999999999999
 40
12.50000000000001
210
0.0
220
1.0
230
0.0
  0
LINE
  5
133
330
82
100
AcDbEntity
  8
0
 62
     0
100
AcDbLine
 10
5.423537563119258
 20
0.0
 30
2.164644463266087
 11
5.423537563119258
 21
317.9999999999999
 31
2.164644463266087
  0
CIRCLE
  5
134
330
82
100
AcDbEntity
  8
0
 62
     0
100
AcDbCircle
 10
-12.48143260547118
 20
12.48143260547118
 30
0.0
 40
12.50000000000001
210
0.0
220
1.0
230
0.0
  0
LINE
  5
135
330
82
100
AcDbEntity
  8
0
 62
     0
100
AcDbLine
 10
2.993848249335327
 20
0.0
 30
4.342898149857807
 11
2.993848249335327
 21
317.9999999999999
 31
4.342898149857807
  0
CIRCLE
  5
136
330
82
100
AcDbEntity
  8
0
 62
     0
100
AcDbCircle
 10
-12.48143260547118
 20
12.48143260547118
 30
317.9999999999999
 40
12.50000000000001
210
0.0
220
1.0
230
0.0
  0
LINE
  5
137
330
82
100
AcDbEntity
  8
0
 62
     0
100
AcDbLine
 10
4.137307761472652
 20
0.0
 30
3.174146180966678
 11
4.137307761472652
 21
317.9999999999999
 31
3.174146180966678
  0
CIRCLE
  5
138
330
82
100
AcDbEntity
  8
0
 62
     0
100
AcDbCircle
 10
-12.48143260547118
 20
12.48143260547118
 30
0.0
 40
12.50000000000001
210
0.0
220
1.0
230
0.0
  0
LINE
  5
139
330
82
100
AcDbEntity
  8
0
 62
     0
100
AcDbLine
 10
0.1956763047029991
 20
0.0
 30
10.17704719540297
 11
0.1956763047029991
 21
317.9999999999999
 31
10.17704719540297
  0
CIRCLE
  5
13A
330
82
100
AcDbEntity
  8
0
 62
     0
100
AcDbCircle
 10
-12.48143260547118
 20
12.48143260547118
 30
317.9999999999999
 40
12.50000000000001
210
0.0
220
1.0
230
0.0
  0
LINE
  5
13B
330
82
100
AcDbEntity
  8
0
 62
     0
100
AcDbLine
 10
0.6015653059673102
 20
0.0
 30
8.593148543551493
 11
0.6015653059673102
 21
317.9999999999999
 31
8.593148543551493
  0
CIRCLE
  5
13C
330
82
100
AcDbEntity
  8
0
 62
     0
100
AcDbCircle
 10
-12.48143260547118
 20
12.48143260547118
 30
0.0
 40
12.50000000000001
210
0.0
220
1.0
230
0.0
  0
LINE
  5
13D
330
82
100
AcDbEntity
  8
0
 62
     0
100
AcDbLine
 10
0.0
 20
0.0
 30
11.80037452051705
 11
0.0
 21
317.9999999999999
 31
11.80037452051705
  0
CIRCLE
  5
13E
330
82
100
AcDbEntity
  8
0
 62
     0
100
AcDbCircle
 10
-12.48143260547118
 20
12.48143260547118
 30
317.9999999999999
 40
12.50000000000001
210
0.0
220
1.0
230
0.0
  0
LINE
  5
13F
330
82
100
AcDbEntity
  8
0
 62
     0
100
AcDbLine
 10
0.1956763047029991
 20
0.0
 30
10.17704719540297
 11
0.1956763047029991
 21
317.9999999999999
 31
10.17704719540297
  0
CIRCLE
  5
140
330
82
100
AcDbEntity
  8
0
 62
     0
100
AcDbCircle
 10
-12.48143260547118
 20
12.48143260547118
 30
0.0
 40
12.50000000000001
210
0.0
220
1.0
230
0.0
  0
LINE
  5
141
330
82
100
AcDbEntity
  8
0
 62
     0
100
AcDbLine
 10
0.0178844676835368
 20
0.0
 30
13.43535493828962
 11
0.0178844676835368
 21
317.9999999999999
 31
13.43535493828962
  0
CIRCLE
  5
142
330
82
100
AcDbEntity
  8
0
 62
     0
100
AcDbCircle
 10
-12.48143260547118
 20
12.48143260547118
 30
317.9999999999999
 40
12.50000000000001
210
0.0
220
1.0
230
0.0
  0
LINE
  5
143
330
82
100
AcDbEntity
  8
0
 62
     0
100
AcDbLine
 10
0.0
 20
0.0
 30
11.80037452051705
 11
0.0
 21
317.9999999999999
 31
11.80037452051705
  0
CIRCLE
  5
144
330
82
100
AcDbEntity
  8
0
 62
     0
100
AcDbCircle
 10
-12.48143260547118
 20
12.48143260547118
 30
0.0
 40
12.50000000000001
210
0.0
220
1.0
230
0.0
  0
LINE
  5
145
330
82
100
AcDbEntity
  8
0
 62
     0
100
AcDbLine
 10
2.012723935986826
 20
0.0
 30
5.650902699712547
 11
2.012723935986826
 21
317.9999999999999
 31
5.650902699712547
  0
CIRCLE
  5
146
330
82
100
AcDbEntity
  8
0
 62
     0
100
AcDbCircle
 10
-12.48143260547118
 20
12.48143260547118
 30
317.9999999999999
 40
12.50000000000001
210
0.0
220
1.0
230
0.0
  0
LINE
  5
147
330
82
100
AcDbEntity
  8
0
 62
     0
100
AcDbLine
 10
2.993848249335327
 20
0.0
 30
4.342898149857807
 11
2.993848249335327
 21
317.9999999999999
 31
4.342898149857807
  0
CIRCLE
  5
148
330
82
100
AcDbEntity
  8
0
 62
     0
100
AcDbCircle
 10
-12.48143260547118
 20
12.48143260547118
 30
0.0
 40
12.50000000000001
210
0.0
220
1.0
230
0.0
  0
LINE
  5
149
330
82
100
AcDbEntity
  8
0
 62
     0
100
AcDbLine
 10
5.423537563119258
 20
0.0
 30
2.164644463266087
 11
5.423537563119258
 21
317.9999999999999
 31
2.164644463266087
  0
CIRCLE
  5
14A
330
82
100
AcDbEntity
  8
0
 62
     0
100
AcDbCircle
 10
-12.48143260547118
 20
12.48143260547118
 30
317.9999999999999
 40
12.50000000000001
210
0.0
220
1.0
230
0.0
  0
LINE
  5
14B
330
82
100
AcDbEntity
  8
0
 62
     0
100
AcDbLine
 10
6.830529905758683
 20
0.0
 30
1.331665851032686
 11
6.830529905758683
 21
317.9999999999999
 31
1.331665851032686
  0
CIRCLE
  5
14C
330
82
100
AcDbEntity
  8
0
 62
     0
100
AcDbCircle
 10
-12.48143260547118
 20
12.48143260547118
 30
0.0
 40
12.50000000000001
210
0.0
220
1.0
230
0.0
  0
LINE
  5
14D
330
82
100
AcDbEntity
  8
0
 62
     0
100
AcDbLine
 10
6.830529905758683
 20
0.0
 30
1.331665851032686
 11
6.830529905758683
 21
317.9999999999999
 31
1.331665851032686
  0
CIRCLE
  5
14E
330
82
100
AcDbEntity
  8
0
 62
     0
100
AcDbCircle
 10
-12.48143260547118
 20
12.48143260547118
 30
317.9999999999999
 40
12.50000000000001
210
0.0
220
1.0
230
0.0
  0
LINE
  5
14F
330
82
100
AcDbEntity
  8
0
 62
     0
100
AcDbLine
 10
8.334210760316422
 20
0.0
 30
0.6894628392670696
 11
8.334210760316422
 21
317.9999999999999
 31
0.6894628392670696
  0
CIRCLE
  5
150
330
82
100
AcDbEntity
  8
0
 62
     0
100
AcDbCircle
 10
-12.48143260547118
 20
12.48143260547118
 30
0.0
 40
12.50000000000001
210
0.0
220
1.0
230
0.0
  0
LINE
  5
151
330
82
100
AcDbEntity
  8
0
 62
     0
100
AcDbLine
 10
1.210722130447606
 20
0.0
 30
7.075779510035373
 11
1.210722130447606
 21
317.9999999999999
 31
7.075779510035373
  0
CIRCLE
  5
152
330
82
100
AcDbEntity
  8
0
 62
     0
100
AcDbCircle
 10
-12.48143260547118
 20
12.48143260547118
 30
317.9999999999999
 40
12.50000000000001
210
0.0
220
1.0
230
0.0
  0
LINE
  5
153
330
82
100
AcDbEntity
  8
0
 62
     0
100
AcDbLine
 10
2.012723935986826
 20
0.0
 30
5.650902699712547
 11
2.012723935986826
 21
317.9999999999999
 31
5.650902699712547
  0
CIRCLE
  5
154
330
82
100
AcDbEntity
  8
0
 62
     0
100
AcDbCircle
 10
-12.48143260547118
 20
12.48143260547118
 30
0.0
 40
12.50000000000001
210
0.0
220
1.0
230
0.0
  0
LINE
  5
155
330
82
100
AcDbEntity
  8
0
 62
     0
100
AcDbLine
 10
0.6015653059673102
 20
0.0
 30
8.593148543551493
 11
0.6015653059673102
 21
317.9999999999999
 31
8.593148543551493
  0
CIRCLE
  5
156
330
82
100
AcDbEntity
  8
0
 62
     0
100
AcDbCircle
 10
-12.48143260547118
 20
12.48143260547118
 30
317.9999999999999
 40
12.50000000000001
210
0.0
220
1.0
230
0.0
  0
LINE
  5
157
330
82
100
AcDbEntity
  8
0
 62
     0
100
AcDbLine
 10
1.210722130447606
 20
0.0
 30
7.075779510035373
 11
1.210722130447606
 21
317.9999999999999
 31
7.075779510035373
  0
CIRCLE
  5
158
330
82
100
AcDbEntity
  8
0
 62
     0
100
AcDbCircle
 10
-12.48143260547118
 20
12.48143260547118
 30
0.0
 40
12.50000000000001
210
0.0
220
1.0
230
0.0
  0
LINE
  5
159
330
82
100
AcDbEntity
  8
0
 62
     0
100
AcDbLine
 10
20.82555744946972
 20
0.0
 30
21.78871902997587
 11
20.82555744946972
 21
317.9999999999999
 31
21.78871902997587
  0
CIRCLE
  5
15A
330
82
100
AcDbEntity
  8
0
 62
     0
100
AcDbCircle
 10
-12.48143260547118
 20
12.48143260547118
 30
317.9999999999999
 40
12.50000000000001
210
0.0
220
1.0
230
0.0
  0
LINE
  5
15B
330
82
100
AcDbEntity
  8
0
 62
     0
100
AcDbLine
 10
19.53932764782311
 20
0.0
 30
22.79822074767628
 11
19.53932764782311
 21
317.9999999999999
 31
22.79822074767628
  0
CIRCLE
  5
15C
330
82
100
AcDbEntity
  8
0
 62
     0
100
AcDbCircle
 10
-12.48143260547118
 20
12.48143260547118
 30
0.0
 40
12.50000000000001
210
0.0
220
1.0
230
0.0
  0
LINE
  5
15D
330
82
100
AcDbEntity
  8
0
 62
     0
100
AcDbLine
 10
23.63119935990968
 20
0.0
 30
6.830529905758638
 11
23.63119935990968
 21
317.9999999999999
 31
6.830529905758638
  0
CIRCLE
  5
15E
330
82
100
AcDbEntity
  8
0
 62
     0
100
AcDbCircle
 10
-12.48143260547118
 20
12.48143260547118
 30
317.9999999999999
 40
12.50000000000001
210
0.0
220
1.0
230
0.0
  0
LINE
  5
15F
330
82
100
AcDbEntity
  8
0
 62
     0
100
AcDbLine
 10
24.27340237167526
 20
0.0
 30
8.334210760316513
 11
24.27340237167526
 21
317.9999999999999
 31
8.334210760316513
  0
CIRCLE
  5
160
330
82
100
AcDbEntity
  8
0
 62
     0
100
AcDbCircle
 10
-12.48143260547118
 20
12.48143260547118
 30
0.0
 40
12.50000000000001
210
0.0
220
1.0
230
0.0
  0
LINE
  5
161
330
82
100
AcDbEntity
  8
0
 62
     0
100
AcDbLine
 10
3.174146180966634
 20
0.0
 30
20.82555744946994
 11
3.174146180966634
 21
317.9999999999999
 31
20.82555744946994
  0
CIRCLE
  5
162
330
82
100
AcDbEntity
  8
0
 62
     0
100
AcDbCircle
 10
-12.48143260547118
 20
12.48143260547118
 30
317.9999999999999
 40
12.50000000000001
210
0.0
220
1.0
230
0.0
  0
LINE
  5
163
330
82
100
AcDbEntity
  8
0
 62
     0
100
AcDbLine
 10
2.164644463266087
 20
0.0
 30
19.53932764782338
 11
2.164644463266087
 21
317.9999999999999
 31
19.53932764782338
  0
CIRCLE
  5
164
330
82
100
AcDbEntity
  8
0
 62
     0
100
AcDbCircle
 10
-12.48143260547118
 20
12.48143260547118
 30
0.0
 40
12.50000000000001
210
0.0
220
1.0
230
0.0
  0
LINE
  5
165
330
82
100
AcDbEntity
  8
0
 62
     0
100
AcDbLine
 10
24.96286521094237
 20
0.0
 30
13.16249069042532
 11
24.96286521094237
 21
317.9999999999999
 31
13.16249069042532
  0
CIRCLE
  5
166
330
82
100
AcDbEntity
  8
0
 62
     0
100
AcDbCircle
 10
-12.48143260547118
 20
12.48143260547118
 30
317.9999999999999
 40
12.50000000000001
210
0.0
220
1.0
230
0.0
  0
LINE
  5
167
330
82
100
AcDbEntity
  8
0
 62
     0
100
AcDbLine
 10
24.76718890623937
 20
0.0
 30
14.7858180155394
 11
24.76718890623937
 21
317.9999999999999
 31
14.7858180155394
  0
CIRCLE
  5
168
330
82
100
AcDbEntity
  8
0
 62
     0
100
AcDbCircle
 10
-12.48143260547118
 20
12.48143260547118
 30
0.0
 40
12.50000000000001
210
0.0
220
1.0
230
0.0
  0
LINE
  5
169
330
82
100
AcDbEntity
  8
0
 62
     0
100
AcDbLine
 10
0.6894628392671147
 20
0.0
 30
16.62865445062622
 11
0.6894628392671147
 21
317.9999999999999
 31
16.62865445062622
  0
CIRCLE
  5
16A
330
82
100
AcDbEntity
  8
0
 62
     0
100
AcDbCircle
 10
-12.48143260547118
 20
12.48143260547118
 30
317.9999999999999
 40
12.50000000000001
210
0.0
220
1.0
230
0.0
  0
LINE
  5
16B
330
82
100
AcDbEntity
  8
0
 62
     0
100
AcDbLine
 10
0.2490236995529596
 20
0.0
 30
15.05401348047051
 11
0.2490236995529596
 21
317.9999999999999
 31
15.05401348047051
  0
CIRCLE
  5
16C
330
82
100
AcDbEntity
  8
0
 62
     0
100
AcDbCircle
 10
-12.48143260547118
 20
12.48143260547118
 30
0.0
 40
12.50000000000001
210
0.0
220
1.0
230
0.0
  0
LINE
  5
16D
330
82
100
AcDbEntity
  8
0
 62
     0
100
AcDbLine
 10
24.76718890623937
 20
0.0
 30
14.7858180155394
 11
24.76718890623937
 21
317.9999999999999
 31
14.7858180155394
  0
CIRCLE
  5
16E
330
82
100
AcDbEntity
  8
0
 62
     0
100
AcDbCircle
 10
-12.48143260547118
 20
12.48143260547118
 30
317.9999999999999
 40
12.50000000000001
210
0.0
220
1.0
230
0.0
  0
LINE
  5
16F
330
82
100
AcDbEntity
  8
0
 62
     0
100
AcDbLine
 10
24.36129990497506
 20
0.0
 30
16.36971666739106
 11
24.36129990497506
 21
317.9999999999999
 31
16.36971666739106
  0
CIRCLE
  5
170
330
82
100
AcDbEntity
  8
0
 62
     0
100
AcDbCircle
 10
-12.48143260547118
 20
12.48143260547118
 30
0.0
 40
12.50000000000001
210
0.0
220
1.0
230
0.0
  0
LINE
  5
171
330
82
100
AcDbEntity
  8
0
 62
     0
100
AcDbLine
 10
2.164644463266087
 20
0.0
 30
19.53932764782338
 11
2.164644463266087
 21
317.9999999999999
 31
19.53932764782338
  0
CIRCLE
  5
172
330
82
100
AcDbEntity
  8
0
 62
     0
100
AcDbCircle
 10
-12.48143260547118
 20
12.48143260547118
 30
317.9999999999999
 40
12.50000000000001
210
0.0
220
1.0
230
0.0
  0
LINE
  5
173
330
82
100
AcDbEntity
  8
0
 62
     0
100
AcDbLine
 10
1.331665851032686
 20
0.0
 30
18.13233530518391
 11
1.331665851032686
 21
317.9999999999999
 31
18.13233530518391
  0
CIRCLE
  5
174
330
82
100
AcDbEntity
  8
0
 62
     0
100
AcDbCircle
 10
-12.48143260547118
 20
12.48143260547118
 30
0.0
 40
12.50000000000001
210
0.0
220
1.0
230
0.0
  0
LINE
  5
175
330
82
100
AcDbEntity
  8
0
 62
     0
100
AcDbLine
 10
21.78871902997574
 20
0.0
 30
4.137307761472607
 11
21.78871902997574
 21
317.9999999999999
 31
4.137307761472607
  0
CIRCLE
  5
176
330
82
100
AcDbEntity
  8
0
 62
     0
100
AcDbCircle
 10
-12.48143260547118
 20
12.48143260547118
 30
317.9999999999999
 40
12.50000000000001
210
0.0
220
1.0
230
0.0
  0
LINE
  5
177
330
82
100
AcDbEntity
  8
0
 62
     0
100
AcDbLine
 10
22.79822074767628
 20
0.0
 30
5.423537563119169
 11
22.79822074767628
 21
317.9999999999999
 31
5.423537563119169
  0
CIRCLE
  5
178
330
82
100
AcDbEntity
  8
0
 62
     0
100
AcDbCircle
 10
-12.48143260547118
 20
12.48143260547118
 30
0.0
 40
12.50000000000001
210
0.0
220
1.0
230
0.0
  0
LINE
  5
179
330
82
100
AcDbEntity
  8
0
 62
     0
100
AcDbLine
 10
15.05401348047051
 20
0.0
 30
24.71384151138945
 11
15.05401348047051
 21
317.9999999999999
 31
24.71384151138945
  0
CIRCLE
  5
17A
330
82
100
AcDbEntity
  8
0
 62
     0
100
AcDbCircle
 10
-12.48143260547118
 20
12.48143260547118
 30
317.9999999999999
 40
12.50000000000001
210
0.0
220
1.0
230
0.0
  0
LINE
  5
17B
330
82
100
AcDbEntity
  8
0
 62
     0
100
AcDbLine
 10
13.43535493828967
 20
0.0
 30
24.94498074325883
 11
13.43535493828967
 21
317.9999999999999
 31
24.94498074325883
  0
CIRCLE
  5
17C
330
82
100
AcDbEntity
  8
0
 62
     0
100
AcDbCircle
 10
-12.48143260547118
 20
12.48143260547118
 30
0.0
 40
12.50000000000001
210
0.0
220
1.0
230
0.0
  0
LINE
  5
17D
330
82
100
AcDbEntity
  8
0
 62
     0
100
AcDbLine
 10
0.2490236995529596
 20
0.0
 30
15.05401348047051
 11
0.2490236995529596
 21
317.9999999999999
 31
15.05401348047051
  0
CIRCLE
  5
17E
330
82
100
AcDbEntity
  8
0
 62
     0
100
AcDbCircle
 10
-12.48143260547118
 20
12.48143260547118
 30
317.9999999999999
 40
12.50000000000001
210
0.0
220
1.0
230
0.0
  0
LINE
  5
17F
330
82
100
AcDbEntity
  8
0
 62
     0
100
AcDbLine
 10
0.0178844676835368
 20
0.0
 30
13.43535493828962
 11
0.0178844676835368
 21
317.9999999999999
 31
13.43535493828962
  0
CIRCLE
  5
180
330
82
100
AcDbEntity
  8
0
 62
     0
100
AcDbCircle
 10
-12.48143260547118
 20
12.48143260547118
 30
0.0
 40
12.50000000000001
210
0.0
220
1.0
230
0.0
  0
LINE
  5
181
330
82
100
AcDbEntity
  8
0
 62
     0
100
AcDbLine
 10
24.71384151138941
 20
0.0
 30
9.908851730471861
 11
24.71384151138941
 21
317.9999999999999
 31
9.908851730471861
  0
CIRCLE
  5
182
330
82
100
AcDbEntity
  8
0
 62
     0
100
AcDbCircle
 10
-12.48143260547118
 20
12.48143260547118
 30
317.9999999999999
 40
12.50000000000001
210
0.0
220
1.0
230
0.0
  0
LINE
  5
183
330
82
100
AcDbEntity
  8
0
 62
     0
100
AcDbLine
 10
24.94498074325883
 20
0.0
 30
11.52751027265275
 11
24.94498074325883
 21
317.9999999999999
 31
11.52751027265275
  0
CIRCLE
  5
184
330
82
100
AcDbEntity
  8
0
 62
     0
100
AcDbCircle
 10
-12.48143260547118
 20
12.48143260547118
 30
0.0
 40
12.50000000000001
210
0.0
220
1.0
230
0.0
  0
LINE
  5
185
330
82
100
AcDbEntity
  8
0
 62
     0
100
AcDbLine
 10
22.79822074767628
 20
0.0
 30
5.423537563119169
 11
22.79822074767628
 21
317.9999999999999
 31
5.423537563119169
  0
CIRCLE
  5
186
330
82
100
AcDbEntity
  8
0
 62
     0
100
AcDbCircle
 10
-12.48143260547118
 20
12.48143260547118
 30
317.9999999999999
 40
12.50000000000001
210
0.0
220
1.0
230
0.0
  0
LINE
  5
187
330
82
100
AcDbEntity
  8
0
 62
     0
100
AcDbLine
 10
23.63119935990968
 20
0.0
 30
6.830529905758638
 11
23.63119935990968
 21
317.9999999999999
 31
6.830529905758638
  0
CIRCLE
  5
188
330
82
100
AcDbEntity
  8
0
 62
     0
100
AcDbCircle
 10
-12.48143260547118
 20
12.48143260547118
 30
0.0
 40
12.50000000000001
210
0.0
220
1.0
230
0.0
  0
LINE
  5
189
330
82
100
AcDbEntity
  8
0
 62
     0
100
AcDbLine
 10
20.61996706108461
 20
0.0
 30
2.993848249335282
 11
20.61996706108461
 21
317.9999999999999
 31
2.993848249335282
  0
CIRCLE
  5
18A
330
82
100
AcDbEntity
  8
0
 62
     0
100
AcDbCircle
 10
-12.48143260547118
 20
12.48143260547118
 30
317.9999999999999
 40
12.50000000000001
210
0.0
220
1.0
230
0.0
  0
LINE
  5
18B
330
82
100
AcDbEntity
  8
0
 62
     0
100
AcDbLine
 10
21.78871902997574
 20
0.0
 30
4.137307761472607
 11
21.78871902997574
 21
317.9999999999999
 31
4.137307761472607
  0
CIRCLE
  5
18C
330
82
100
AcDbEntity
  8
0
 62
     0
100
AcDbCircle
 10
-12.48143260547118
 20
12.48143260547118
 30
0.0
 40
12.50000000000001
210
0.0
220
1.0
230
0.0
  0
LINE
  5
18D
330
82
100
AcDbEntity
  8
0
 62
     0
100
AcDbLine
 10
19.31196251122987
 20
0.0
 30
2.012723935986826
 11
19.31196251122987
 21
317.9999999999999
 31
2.012723935986826
  0
CIRCLE
  5
18E
330
82
100
AcDbEntity
  8
0
 62
     0
100
AcDbCircle
 10
-12.48143260547118
 20
12.48143260547118
 30
317.9999999999999
 40
12.50000000000001
210
0.0
220
1.0
230
0.0
  0
LINE
  5
18F
330
82
100
AcDbEntity
  8
0
 62
     0
100
AcDbLine
 10
20.61996706108461
 20
0.0
 30
2.993848249335282
 11
20.61996706108461
 21
317.9999999999999
 31
2.993848249335282
  0
CIRCLE
  5
190
330
82
100
AcDbEntity
  8
0
 62
     0
100
AcDbCircle
 10
-12.48143260547118
 20
12.48143260547118
 30
0.0
 40
12.50000000000001
210
0.0
220
1.0
230
0.0
  0
LINE
  5
191
330
82
100
AcDbEntity
  8
0
 62
     0
100
AcDbLine
 10
16.62865445062595
 20
0.0
 30
24.2734023716753
 11
16.62865445062595
 21
317.9999999999999
 31
24.2734023716753
  0
CIRCLE
  5
192
330
82
100
AcDbEntity
  8
0
 62
     0
100
AcDbCircle
 10
-12.48143260547118
 20
12.48143260547118
 30
317.9999999999999
 40
12.50000000000001
210
0.0
220
1.0
230
0.0
  0
LINE
  5
193
330
82
100
AcDbEntity
  8
0
 62
     0
100
AcDbLine
 10
15.05401348047051
 20
0.0
 30
24.71384151138945
 11
15.05401348047051
 21
317.9999999999999
 31
24.71384151138945
  0
CIRCLE
  5
194
330
82
100
AcDbEntity
  8
0
 62
     0
100
AcDbCircle
 10
-12.48143260547118
 20
12.48143260547118
 30
0.0
 40
12.50000000000001
210
0.0
220
1.0
230
0.0
  0
LINE
  5
195
330
82
100
AcDbEntity
  8
0
 62
     0
100
AcDbLine
 10
11.80037452051705
 20
0.0
 30
24.96286521094255
 11
11.80037452051705
 21
317.9999999999999
 31
24.96286521094255
  0
CIRCLE
  5
196
330
82
100
AcDbEntity
  8
0
 62
     0
100
AcDbCircle
 10
-12.48143260547118
 20
12.48143260547118
 30
317.9999999999999
 40
12.50000000000001
210
0.0
220
1.0
230
0.0
  0
LINE
  5
197
330
82
100
AcDbEntity
  8
0
 62
     0
100
AcDbLine
 10
10.17704719540293
 20
0.0
 30
24.7671889062396
 11
10.17704719540293
 21
317.9999999999999
 31
24.7671889062396
  0
CIRCLE
  5
198
330
82
100
AcDbEntity
  8
0
 62
     0
100
AcDbCircle
 10
-12.48143260547118
 20
12.48143260547118
 30
0.0
 40
12.50000000000001
210
0.0
220
1.0
230
0.0
  0
LINE
  5
199
330
82
100
AcDbEntity
  8
0
 62
     0
100
AcDbLine
 10
18.13233530518369
 20
0.0
 30
23.63119935990968
 11
18.13233530518369
 21
317.9999999999999
 31
23.63119935990968
  0
CIRCLE
  5
19A
330
82
100
AcDbEntity
  8
0
 62
     0
100
AcDbCircle
 10
-12.48143260547118
 20
12.48143260547118
 30
317.9999999999999
 40
12.50000000000001
210
0.0
220
1.0
230
0.0
  0
LINE
  5
19B
330
82
100
AcDbEntity
  8
0
 62
     0
100
AcDbLine
 10
16.62865445062595
 20
0.0
 30
24.2734023716753
 11
16.62865445062595
 21
317.9999999999999
 31
24.2734023716753
  0
CIRCLE
  5
19C
330
82
100
AcDbEntity
  8
0
 62
     0
100
AcDbCircle
 10
-12.48143260547118
 20
12.48143260547118
 30
0.0
 40
12.50000000000001
210
0.0
220
1.0
230
0.0
  0
LINE
  5
19D
330
82
100
AcDbEntity
  8
0
 62
     0
100
AcDbLine
 10
13.43535493828967
 20
0.0
 30
24.94498074325883
 11
13.43535493828967
 21
317.9999999999999
 31
24.94498074325883
  0
CIRCLE
  5
19E
330
82
100
AcDbEntity
  8
0
 62
     0
100
AcDbCircle
 10
-12.48143260547118
 20
12.48143260547118
 30
317.9999999999999
 40
12.50000000000001
210
0.0
220
1.0
230
0.0
  0
LINE
  5
19F
330
82
100
AcDbEntity
  8
0
 62
     0
100
AcDbLine
 10
11.80037452051705
 20
0.0
 30
24.96286521094255
 11
11.80037452051705
 21
317.9999999999999
 31
24.96286521094255
  0
CIRCLE
  5
1A0
330
82
100
AcDbEntity
  8
0
 62
     0
100
AcDbCircle
 10
-12.48143260547118
 20
12.48143260547118
 30
0.0
 40
12.50000000000001
210
0.0
220
1.0
230
0.0
  0
LINE
  5
1A1
330
82
100
AcDbEntity
  8
0
 62
     0
100
AcDbLine
 10
23.75214308049476
 20
0.0
 30
17.887085700907
 11
23.75214308049476
 21
317.9999999999999
 31
17.887085700907
  0
CIRCLE
  5
1A2
330
82
100
AcDbEntity
  8
0
 62
     0
100
AcDbCircle
 10
-12.48143260547118
 20
12.48143260547118
 30
317.9999999999999
 40
12.50000000000001
210
0.0
220
1.0
230
0.0
  0
LINE
  5
1A3
330
82
100
AcDbEntity
  8
0
 62
     0
100
AcDbLine
 10
22.95014127495554
 20
0.0
 30
19.31196251122982
 11
22.95014127495554
 21
317.9999999999999
 31
19.31196251122982
  0
CIRCLE
  5
1A4
330
82
100
AcDbEntity
  8
0
 62
     0
100
AcDbCircle
 10
-12.48143260547118
 20
12.48143260547118
 30
0.0
 40
12.50000000000001
210
0.0
220
1.0
230
0.0
  0
LINE
  5
1A5
330
82
100
AcDbEntity
  8
0
 62
     0
100
AcDbLine
 10
24.94498074325883
 20
0.0
 30
11.52751027265275
 11
24.94498074325883
 21
317.9999999999999
 31
11.52751027265275
  0
CIRCLE
  5
1A6
330
82
100
AcDbEntity
  8
0
 62
     0
100
AcDbCircle
 10
-12.48143260547118
 20
12.48143260547118
 30
317.9999999999999
 40
12.50000000000001
210
0.0
220
1.0
230
0.0
  0
LINE
  5
1A7
330
82
100
AcDbEntity
  8
0
 62
     0
100
AcDbLine
 10
24.96286521094237
 20
0.0
 30
13.16249069042532
 11
24.96286521094237
 21
317.9999999999999
 31
13.16249069042532
  0
CIRCLE
  5
1A8
330
82
100
AcDbEntity
  8
0
 62
     0
100
AcDbCircle
 10
-12.48143260547118
 20
12.48143260547118
 30
0.0
 40
12.50000000000001
210
0.0
220
1.0
230
0.0
  0
LINE
  5
1A9
330
82
100
AcDbEntity
  8
0
 62
     0
100
AcDbLine
 10
1.331665851032686
 20
0.0
 30
18.13233530518391
 11
1.331665851032686
 21
317.9999999999999
 31
18.13233530518391
  0
CIRCLE
  5
1AA
330
82
100
AcDbEntity
  8
0
 62
     0
100
AcDbCircle
 10
-12.48143260547118
 20
12.48143260547118
 30
317.9999999999999
 40
12.50000000000001
210
0.0
220
1.0
230
0.0
  0
LINE
  5
1AB
330
82
100
AcDbEntity
  8
0
 62
     0
100
AcDbLine
 10
0.6894628392671147
 20
0.0
 30
16.62865445062622
 11
0.6894628392671147
 21
317.9999999999999
 31
16.62865445062622
  0
CIRCLE
  5
1AC
330
82
100
AcDbEntity
  8
0
 62
     0
100
AcDbCircle
 10
-12.48143260547118
 20
12.48143260547118
 30
0.0
 40
12.50000000000001
210
0.0
220
1.0
230
0.0
  0
LINE
  5
1AD
330
82
100
AcDbEntity
  8
0
 62
     0
100
AcDbLine
 10
24.36129990497506
 20
0.0
 30
16.36971666739106
 11
24.36129990497506
 21
317.9999999999999
 31
16.36971666739106
  0
CIRCLE
  5
1AE
330
82
100
AcDbEntity
  8
0
 62
     0
100
AcDbCircle
 10
-12.48143260547118
 20
12.48143260547118
 30
317.9999999999999
 40
12.50000000000001
210
0.0
220
1.0
230
0.0
  0
LINE
  5
1AF
330
82
100
AcDbEntity
  8
0
 62
     0
100
AcDbLine
 10
23.75214308049476
 20
0.0
 30
17.887085700907
 11
23.75214308049476
 21
317.9999999999999
 31
17.887085700907
  0
CIRCLE
  5
1B0
330
82
100
AcDbEntity
  8
0
 62
     0
100
AcDbCircle
 10
-12.48143260547118
 20
12.48143260547118
 30
0.0
 40
12.50000000000001
210
0.0
220
1.0
230
0.0
  0
LINE
  5
1B1
330
82
100
AcDbEntity
  8
0
 62
     0
100
AcDbLine
 10
17.88708570090691
 20
0.0
 30
1.210722130447651
 11
17.88708570090691
 21
317.9999999999999
 31
1.210722130447651
  0
CIRCLE
  5
1B2
330
82
100
AcDbEntity
  8
0
 62
     0
100
AcDbCircle
 10
-12.48143260547118
 20
12.48143260547118
 30
317.9999999999999
 40
12.50000000000001
210
0.0
220
1.0
230
0.0
  0
LINE
  5
1B3
330
82
100
AcDbEntity
  8
0
 62
     0
100
AcDbLine
 10
19.31196251122987
 20
0.0
 30
2.012723935986826
 11
19.31196251122987
 21
317.9999999999999
 31
2.012723935986826
  0
CIRCLE
  5
1B4
330
82
100
AcDbEntity
  8
0
 62
     0
100
AcDbCircle
 10
-12.48143260547118
 20
12.48143260547118
 30
0.0
 40
12.50000000000001
210
0.0
220
1.0
230
0.0
  0
LINE
  5
1B5
330
82
100
AcDbEntity
  8
0
 62
     0
100
AcDbLine
 10
4.342898149857807
 20
0.0
 30
21.96901696160709
 11
4.342898149857807
 21
317.9999999999999
 31
21.96901696160709
  0
CIRCLE
  5
1B6
330
82
100
AcDbEntity
  8
0
 62
     0
100
AcDbCircle
 10
-12.48143260547118
 20
12.48143260547118
 30
317.9999999999999
 40
12.50000000000001
210
0.0
220
1.0
230
0.0
  0
LINE
  5
1B7
330
82
100
AcDbEntity
  8
0
 62
     0
100
AcDbLine
 10
3.174146180966634
 20
0.0
 30
20.82555744946994
 11
3.174146180966634
 21
317.9999999999999
 31
20.82555744946994
  0
CIRCLE
  5
1B8
330
82
100
AcDbEntity
  8
0
 62
     0
100
AcDbCircle
 10
-12.48143260547118
 20
12.48143260547118
 30
0.0
 40
12.50000000000001
210
0.0
220
1.0
230
0.0
  0
LINE
  5
1B9
330
82
100
AcDbEntity
  8
0
 62
     0
100
AcDbLine
 10
8.593148543551493
 20
0.0
 30
24.36129990497519
 11
8.593148543551493
 21
317.9999999999999
 31
24.36129990497519
  0
CIRCLE
  5
1BA
330
82
100
AcDbEntity
  8
0
 62
     0
100
AcDbCircle
 10
-12.48143260547118
 20
12.48143260547118
 30
317.9999999999999
 40
12.50000000000001
210
0.0
220
1.0
230
0.0
  0
LINE
  5
1BB
330
82
100
AcDbEntity
  8
0
 62
     0
100
AcDbLine
 10
7.075779510035463
 20
0.0
 30
23.75214308049472
 11
7.075779510035463
 21
317.9999999999999
 31
23.75214308049472
  0
CIRCLE
  5
1BC
330
82
100
AcDbEntity
  8
0
 62
     0
100
AcDbCircle
 10
-12.48143260547118
 20
12.48143260547118
 30
0.0
 40
12.50000000000001
210
0.0
220
1.0
230
0.0
  0
LINE
  5
1BD
330
82
100
AcDbEntity
  8
0
 62
     0
100
AcDbLine
 10
7.075779510035463
 20
0.0
 30
23.75214308049472
 11
7.075779510035463
 21
317.9999999999999
 31
23.75214308049472
  0
CIRCLE
  5
1BE
330
82
100
AcDbEntity
  8
0
 62
     0
100
AcDbCircle
 10
-12.48143260547118
 20
12.48143260547118
 30
317.9999999999999
 40
12.50000000000001
210
0.0
220
1.0
230
0.0
  0
LINE
  5
1BF
330
82
100
AcDbEntity
  8
0
 62
     0
100
AcDbLine
 10
5.650902699712502
 20
0.0
 30
22.95014127495554
 11
5.650902699712502
 21
317.9999999999999
 31
22.95014127495554
  0
CIRCLE
  5
1C0
330
82
100
AcDbEntity
  8
0
 62
     0
100
AcDbCircle
 10
-12.48143260547118
 20
12.48143260547118
 30
0.0
 40
12.50000000000001
210
0.0
220
1.0
230
0.0
  0
LINE
  5
1C1
330
82
100
AcDbEntity
  8
0
 62
     0
100
AcDbLine
 10
5.650902699712502
 20
0.0
 30
22.95014127495554
 11
5.650902699712502
 21
317.9999999999999
 31
22.95014127495554
  0
CIRCLE
  5
1C2
330
82
100
AcDbEntity
  8
0
 62
     0
100
AcDbCircle
 10
-12.48143260547118
 20
12.48143260547118
 30
317.9999999999999
 40
12.50000000000001
210
0.0
220
1.0
230
0.0
  0
LINE
  5
1C3
330
82
100
AcDbEntity
  8
0
 62
     0
100
AcDbLine
 10
4.342898149857807
 20
0.0
 30
21.96901696160709
 11
4.342898149857807
 21
317.9999999999999
 31
21.96901696160709
  0
CIRCLE
  5
1C4
330
82
100
AcDbEntity
  8
0
 62
     0
100
AcDbCircle
 10
-12.48143260547118
 20
12.48143260547118
 30
0.0
 40
12.50000000000001
210
0.0
220
1.0
230
0.0
  0
LINE
  5
1C5
330
82
100
AcDbEntity
  8
0
 62
     0
100
AcDbLine
 10
24.27340237167526
 20
0.0
 30
8.334210760316513
 11
24.27340237167526
 21
317.9999999999999
 31
8.334210760316513
  0
CIRCLE
  5
1C6
330
82
100
AcDbEntity
  8
0
 62
     0
100
AcDbCircle
 10
-12.48143260547118
 20
12.48143260547118
 30
317.9999999999999
 40
12.50000000000001
210
0.0
220
1.0
230
0.0
  0
LINE
  5
1C7
330
82
100
AcDbEntity
  8
0
 62
     0
100
AcDbLine
 10
24.71384151138941
 20
0.0
 30
9.908851730471861
 11
24.71384151138941
 21
317.9999999999999
 31
9.908851730471861
  0
CIRCLE
  5
1C8
330
82
100
AcDbEntity
  8
0
 62
     0
100
AcDbCircle
 10
-12.48143260547118
 20
12.48143260547118
 30
0.0
 40
12.50000000000001
210
0.0
220
1.0
230
0.0
  0
LINE
  5
1C9
330
82
100
AcDbEntity
  8
0
 62
     0
100
AcDbLine
 10
19.53932764782311
 20
0.0
 30
22.79822074767628
 11
19.53932764782311
 21
317.9999999999999
 31
22.79822074767628
  0
CIRCLE
  5
1CA
330
82
100
AcDbEntity
  8
0
 62
     0
100
AcDbCircle
 10
-12.48143260547118
 20
12.48143260547118
 30
317.9999999999999
 40
12.50000000000001
210
0.0
220
1.0
230
0.0
  0
LINE
  5
1CB
330
82
100
AcDbEntity
  8
0
 62
     0
100
AcDbLine
 10
18.13233530518369
 20
0.0
 30
23.63119935990968
 11
18.13233530518369
 21
317.9999999999999
 31
23.63119935990968
  0
CIRCLE
  5
1CC
330
82
100
AcDbEntity
  8
0
 62
     0
100
AcDbCircle
 10
-12.48143260547118
 20
12.48143260547118
 30
0.0
 40
12.50000000000001
210
0.0
220
1.0
230
0.0
  0
LINE
  5
1CD
330
82
100
AcDbEntity
  8
0
 62
     0
100
AcDbLine
 10
10.17704719540293
 20
0.0
 30
24.7671889062396
 11
10.17704719540293
 21
317.9999999999999
 31
24.7671889062396
  0
CIRCLE
  5
1CE
330
82
100
AcDbEntity
  8
0
 62
     0
100
AcDbCircle
 10
-12.48143260547118
 20
12.48143260547118
 30
317.9999999999999
 40
12.50000000000001
210
0.0
220
1.0
230
0.0
  0
LINE
  5
1CF
330
82
100
AcDbEntity
  8
0
 62
     0
100
AcDbLine
 10
8.593148543551493
 20
0.0
 30
24.36129990497519
 11
8.593148543551493
 21
317.9999999999999
 31
24.36129990497519
  0
CIRCLE
  5
1D0
330
82
100
AcDbEntity
  8
0
 62
     0
100
AcDbCircle
 10
-12.48143260547118
 20
12.48143260547118
 30
0.0
 40
12.50000000000001
210
0.0
220
1.0
230
0.0
  0
LINE
  5
1D1
330
82
100
AcDbEntity
  8
0
 62
     0
100
AcDbLine
 10
21.96901696160704
 20
0.0
 30
20.61996706108456
 11
21.96901696160704
 21
317.9999999999999
 31
20.61996706108456
  0
CIRCLE
  5
1D2
330
82
100
AcDbEntity
  8
0
 62
     0
100
AcDbCircle
 10
-12.48143260547118
 20
12.48143260547118
 30
317.9999999999999
 40
12.50000000000001
210
0.0
220
1.0
230
0.0
  0
LINE
  5
1D3
330
82
100
AcDbEntity
  8
0
 62
     0
100
AcDbLine
 10
20.82555744946972
 20
0.0
 30
21.78871902997587
 11
20.82555744946972
 21
317.9999999999999
 31
21.78871902997587
  0
CIRCLE
  5
1D4
330
82
100
AcDbEntity
  8
0
 62
     0
100
AcDbCircle
 10
-12.48143260547118
 20
12.48143260547118
 30
0.0
 40
12.50000000000001
210
0.0
220
1.0
230
0.0
  0
LINE
  5
1D5
330
82
100
AcDbEntity
  8
0
 62
     0
100
AcDbLine
 10
22.95014127495554
 20
0.0
 30
19.31196251122982
 11
22.95014127495554
 21
317.9999999999999
 31
19.31196251122982
  0
CIRCLE
  5
1D6
330
82
100
AcDbEntity
  8
0
 62
     0
100
AcDbCircle
 10
-12.48143260547118
 20
12.48143260547118
 30
317.9999999999999
 40
12.50000000000001
210
0.0
220
1.0
230
0.0
  0
LINE
  5
1D7
330
82
100
AcDbEntity
  8
0
 62
     0
100
AcDbLine
 10
21.96901696160704
 20
0.0
 30
20.61996706108456
 11
21.96901696160704
 21
317.9999999999999
 31
20.61996706108456
  0
CIRCLE
  5
1D8
330
82
100
AcDbEntity
  8
0
 62
     0
100
AcDbCircle
 10
-12.48143260547118
 20
12.48143260547118
 30
0.0
 40
12.50000000000001
210
0.0
220
1.0
230
0.0
  0
LINE
  5
1D9
330
82
100
AcDbEntity
  8
0
 62
     0
100
AcDbLine
 10
13.16249069042537
 20
0.0
 30
0.0
 11
13.16249069042537
 21
317.9999999999999
 31
0.0
  0
CIRCLE
  5
1DA
330
82
100
AcDbEntity
  8
0
 62
     0
100
AcDbCircle
 10
-12.48143260547118
 20
12.48143260547118
 30
317.9999999999999
 40
12.50000000000001
210
0.0
220
1.0
230
0.0
  0
LINE
  5
1DB
330
82
100
AcDbEntity
  8
0
 62
     0
100
AcDbLine
 10
14.78581801553944
 20
0.0
 30
0.195676304702954
 11
14.78581801553944
 21
317.9999999999999
 31
0.195676304702954
  0
CIRCLE
  5
1DC
330
82
100
AcDbEntity
  8
0
 62
     0
100
AcDbCircle
 10
-12.48143260547118
 20
12.48143260547118
 30
0.0
 40
12.50000000000001
210
0.0
220
1.0
230
0.0
  0
LINE
  5
1DD
330
82
100
AcDbEntity
  8
0
 62
     0
100
AcDbLine
 10
8.334210760316422
 20
0.0
 30
0.6894628392670696
 11
8.334210760316422
 21
317.9999999999999
 31
0.6894628392670696
  0
CIRCLE
  5
1DE
330
82
100
AcDbEntity
  8
0
 62
     0
100
AcDbCircle
 10
-12.48143260547118
 20
12.48143260547118
 30
317.9999999999999
 40
12.50000000000001
210
0.0
220
1.0
230
0.0
  0
LINE
  5
1DF
330
82
100
AcDbEntity
  8
0
 62
     0
100
AcDbLine
 10
9.908851730471861
 20
0.0
 30
0.2490236995529145
 11
9.908851730471861
 21
317.9999999999999
 31
0.2490236995529145
  0
CIRCLE
  5
1E0
330
82
100
AcDbEntity
  8
0
 62
     0
100
AcDbCircle
 10
-12.48143260547118
 20
12.48143260547118
 30
0.0
 40
12.50000000000001
210
0.0
220
1.0
230
0.0
  0
LINE
  5
1E1
330
82
100
AcDbEntity
  8
0
 62
     0
100
AcDbLine
 10
14.78581801553944
 20
0.0
 30
0.195676304702954
 11
14.78581801553944
 21
317.9999999999999
 31
0.195676304702954
  0
CIRCLE
  5
1E2
330
82
100
AcDbEntity
  8
0
 62
     0
100
AcDbCircle
 10
-12.48143260547118
 20
12.48143260547118
 30
317.9999999999999
 40
12.50000000000001
210
0.0
220
1.0
230
0.0
  0
LINE
  5
1E3
330
82
100
AcDbEntity
  8
0
 62
     0
100
AcDbLine
 10
16.36971666739088
 20
0.0
 30
0.6015653059673554
 11
16.36971666739088
 21
317.9999999999999
 31
0.6015653059673554
  0
CIRCLE
  5
1E4
330
82
100
AcDbEntity
  8
0
 62
     0
100
AcDbCircle
 10
-12.48143260547118
 20
12.48143260547118
 30
0.0
 40
12.50000000000001
210
0.0
220
1.0
230
0.0
  0
LINE
  5
1E5
330
82
100
AcDbEntity
  8
0
 62
     0
100
AcDbLine
 10
16.36971666739088
 20
0.0
 30
0.6015653059673554
 11
16.36971666739088
 21
317.9999999999999
 31
0.6015653059673554
  0
CIRCLE
  5
1E6
330
82
100
AcDbEntity
  8
0
 62
     0
100
AcDbCircle
 10
-12.48143260547118
 20
12.48143260547118
 30
317.9999999999999
 40
12.50000000000001
210
0.0
220
1.0
230
0.0
  0
LINE
  5
1E7
330
82
100
AcDbEntity
  8
0
 62
     0
100
AcDbLine
 10
17.88708570090691
 20
0.0
 30
1.210722130447651
 11
17.88708570090691
 21
317.9999999999999
 31
1.210722130447651
  0
CIRCLE
  5
1E8
330
82
100
AcDbEntity
  8
0
 62
     0
100
AcDbCircle
 10
-12.48143260547118
 20
12.48143260547118
 30
0.0
 40
12.50000000000001
210
0.0
220
1.0
230
0.0
  0
LINE
  5
1E9
330
82
100
AcDbEntity
  8
0
 62
     0
100
AcDbLine
 10
11.52751027265275
 20
0.0
 30
0.0178844676835368
 11
11.52751027265275
 21
317.9999999999999
 31
0.0178844676835368
  0
CIRCLE
  5
1EA
330
82
100
AcDbEntity
  8
0
 62
     0
100
AcDbCircle
 10
-12.48143260547118
 20
12.48143260547118
 30
317.9999999999999
 40
12.50000000000001
210
0.0
220
1.0
230
0.0
  0
LINE
  5
1EB
330
82
100
AcDbEntity
  8
0
 62
     0
100
AcDbLine
 10
13.16249069042537
 20
0.0
 30
0.0
 11
13.16249069042537
 21
317.9999999999999
 31
0.0
  0
CIRCLE
  5
1EC
330
82
100
AcDbEntity
  8
0
 62
     0
100
AcDbCircle
 10
-12.48143260547118
 20
12.48143260547118
 30
0.0
 40
12.50000000000001
210
0.0
220
1.0
230
0.0
  0
LINE
  5
1ED
330
82
100
AcDbEntity
  8
0
 62
     0
100
AcDbLine
 10
9.908851730471861
 20
0.0
 30
0.2490236995529145
 11
9.908851730471861
 21
317.9999999999999
 31
0.2490236995529145
  0
CIRCLE
  5
1EE
330
82
100
AcDbEntity
  8
0
 62
     0
100
AcDbCircle
 10
-12.48143260547118
 20
12.48143260547118
 30
317.9999999999999
 40
12.50000000000001
210
0.0
220
1.0
230
0.0
  0
LINE
  5
1EF
330
82
100
AcDbEntity
  8
0
 62
     0
100
AcDbLine
 10
11.52751027265275
 20
0.0
 30
0.0178844676835368
 11
11.52751027265275
 21
317.9999999999999
 31
0.0178844676835368
  0
CIRCLE
  5
1F0
330
82
100
AcDbEntity
  8
0
 62
     0
100
AcDbCircle
 10
-12.48143260547118
 20
12.48143260547118
 30
317.9999999999999
 40
12.50000000000001
210
0.0
220
1.0
230
0.0
  0
ENDBLK
  5
84
330
82
100
AcDbEntity
  8
0
100
AcDbBlockEnd
  0
BLOCK
  5
86
330
85
100
AcDbEntity
  8
0
100
AcDbBlockBegin
  2
BOTTOM_RAIL
 70
     0
 10
0.0
 20
0.0
 30
0.0
  3
BOTTOM_RAIL
  1

  0
LINE
  5
1F1
330
85
100
AcDbEntity
  8
0
 62
     0
100
AcDbLine
 10
0.0
 20
0.0
 30
0.0
 11
0.0
 21
0.0
 31
42.00000000000001
  0
LINE
  5
1F2
330
85
100
AcDbEntity
  8
0
 62
     0
100
AcDbLine
 10
0.0
 20
0.0
 30
42.00000000000001
 11
0.0
 21
318.0000000000001
 31
42.00000000000001
  0
LINE
  5
1F3
330
85
100
AcDbEntity
  8
0
 62
     0
100
AcDbLine
 10
0.0
 20
318.0000000000001
 30
42.00000000000001
 11
0.0
 21
318.0000000000001
 31
0.0
  0
LINE
  5
1F4
330
85
100
AcDbEntity
  8
0
 62
     0
100
AcDbLine
 10
0.0
 20
318.0000000000001
 30
0.0
 11
0.0
 21
0.0
 31
0.0
  0
ENDBLK
  5
87
330
85
100
AcDbEntity
  8
0
100
AcDbBlockEnd
  0
BLOCK
  5
89
330
88
100
AcDbEntity
  8
0
100
AcDbBlockBegin
  2
LEARNING_TOWER_2017
 70
     0
 10
0.0
 20
0.0
 30
0.0
  3
LEARNING_TOWER_2017
  1

  0
INSERT
  5
1F5
330
88
100
AcDbEntity
  8
0
 62
     0
100
AcDbBlockReference
  2
BOTTOM_RAIL
 10
469.5217228083117
 20
-5.845704015512333
 30
64.46496330833976
  0
INSERT
  5
1F6
330
88
100
AcDbEntity
  8
0
 62
     0
100
AcDbBlockReference
  2
DOWEL
 10
231.3959905005467
 20
-5.845704015493451
 30
798.615786257045
  0
INSERT
  5
1F7
330
88
100
AcDbEntity
  8
0
 62
     0
100
AcDbBlockReference
  2
LH_SIDE
 10
473.9408705735071
 20
7.405706233500833
 30
-307.6284460865115
 50
0.0000000000001782
210
8.407420104300114E-15
220
-1.0
230
-7.951972413877684E-15
  0
INSERT
  5
1F8
330
88
100
AcDbEntity
  8
0
 62
     0
100
AcDbBlockReference
  2
PLATFORM
 10
83.22172280831165
 20
-5.845704015519033
 30
241.464963308338
  0
INSERT
  5
1F9
330
88
100
AcDbEntity
  8
0
 62
     0
100
AcDbBlockReference
  2
RH_SIDE
 10
-524.6928570204652
 20
-9.448041803681049
 30
-12.96936262980346
 50
0.0000000000005626
210
-1.829092433069935E-14
220
1.0
230
-4.046701245701514E-14
  0
INSERT
  5
1FA
330
88
100
AcDbEntity
  8
0
 62
     0
100
AcDbBlockReference
  2
STEP
 10
-83.47267841569298
 20
-5.845704015523793
 30
-180.4649633083358
210
1.103284130721249E-15
220
0.0
230
-1.0
  0
INSERT
  5
1FB
330
88
100
AcDbEntity
  8
0
 62
     0
100
AcDbBlockReference
  2
RAIL
 10
7.453038204590105
 20
755.2918480916678
 30
-487.6091870958768
 50
90.0
210
-1.0
220
0.0
230
1.276756478318930E-15
  0
ENDBLK
  5
8A
330
88
100
AcDbEntity
  8
0
100
AcDbBlockEnd
  0
ENDSEC
  0
SECTION
  2
ENTITIES
  0
LINE
  5
1FC
330
1F
100
AcDbEntity
  8
0
 62
     0
100
AcDbLine
 10
337.3273970275981
 20
786.0000000000007
 30
-0.0000000000284674
 11
499.7046076408539
 21
179.9999999999999
 31
-0.0000000000013087
  0
LINE
  5
1FD
330
1F
100
AcDbEntity
  8
0
 62
     0
100
AcDbLine
 10
84.17864871200386
 20
218.0000000000037
 30
0.0000000000005886
 11
84.17864871200337
 21
64.0000000000009
 31
0.0000000000087627
  0
LINE
  5
1FE
330
1F
100
AcDbEntity
  8
0
 62
     0
100
AcDbLine
 10
84.17864871200386
 20
218.0000000000037
 30
0.0000000000005886
 11
423.2648627822304
 21
218.0000000000024
 31
-0.0000000000034947
  0
LINE
  5
1FF
330
1F
100
AcDbEntity
  8
0
 62
     0
100
AcDbLine
 10
406.1161144666351
 20
282.0000000000026
 30
-0.0000000000032539
 11
383.0724839175589
 21
368.0000000000006
 31
-0.0000000000087081
  0
LINE
  5
200
330
1F
100
AcDbEntity
  8
0
 62
     0
100
AcDbLine
 10
383.0724839175589
 20
368.0000000000006
 30
-0.0000000000087081
 11
84.17864871200442
 21
368.0000000000032
 31
-0.00000000001225
  0
LINE
  5
201
330
1F
100
AcDbEntity
  8
0
 62
     0
100
AcDbLine
 10
406.1161144666351
 20
282.0000000000026
 30
-0.0000000000032539
 11
84.17864871200416
 21
282.0000000000034
 31
-0.0000000000032313
  0
LINE
  5
202
330
1F
100
AcDbEntity
  8
0
 62
     0
100
AcDbLine
 10
84.17864871200607
 20
786.000000000001
 30
-0.0000000000286027
 11
84.17864871200464
 21
432.0000000000014
 31
-0.0000000000110729
  0
LINE
  5
203
330
1F
100
AcDbEntity
  8
0
 62
     0
100
AcDbLine
 10
84.17864871200337
 20
64.0000000000009
 30
0.0000000000087627
 11
464.5290384166178
 21
63.99999999999931
 31
0.0000000000080577
  0
LINE
  5
204
330
1F
100
AcDbEntity
  8
0
 62
     0
100
AcDbLine
 10
464.5290384166178
 20
63.99999999999931
 30
0.0000000000080577
 11
423.2648627822304
 21
218.0000000000024
 31
-0.0000000000034947
  0
LINE
  5
205
330
1F
100
AcDbEntity
  8
0
 62
     0
100
AcDbLine
 10
84.17864871200464
 20
432.0000000000014
 30
-0.0000000000110729
 11
365.9237356019683
 21
432.0000000000007
 31
-0.0000000000113437
  0
LINE
  5
206
330
1F
100
AcDbEntity
  8
0
 62
     0
100
AcDbLine
 10
365.9237356019683
 20
432.0000000000007
 30
-0.0000000000113437
 11
271.0697214813532
 21
786.0000000000003
 31
-0.0000000000286479
  0
LINE
  5
207
330
1F
100
AcDbEntity
  8
0
 62
     0
100
AcDbLine
 10
84.17864871200625
 20
850.0000000000019
 30
-0.0000000000375325
 11
253.9209731657594
 21
850.0000000000019
 31
-0.0000000000373971
  0
LINE
  5
208
330
1F
100
AcDbEntity
  8
0
 62
     0
100
AcDbLine
 10
84.17864871200442
 20
368.0000000000032
 30
-0.00000000001225
 11
84.17864871200416
 21
282.0000000000034
 31
-0.0000000000032313
  0
LINE
  5
209
330
1F
100
AcDbEntity
  8
0
 62
     0
100
AcDbLine
 10
504.5276931046138
 20
162.0000000000003
 30
-0.0000000000006669
 11
530.7867139628635
 21
63.99999999999901
 31
0.0000000000081931
  0
LINE
  5
20A
330
1F
100
AcDbEntity
  8
0
 62
     0
100
AcDbLine
 10
271.0697214813532
 20
786.0000000000003
 30
-0.0000000000286479
 11
84.17864871200607
 21
786.000000000001
 31
-0.0000000000286027
  0
LINE
  5
20B
330
1F
100
AcDbEntity
  8
0
 62
     0
100
AcDbLine
 10
415.4786487120066
 20
391.0000000000008
 30
-0.000000000010331
 11
415.4786487120053
 21
409.0000000000009
 31
-0.0000000000107811
  0
LINE
  5
20C
330
1F
100
AcDbEntity
  8
0
 62
     0
100
AcDbLine
 10
415.4786487120053
 20
409.0000000000009
 30
-0.0000000000107811
 11
20.17864871200504
 21
409.0000000000026
 31
-0.0000000000104878
  0
LINE
  5
20D
330
1F
100
AcDbEntity
  8
0
 62
     0
100
AcDbLine
 10
20.17864871200507
 20
391.0000000000014
 30
-0.0000000000091127
 11
415.4786487120066
 21
391.0000000000008
 31
-0.000000000010331
  0
LINE
  5
20E
330
1F
100
AcDbEntity
  8
0
 62
     0
100
AcDbLine
 10
20.17864871200504
 20
409.0000000000026
 30
-0.0000000000104878
 11
20.17864871200507
 21
391.0000000000014
 31
-0.0000000000091127
  0
LINE
  5
20F
330
1F
100
AcDbEntity
  8
0
 62
     0
100
AcDbLine
 10
20.1786487120047
 20
241.0000000000013
 30
0.0000000000000148
 11
20.1786487120048
 21
259.0000000000015
 31
0.0000000000004671
  0
LINE
  5
210
330
1F
100
AcDbEntity
  8
0
 62
     0
100
AcDbLine
 10
447.4786487120025
 20
241.0000000000033
 30
-0.0000000000012486
 11
20.1786487120047
 21
241.0000000000013
 31
0.0000000000000148
  0
LINE
  5
211
330
1F
100
AcDbEntity
  8
0
 62
     0
100
AcDbLine
 10
499.7046076408539
 20
179.9999999999999
 30
-0.0000000000013087
 11
504.5276931046138
 21
162.0000000000003
 31
-0.0000000000006669
  0
LINE
  5
212
330
1F
100
AcDbEntity
  8
0
 62
     0
100
AcDbLine
 10
20.1786487120048
 20
259.0000000000015
 30
0.0000000000004671
 11
447.478648712001
 21
259.0000000000031
 31
-0.0000000000006384
  0
LINE
  5
213
330
1F
100
AcDbEntity
  8
0
 62
     0
100
AcDbLine
 10
447.478648712001
 20
259.0000000000031
 30
-0.0000000000006384
 11
447.4786487120025
 21
241.0000000000033
 31
-0.0000000000012486
  0
LINE
  5
214
330
1F
100
AcDbEntity
  8
0
 62
     0
100
AcDbLine
 10
43.17864871199908
 20
63.99999999998916
 30
0.0000000000212721
 11
61.17864871200027
 21
63.99999999998914
 31
0.0000000000227723
  0
LINE
  5
215
330
1F
100
AcDbEntity
  8
0
 62
     0
100
AcDbLine
 10
447.2276931046193
 20
180.0000000000002
 30
0.0000000000021316
 11
499.7046076408539
 21
179.9999999999999
 31
-0.0000000000013087
  0
LINE
  5
216
330
1F
100
AcDbEntity
  8
0
 62
     0
100
AcDbLine
 10
447.2276931046193
 20
180.0000000000002
 30
0.0000000000021316
 11
447.2276931046138
 21
162.0000000000001
 31
0.0000000000028524
  0
LINE
  5
217
330
1F
100
AcDbEntity
  8
0
 62
     0
100
AcDbLine
 10
447.2276931046138
 20
162.0000000000001
 30
0.0000000000028524
 11
504.5276931046138
 21
162.0000000000003
 31
-0.0000000000006669
  0
LINE
  5
218
330
1F
100
AcDbEntity
  8
0
 62
     0
100
AcDbLine
 10
447.2700175583685
 20
162.0000000000011
 30
9.0000000000027
 11
447.227693104614
 21
162.0000000000005
 31
9.0000000000027
  0
LINE
  5
219
330
1F
100
AcDbEntity
  8
0
 62
     0
100
AcDbLine
 10
61.17864871200031
 20
105.9999999999891
 30
0.0000000000217936
 11
43.17864871199912
 21
105.9999999999892
 31
0.0000000000189454
  0
LINE
  5
21A
330
1F
100
AcDbEntity
  8
0
 62
     0
100
AcDbLine
 10
43.17864871199912
 20
105.9999999999892
 30
0.0000000000189454
 11
43.17864871199908
 21
63.99999999998916
 31
0.0000000000212721
  0
LINE
  5
21B
330
1F
100
AcDbEntity
  8
0
 62
     0
100
AcDbLine
 10
61.17864871200027
 20
63.99999999998914
 30
0.0000000000227723
 11
61.17864871200031
 21
105.9999999999891
 31
0.0000000000217936
  0
LINE
  5
21C
330
1F
100
AcDbEntity
  8
0
 62
     0
100
AcDbLine
 10
20.1786487120048
 20
259.0000000000015
 30
0.0000000000004671
 11
20.17864871200507
 21
391.0000000000014
 31
-0.0000000000091127
  0
LINE
  5
21D
330
1F
100
AcDbEntity
  8
0
 62
     0
100
AcDbLine
 10
20.17864871200504
 20
409.0000000000026
 30
-0.0000000000104878
 11
20.17864871200415
 21
786.0000000000011
 31
-0.0000000000286027
  0
LINE
  5
21E
330
1F
100
AcDbEntity
  8
0
 62
     0
100
AcDbLine
 10
20.17864871200165
 20
64.00000000000091
 30
0.0000000000104547
 11
20.1786487120047
 21
241.0000000000013
 31
0.0000000000000148
  0
LINE
  5
21F
330
1F
100
AcDbEntity
  8
0
 62
     0
100
AcDbLine
 10
481.6777867322095
 20
-0.0000000000008515
 30
0.0000000000116606
 11
84.17864871200362
 21
0.0000000000012405
 31
0.0000000000122302
  0
LINE
  5
220
330
1F
100
AcDbEntity
  8
0
 62
     0
100
AcDbLine
 10
43.1786487120057
 20
818.0000000000011
 30
-0.0000000000508447
 11
61.17864871200603
 21
818.0000000000017
 31
-0.0000000000500776
  0
LINE
  5
221
330
1F
100
AcDbEntity
  8
0
 62
     0
100
AcDbLine
 10
61.17864871200603
 20
818.0000000000017
 30
-0.0000000000500776
 11
61.17864871200609
 21
754.0000000000013
 31
-0.0000000000463818
  0
LINE
  5
222
330
1F
100
AcDbEntity
  8
0
 62
     0
100
AcDbLine
 10
61.17864871200609
 20
754.0000000000013
 30
-0.0000000000463818
 11
43.17864871200568
 21
754.0000000000011
 31
-0.0000000000431332
  0
LINE
  5
223
330
1F
100
AcDbEntity
  8
0
 62
     0
100
AcDbLine
 10
43.17864871200568
 20
754.0000000000011
 30
-0.0000000000431332
 11
43.1786487120057
 21
818.0000000000011
 31
-0.0000000000508447
  0
LINE
  5
224
330
1F
100
AcDbEntity
  8
0
 62
     0
100
AcDbLine
 10
1079.265711170362
 20
391.0000000000026
 30
0.0000000000000239
 11
683.9657111703608
 21
391.0000000000055
 31
-0.000000000003157
  0
LINE
  5
225
330
1F
100
AcDbEntity
  8
0
 62
     0
100
AcDbLine
 10
1079.265711170362
 20
259.0000000000013
 30
0.0000000000001287
 11
651.9657111703697
 21
258.9999999999994
 31
0.0000000000019786
  0
LINE
  5
226
330
1F
100
AcDbEntity
  8
0
 62
     0
100
AcDbLine
 10
683.9657111703602
 20
409.0000000000009
 30
-0.0000000000023212
 11
1079.265711170362
 21
409.0000000000029
 31
-0.0000000000042162
  0
LINE
  5
227
330
1F
100
AcDbEntity
  8
0
 62
     0
100
AcDbLine
 10
1079.265711170367
 20
241.0000000000014
 30
-0.0000000000008425
 11
651.9657111703685
 21
240.9999999999995
 31
0.0000000000020903
  0
LINE
  5
228
330
1F
100
AcDbEntity
  8
0
 62
     0
100
AcDbLine
 10
1079.265711170367
 20
241.0000000000014
 30
-0.0000000000008425
 11
1079.265711170362
 21
259.0000000000013
 31
0.0000000000001287
  0
LINE
  5
229
330
1F
100
AcDbEntity
  8
0
 62
     0
100
AcDbLine
 10
651.9657111703685
 20
240.9999999999995
 30
0.0000000000020903
 11
651.9657111703697
 21
258.9999999999994
 31
0.0000000000019786
  0
LINE
  5
22A
330
1F
100
AcDbEntity
  8
0
 62
     0
100
AcDbLine
 10
683.9657111703608
 20
391.0000000000055
 30
-0.000000000003157
 11
683.9657111703602
 21
409.0000000000009
 31
-0.0000000000023212
  0
LINE
  5
22B
330
1F
100
AcDbEntity
  8
0
 62
     0
100
AcDbLine
 10
1079.265711170362
 20
409.0000000000029
 30
-0.0000000000042162
 11
1079.265711170362
 21
391.0000000000026
 31
0.0000000000000239
  0
LINE
  5
22C
330
1F
100
AcDbEntity
  8
0
 62
     0
100
AcDbLine
 10
594.9166667777515
 20
161.9999999999987
 30
-0.0000000000000352
 11
568.657645919501
 21
63.99999999999843
 31
0.000000000005046
  0
LINE
  5
22D
330
1F
100
AcDbEntity
  8
0
 62
     0
100
AcDbLine
 10
599.7397522415107
 20
179.999999999999
 30
0.0000000000005186
 11
594.9166667777515
 21
161.9999999999987
 31
-0.0000000000000352
  0
LINE
  5
22E
330
1F
100
AcDbEntity
  8
0
 62
     0
100
AcDbLine
 10
652.216666777751
 20
161.9999999999989
 30
-0.0000000000003285
 11
594.9166667777515
 21
161.9999999999987
 31
-0.0000000000000352
  0
LINE
  5
22F
330
1F
100
AcDbEntity
  8
0
 62
     0
100
AcDbLine
 10
652.216666777751
 20
161.9999999999989
 30
-0.0000000000003285
 11
652.2166667777504
 21
179.9999999999992
 31
0.0000000000001802
  0
LINE
  5
230
330
1F
100
AcDbEntity
  8
0
 62
     0
100
AcDbLine
 10
652.2166667777504
 20
179.9999999999992
 30
0.0000000000001802
 11
599.7397522415107
 21
179.999999999999
 31
0.0000000000005186
  0
LINE
  5
231
330
1F
100
AcDbEntity
  8
0
 62
     0
100
AcDbLine
 10
762.1169628547658
 20
785.9999999999999
 30
0.0000000000116438
 11
599.7397522415107
 21
179.999999999999
 31
0.0000000000005186
  0
LINE
  5
232
330
1F
100
AcDbEntity
  8
0
 62
     0
100
AcDbLine
 10
1015.26571117036
 20
786.0000000000014
 30
0.0000000000045601
 11
1015.265711170361
 21
432.0000000000014
 31
0.0000000000012221
  0
LINE
  5
233
330
1F
100
AcDbEntity
  8
0
 62
     0
100
AcDbLine
 10
1015.265711170363
 20
218.0000000000013
 30
0.0000000000051006
 11
676.1794971001383
 21
217.9999999999998
 31
0.0000000000063188
  0
LINE
  5
234
330
1F
100
AcDbEntity
  8
0
 62
     0
100
AcDbLine
 10
1015.265711170362
 20
368.000000000001
 30
-0.0000000000001579
 11
1015.265711170362
 21
282.0000000000011
 31
-0.0000000000002986
  0
LINE
  5
235
330
1F
100
AcDbEntity
  8
0
 62
     0
100
AcDbLine
 10
693.3282454157296
 20
281.9999999999996
 30
0.0000000000012355
 11
716.3718759648054
 21
368.0000000000055
 31
0.0000000000070612
  0
LINE
  5
236
330
1F
100
AcDbEntity
  8
0
 62
     0
100
AcDbLine
 10
716.3718759648054
 20
368.0000000000055
 30
0.0000000000070612
 11
1015.265711170362
 21
368.000000000001
 31
-0.0000000000001579
  0
LINE
  5
237
330
1F
100
AcDbEntity
  8
0
 62
     0
100
AcDbLine
 10
1015.265711170361
 20
432.0000000000014
 30
0.0000000000012221
 11
733.5206242803973
 21
431.9999999999998
 31
0.000000000002508
  0
LINE
  5
238
330
1F
100
AcDbEntity
  8
0
 62
     0
100
AcDbLine
 10
693.3282454157296
 20
281.9999999999996
 30
0.0000000000012355
 11
1015.265711170362
 21
282.0000000000011
 31
-0.0000000000002986
  0
LINE
  5
239
330
1F
100
AcDbEntity
  8
0
 62
     0
100
AcDbLine
 10
1015.265711170359
 20
849.9999999999769
 30
0.0000000000050603
 11
845.5233867166048
 21
849.9999999999764
 31
0.0000000000061432
  0
LINE
  5
23A
330
1F
100
AcDbEntity
  8
0
 62
     0
100
AcDbLine
 10
733.5206242803973
 20
431.9999999999998
 30
0.000000000002508
 11
828.3746384010124
 21
786.0000000000007
 31
0.0000000000056881
  0
LINE
  5
23B
330
1F
100
AcDbEntity
  8
0
 62
     0
100
AcDbLine
 10
634.915321465747
 20
63.99999999999884
 30
-0.0000000000006954
 11
676.1794971001383
 21
217.9999999999998
 31
0.0000000000063188
  0
LINE
  5
23C
330
1F
100
AcDbEntity
  8
0
 62
     0
100
AcDbLine
 10
1079.265711170362
 20
259.0000000000013
 30
0.0000000000001287
 11
1079.265711170362
 21
391.0000000000026
 31
0.0000000000000239
  0
LINE
  5
23D
330
1F
100
AcDbEntity
  8
0
 62
     0
100
AcDbLine
 10
828.3746384010124
 20
786.0000000000007
 30
0.0000000000056881
 11
1015.26571117036
 21
786.0000000000014
 31
0.0000000000045601
  0
LINE
  5
23E
330
1F
100
AcDbEntity
  8
0
 62
     0
100
AcDbLine
 10
1079.265711170362
 20
409.0000000000029
 30
-0.0000000000042162
 11
1079.26571117036
 21
786.0000000000016
 31
0.0000000000044247
  0
LINE
  5
23F
330
1F
100
AcDbEntity
  8
0
 62
     0
100
AcDbLine
 10
1056.26571117036
 20
754.0000000000009
 30
0.0000000000023924
 11
1038.265711170359
 21
754.0000000000016
 31
0.0000000000033399
  0
LINE
  5
240
330
1F
100
AcDbEntity
  8
0
 62
     0
100
AcDbLine
 10
1056.265711170359
 20
818.0000000000008
 30
0.0000000000029829
 11
1056.26571117036
 21
754.0000000000009
 31
0.0000000000023924
  0
LINE
  5
241
330
1F
100
AcDbEntity
  8
0
 62
     0
100
AcDbLine
 10
1038.265711170359
 20
818.0000000000011
 30
0.0000000000033438
 11
1056.265711170359
 21
818.0000000000008
 31
0.0000000000029829
  0
LINE
  5
242
330
1F
100
AcDbEntity
  8
0
 62
     0
100
AcDbLine
 10
1038.265711170359
 20
818.0000000000011
 30
0.0000000000033438
 11
1038.265711170359
 21
754.0000000000016
 31
0.0000000000033399
  0
LINE
  5
243
330
1F
100
AcDbEntity
  8
0
 62
     0
100
AcDbLine
 10
1079.265711170363
 20
63.99999999999997
 30
-0.0000000000022577
 11
1079.265711170367
 21
241.0000000000014
 31
-0.0000000000008425
  0
LINE
  5
244
330
1F
100
AcDbEntity
  8
0
 62
     0
100
AcDbLine
 10
1056.265711170364
 20
106.0000000000013
 30
-0.0000000000056165
 11
1056.265711170364
 21
64.00000000000091
 31
-0.0000000000057319
  0
LINE
  5
245
330
1F
100
AcDbEntity
  8
0
 62
     0
100
AcDbLine
 10
1038.265711170364
 20
64.0000000000009
 30
-0.000000000005856
 11
1038.265711170363
 21
106.0000000000013
 31
-0.000000000005515
  0
LINE
  5
246
330
1F
100
AcDbEntity
  8
0
 62
     0
100
AcDbLine
 10
1015.265711170363
 20
218.0000000000013
 30
0.0000000000051006
 11
1015.265711170363
 21
64.00000000000094
 31
-0.0000000000023423
  0
LINE
  5
247
330
1F
100
AcDbEntity
  8
0
 62
     0
100
AcDbLine
 10
1015.265711170363
 20
64.00000000000094
 30
-0.0000000000023423
 11
634.915321465747
 21
63.99999999999884
 31
-0.0000000000006954
  0
LINE
  5
248
330
1F
100
AcDbEntity
  8
0
 62
     0
100
AcDbLine
 10
1056.265711170364
 20
64.00000000000091
 30
-0.0000000000057319
 11
1038.265711170364
 21
64.0000000000009
 31
-0.000000000005856
  0
LINE
  5
249
330
1F
100
AcDbEntity
  8
0
 62
     0
100
AcDbLine
 10
617.7665731501555
 20
-0.0000000000015862
 30
0.0000000000043914
 11
1015.265711170364
 21
0.0000000000013663
 31
0.0000000000028545
  0
LINE
  5
24A
330
1F
100
AcDbEntity
  8
0
 62
     0
100
AcDbLine
 10
1038.265711170363
 20
106.0000000000013
 30
-0.000000000005515
 11
1056.265711170364
 21
106.0000000000013
 31
-0.0000000000056165
  0
LINE
  5
24B
330
1F
100
AcDbEntity
  8
0
 62
     0
100
AcDbLine
 10
1880.24433507495
 20
0.0
 30
0.0000000000000001
 11
1880.24433507495
 21
318.0000000000002
 31
-0.0000000000000482
  0
LINE
  5
24C
330
1F
100
AcDbEntity
  8
0
 62
     0
100
AcDbLine
 10
1525.94433507495
 20
0.0
 30
0.0000000000000001
 11
1880.24433507495
 21
0.0
 31
0.0000000000000001
  0
LINE
  5
24D
330
1F
100
AcDbEntity
  8
0
 62
     0
100
AcDbLine
 10
1880.24433507495
 20
318.0000000000002
 30
-0.0000000000000482
 11
1525.94433507495
 21
318.0000000000002
 31
-0.0000000000000482
  0
LINE
  5
24E
330
1F
100
AcDbEntity
  8
0
 62
     0
100
AcDbLine
 10
1525.94433507495
 20
318.0000000000002
 30
-0.0000000000000482
 11
1525.94433507495
 21
0.0
 31
0.0000000000000001
  0
LINE
  5
24F
330
1F
100
AcDbEntity
  8
0
 62
     0
100
AcDbLine
 10
1340.626457893593
 20
0.0000000000000251
 30
-0.0000000000000536
 11
1340.626457893592
 21
317.9999999999999
 31
0.0000000000001097
  0
LINE
  5
250
330
1F
100
AcDbEntity
  8
0
 62
     0
100
AcDbLine
 10
1260.626457893592
 20
19.9999999999999
 30
0.0000000000000012
 11
1260.626457893592
 21
297.9999999999998
 31
0.0000000000000859
  0
LINE
  5
251
330
1F
100
AcDbEntity
  8
0
 62
     0
100
AcDbLine
 10
1340.626457893593
 20
0.0000000000000251
 30
-0.0000000000000536
 11
1280.626457893592
 21
-0.0000000000000411
 31
-0.0000000000000085
  0
LINE
  5
252
330
1F
100
AcDbEntity
  8
0
 62
     0
100
AcDbLine
 10
1340.626457893592
 20
317.9999999999999
 30
0.0000000000001097
 11
1280.626457893592
 21
317.9999999999999
 31
0.0000000000001097
  0
LINE
  5
253
330
1F
100
AcDbEntity
  8
0
 62
     0
100
AcDbLine
 10
1126.738499953082
 20
318.0000000000001
 30
0.0000000000000195
 11
1126.738499953081
 21
0.0000000000000495
 31
-0.0000000000001889
  0
LINE
  5
254
330
1F
100
AcDbEntity
  8
0
 62
     0
100
AcDbLine
 10
1126.738499953081
 20
0.0000000000000495
 30
-0.0000000000001889
 11
1168.738499953081
 21
-0.0000000000000601
 31
-0.0000000000001889
  0
LINE
  5
255
330
1F
100
AcDbEntity
  8
0
 62
     0
100
AcDbLine
 10
1168.738499953082
 20
318.0000000000001
 30
0.0000000000000195
 11
1126.738499953082
 21
318.0000000000001
 31
0.0000000000000195
  0
LINE
  5
256
330
1F
100
AcDbEntity
  8
0
 62
     0
100
AcDbLine
 10
1168.738499953081
 20
-0.0000000000000601
 30
-0.0000000000001889
 11
1168.738499953082
 21
318.0000000000001
 31
0.0000000000000195
  0
LINE
  5
257
330
1F
100
AcDbEntity
  8
0
 62
     0
100
AcDbLine
 10
1421.384788032184
 20
0.0000000000000363
 30
-0.0000000000001782
 11
1485.384788032184
 21
-0.0000000000000345
 31
-0.0000000000001808
  0
LINE
  5
258
330
1F
100
AcDbEntity
  8
0
 62
     0
100
AcDbLine
 10
1485.384788032184
 20
-0.0000000000000345
 30
-0.0000000000001808
 11
1485.384788032184
 21
317.9999999999998
 31
0.0000000000000195
  0
LINE
  5
259
330
1F
100
AcDbEntity
  8
0
 62
     0
100
AcDbLine
 10
1485.384788032184
 20
317.9999999999998
 30
0.0000000000000195
 11
1421.384788032184
 21
317.9999999999999
 31
0.0000000000000195
  0
LINE
  5
25A
330
1F
100
AcDbEntity
  8
0
 62
     0
100
AcDbLine
 10
1421.384788032184
 20
317.9999999999999
 30
0.0000000000000195
 11
1421.384788032184
 21
0.0000000000000363
 31
-0.0000000000001782
  0
ARC
  5
25B
330
1F
100
AcDbEntity
  8
0
 62
     0
100
AcDbCircle
 10
84.17864871200611
 20
786.0000000000009
 30
-0.0000000000284674
 40
63.99999999999991
100
AcDbArc
 50
89.99999999999989
 51
179.9999999999998
  0
ARC
  5
25C
330
1F
100
AcDbEntity
  8
0
 62
     0
100
AcDbCircle
 10
253.9209731657615
 20
763.6513160826539
 30
-0.0000000000291907
 40
86.3486839173473
100
AcDbArc
 50
14.99999999999981
 51
90.00000000000142
  0
ARC
  5
25D
330
1F
100
AcDbEntity
  8
0
 62
     0
100
AcDbCircle
 10
-481.6777867322093
 20
50.84130260738808
 30
-0.0000000000372903
 40
50.84130260738774
210
-4.668844202572311E-14
220
-6.743047020948157E-14
230
-1.0
100
AcDbArc
 50
165.0000000000018
 51
269.9999999999998
  0
CIRCLE
  5
25E
330
1F
100
AcDbEntity
  8
0
 62
     0
100
AcDbCircle
 10
-121.178648712006
 20
400.0000000000028
 30
-0.0000000000094913
 40
1.499999999999975
210
1.867424085838239E-15
220
-5.107885312761220E-14
230
-1.0
  0
CIRCLE
  5
25F
330
1F
100
AcDbEntity
  8
0
 62
     0
100
AcDbCircle
 10
-355.4786487120062
 20
400.0000000000027
 30
-0.0000000000109455
 40
1.499999999999975
210
-7.305952186514828E-16
220
-6.009805262114316E-14
230
-1.0
  0
CIRCLE
  5
260
330
1F
100
AcDbEntity
  8
0
 62
     0
100
AcDbCircle
 10
-387.478648712001
 20
250.0000000000023
 30
-0.0000000000014898
 40
1.499999999999997
210
0.0
220
-2.791638788059657E-14
230
-1.0
  0
ARC
  5
261
330
1F
100
AcDbEntity
  8
0
 62
     0
100
AcDbCircle
 10
-1015.26571117036
 20
786.0000000000014
 30
-0.0000000000036283
 40
63.99999999999991
210
-5.133337720889522E-15
220
7.816140166967037E-15
230
-1.0
100
AcDbArc
 50
89.99999999999984
 51
179.9999999999998
  0
CIRCLE
  5
262
330
1F
100
AcDbEntity
  8
0
 62
     0
100
AcDbCircle
 10
-1047.265711170359
 20
770.0000000000013
 30
-0.0000000000169719
 40
1.50000000000002
210
-2.474563791675802E-14
220
1.735981516345332E-14
230
-1.0
  0
CIRCLE
  5
263
330
1F
100
AcDbEntity
  8
0
 62
     0
100
AcDbCircle
 10
-153.1786487120048
 20
250.0000000000013
 30
0.0000000000062646
 40
1.50000000000002
210
-9.790126805768893E-15
220
3.382522628668562E-14
230
-1.0
  0
CIRCLE
  5
264
330
1F
100
AcDbEntity
  8
0
 62
     0
100
AcDbCircle
 10
-477.227693104614
 20
171.0000000000002
 30
-0.0000000000144924
 40
1.499999999999986
210
-7.259567417097622E-15
220
-5.077521677860767E-14
230
-1.0
  0
CIRCLE
  5
265
330
1F
100
AcDbEntity
  8
0
 62
     0
100
AcDbCircle
 10
-286.8050924626356
 20
810.3597639578342
 30
-0.0000000000317575
 40
12.50000000000002
210
1.173037956999561E-14
220
-8.320116626581470E-14
230
-1.0
  0
CIRCLE
  5
266
330
1F
100
AcDbEntity
  8
0
 62
     0
100
AcDbCircle
 10
-1047.265711170364
 20
75.00000000000087
 30
-0.0000000000076442
 40
1.499999999999997
210
-1.127986593019156E-14
220
-1.881657953136428E-15
230
-1.0
  0
ARC
  5
267
330
1F
100
AcDbEntity
  8
0
 62
     0
100
AcDbCircle
 10
617.7665731501554
 20
50.84130260738689
 30
0.0000000000054851
 40
50.84130260738771
100
AcDbArc
 50
165.0000000000012
 51
270.0000000000002
  0
ARC
  5
268
330
1F
100
AcDbEntity
  8
0
 62
     0
100
AcDbCircle
 10
-845.5233867166074
 20
763.6513160826535
 30
-0.0000000000450749
 40
86.34868391734733
210
-7.089277797542468E-14
220
2.620548716004269E-14
230
-1.0
100
AcDbArc
 50
14.99999999999875
 51
89.9999999999982
  0
CIRCLE
  5
269
330
1F
100
AcDbEntity
  8
0
 62
     0
100
AcDbCircle
 10
-812.6392674197314
 20
810.3597639578352
 30
-0.0000000000981963
 40
12.49999999999994
210
-1.471820155345472E-13
220
1.289558452943162E-14
230
-1.0
  0
CIRCLE
  5
26A
330
1F
100
AcDbEntity
  8
0
 62
     0
100
AcDbCircle
 10
-52.1786487120059
 20
802.000000000001
 30
-0.0000000000075577
 40
1.083653531387428
210
-7.497976849174189E-14
220
-6.614356077566335E-14
230
-1.0
  0
CIRCLE
  5
26B
330
1F
100
AcDbEntity
  8
0
 62
     0
100
AcDbCircle
 10
-1047.265711170364
 20
95.00000000000132
 30
-0.0000000000687314
 40
1.499999999999997
210
-6.115860693325247E-14
220
-9.487750210824544E-14
230
-1.0
  0
ARC
  5
26C
330
1F
100
AcDbEntity
  8
0
 62
     0
100
AcDbCircle
 10
-1280.626457893592
 20
19.99999999999975
 30
0.0000000000000085
 40
19.99999999999975
210
-2.581892438982363E-31
220
4.842273123395583E-16
230
-1.0
100
AcDbArc
 50
269.9999999999995
 51
0.000000000000458
  0
CIRCLE
  5
26D
330
1F
100
AcDbEntity
  8
0
 62
     0
100
AcDbCircle
 10
-946.2657111703675
 20
250.0000000000053
 30
-0.0000000000132633
 40
1.499999999999997
210
-5.354306786543917E-15
220
-3.001841014055990E-14
230
-1.0
  0
CIRCLE
  5
26E
330
1F
100
AcDbEntity
  8
0
 62
     0
100
AcDbCircle
 10
-52.17864871200078
 20
74.9999999999893
 30
-0.0000000000231866
 40
1.499999999999998
210
6.289574420246798E-14
220
-6.739532976134944E-14
230
-1.0
  0
CIRCLE
  5
26F
330
1F
100
AcDbEntity
  8
0
 62
     0
100
AcDbCircle
 10
-978.2657111703666
 20
400.0000000000025
 30
0.0000000026278846
 40
1.499999999999975
210
2.999369720646365E-12
220
-7.766764287213987E-13
230
-1.0
  0
ARC
  5
270
330
1F
100
AcDbEntity
  8
0
 62
     0
100
AcDbCircle
 10
1280.626457893592
 20
298.0000000000001
 30
0.0000000000001085
 40
19.99999999999975
100
AcDbArc
 50
89.99999999999949
 51
180.0000000000008
  0
CIRCLE
  5
271
330
1F
100
AcDbEntity
  8
0
 62
     0
100
AcDbCircle
 10
-286.8050924626355
 20
810.3597639578342
 30
-0.0000000000151642
 40
1.500000000000023
210
3.460863639792394E-14
220
-7.071045302283228E-14
230
-1.0
  0
CIRCLE
  5
272
330
1F
100
AcDbEntity
  8
0
 62
     0
100
AcDbCircle
 10
-711.9657111703646
 20
249.9999999999998
 30
-0.0000000020277856
 40
1.500000000000004
210
-2.084473294396668E-12
220
-2.168560802602741E-12
230
-1.0
  0
CIRCLE
  5
273
330
1F
100
AcDbEntity
  8
0
 62
     0
100
AcDbCircle
 10
-743.9657111703608
 20
400.0000000000007
 30
0.0000000004320949
 40
1.499999999999974
210
2.936191205434611E-13
220
5.387041096753969E-13
230
-1.0
  0
CIRCLE
  5
274
330
1F
100
AcDbEntity
  8
0
 62
     0
100
AcDbCircle
 10
-622.2166667777509
 20
170.999999999999
 30
0.0000000000175245
 40
1.499999999999995
210
1.589169737476935E-14
220
5.270060668085070E-14
230
-1.0
  0
CIRCLE
  5
275
330
1F
100
AcDbEntity
  8
0
 62
     0
100
AcDbCircle
 10
-1047.265711170359
 20
802.0000000000011
 30
-0.0000000000867752
 40
1.50000000000002
210
-8.135703514495939E-14
220
3.782273889544725E-15
230
-1.0
  0
ARC
  5
276
330
1F
100
AcDbEntity
  8
0
 62
     0
100
AcDbCircle
 10
1015.265711170363
 20
64.00000000000102
 30
-0.0000000000023479
 40
64.00000000000001
100
AcDbArc
 50
270.0000000000003
 51
359.9999999999991
  0
CIRCLE
  5
277
330
1F
100
AcDbEntity
  8
0
 62
     0
100
AcDbCircle
 10
-52.17864871200596
 20
770.0000000000011
 30
-0.0000000000677234
 40
1.500000000000019
210
-1.157682294845449E-13
220
-1.394047682591279E-13
230
-1.0
  0
CIRCLE
  5
278
330
1F
100
AcDbEntity
  8
0
 62
     0
100
AcDbCircle
 10
-52.17864871200079
 20
94.99999999998917
 30
-0.0000000000212894
 40
1.499999999999999
210
6.597402644785994E-14
220
-3.901002724635399E-14
230
-1.0
  0
CIRCLE
  5
279
330
1F
100
AcDbEntity
  8
0
 62
     0
100
AcDbCircle
 10
-812.6392674197314
 20
810.3597639578352
 30
0.0000000000112872
 40
1.499999999999997
210
2.171386698018009E-16
220
1.865974094193033E-16
230
-1.0
  0
ARC
  5
27A
330
1F
100
AcDbEntity
  8
0
 62
     0
100
AcDbCircle
 10
-84.17864871200341
 20
64.000000000001
 30
-0.0000000000122243
 40
64.00000000000001
210
7.046447827289844E-17
220
-5.417906047280006E-14
230
-1.0
100
AcDbArc
 50
269.9999999999998
 51
359.9999999999999
  0
ENDSEC
  0
SECTION
  2
OBJECTS
  0
DICTIONARY
  5
C
330
0
100
AcDbDictionary
  3
ACAD_GROUP
350
D
  3
ACAD_LAYOUT
350
1A
  3
ACAD_MATERIAL
350
43
  3
ACAD_MLEADERSTYLE
350
6B
  3
ACAD_MLINESTYLE
350
17
  3
ACAD_PLOTSETTINGS
350
19
  3
ACAD_SCALELIST
350
47
  3
ACAD_VISUALSTYLE
350
2A
  3
ACDBHEADERROUNDTRIPXREC
350
27B
  3
ACDBVARIABLEDICTIONARY
350
29C
  0
DICTIONARY
  5
2A3
330
8
100
AcDbDictionary
280
     1
  3
ACAD_XREC_ROUNDTRIP
360
2A4
  0
DICTIONARY
  5
D
102
{ACAD_REACTORS
330
C
102
}
330
C
100
AcDbDictionary
  0
DICTIONARY
  5
1A
102
{ACAD_REACTORS
330
C
102
}
330
C
100
AcDbDictionary
  0
DICTIONARY
  5
43
102
{ACAD_REACTORS
330
C
102
}
330
C
100
AcDbDictionary
  3
BYBLOCK
350
45
  3
BYLAYER
350
44
  3
GLOBAL
350
46
  0
DICTIONARY
  5
6B
102
{ACAD_REACTORS
330
C
102
}
330
C
100
AcDbDictionary
  3
STANDARD
350
6C
  0
DICTIONARY
  5
17
102
{ACAD_REACTORS
330
C
102
}
330
C
100
AcDbDictionary
  3
STANDARD
350
18
  0
DICTIONARY
  5
19
102
{ACAD_REACTORS
330
C
102
}
330
C
100
AcDbDictionary
  0
DICTIONARY
  5
47
102
{ACAD_REACTORS
330
C
102
}
330
C
100
AcDbDictionary
  3
A0
350
48
  3
A1
350
49
  3
A2
350
4A
  3
A3
350
4B
  3
A4
350
4C
  3
A5
350
4D
  3
A6
350
4E
  3
A7
350
4F
  3
A8
350
50
  3
A9
350
51
  3
B0
350
52
  3
B1
350
53
  3
B2
350
54
  3
B3
350
55
  3
B4
350
56
  3
B5
350
57
  3
B6
350
58
  3
B7
350
59
  3
B8
350
5A
  3
B9
350
5B
  3
C0
350
5C
  3
C1
350
5D
  3
C2
350
5E
  3
C3
350
5F
  3
C4
350
60
  3
C5
350
61
  3
C6
350
62
  3
C7
350
63
  3
C8
350
64
  3
C9
350
65
  3
D0
350
66
  3
D1
350
67
  3
D2
350
68
  0
DICTIONARY
  5
2A
102
{ACAD_REACTORS
330
C
102
}
330
C
100
AcDbDictionary
  3
2DWIREFRAME
350
2F
  3
BASIC
350
32
  3
BRIGHTEN
350
36
  3
COLORCHANGE
350
3A
  3
CONCEPTUAL
350
34
  3
DIM
350
35
  3
EDGECOLOROFF
350
3D
  3
FACEPATTERN
350
39
  3
FLAT
350
2B
  3
FLATWITHEDGES
350
2C
  3
GOURAUD
350
2D
  3
GOURAUDWITHEDGES
350
2E
  3
HIDDEN
350
31
  3
JITTEROFF
350
3B
  3
LINEPATTERN
350
38
  3
OVERHANGOFF
350
3C
  3
REALISTIC
350
33
  3
SHADED
350
42
  3
SHADED_WITH_EDGES
350
41
  3
SHADES_OF_GRAY
350
3E
  3
SKETCHY
350
3F
  3
THICKEN
350
37
  3
WIREFRAME
350
30
  3
X-RAY
350
40
  0
DICTIONARY
  5
27B
102
{ACAD_REACTORS
330
C
102
}
330
C
100
AcDbDictionary
  3
CEPSNID
350
285
  3
CEPSNTYPE
350
284
  3
DIMSTYLEDATA
350
29B
  3
FINGERPRINTGUID
350
286
  3
HYPERLINKBASE
350
27E
  3
INSUNITS
350
283
  3
LAYOUTDICT
350
280
  3
LWETCUNION
350
282
  3
PLOTSETDICT
350
281
  3
PSVPSCALE
350
288
  3
PUCSBASE
350
28B
  3
PUCSORGBACK
350
291
  3
PUCSORGBOTTOM
350
28D
  3
PUCSORGFRONT
350
290
  3
PUCSORGLEFT
350
28E
  3
PUCSORGRIGHT
350
28F
  3
PUCSORGTOP
350
28C
  3
PUCSORTHOREF
350
289
  3
PUCSORTHOVIEW
350
28A
  3
STYLESHEET
350
27F
  3
TSTACKALIGN
350
27C
  3
TSTACKSIZE
350
27D
  3
UCSBASE
350
294
  3
UCSORGBACK
350
29A
  3
UCSORGBOTTOM
350
296
  3
UCSORGFRONT
350
299
  3
UCSORGLEFT
350
297
  3
UCSORGRIGHT
350
298
  3
UCSORGTOP
350
295
  3
UCSORTHOREF
350
292
  3
UCSORTHOVIEW
350
293
  3
VERSIONGUID
350
287
  0
DICTIONARY
  5
29C
102
{ACAD_REACTORS
330
C
102
}
330
C
100
AcDbDictionary
  3
CANNOSCALE
350
2A5
  3
CMLEADERSTYLE
350
29E
  3
CTABLESTYLE
350
29D
  3
DIMASSOC
350
2A1
  3
HIDETEXT
350
2A2
  3
MSLTSCALE
350
2A6
  0
XRECORD
  5
2A4
102
{ACAD_REACTORS
330
2A3
102
}
330
2A3
100
AcDbXrecord
102
VTR_0.000_0.000_1.000_1.000_VISUALSTYLE
340
2F
102
VTR_0.000_0.000_1.000_1.000_GRIDDISPLAY
 70
     3
102
VTR_0.000_0.000_1.000_1.000_GRIDMAJOR
 70
     5
102
VTR_0.000_0.000_1.000_1.000_DEFAULTLIGHTING
280
     1
102
VTR_0.000_0.000_1.000_1.000_DEFAULTLIGHTINGTYPE
 70
     1
102
VTR_0.000_0.000_1.000_1.000_BRIGHTNESS
141
0.0
102
VTR_0.000_0.000_1.000_1.000_CONTRAST
142
0.0
  0
MATERIAL
  5
45
102
{ACAD_REACTORS
330
43
102
}
102
{ACAD_XDICTIONARY
360
2A9
102
}
330
43
100
AcDbMaterial
  1
BYBLOCK
  0
MATERIAL
  5
44
102
{ACAD_REACTORS
330
43
102
}
102
{ACAD_XDICTIONARY
360
2A7
102
}
330
43
100
AcDbMaterial
  1
BYLAYER
  0
MATERIAL
  5
46
102
{ACAD_REACTORS
330
43
102
}
102
{ACAD_XDICTIONARY
360
2AB
102
}
330
43
100
AcDbMaterial
  1
GLOBAL
  0
ACAD_PROXY_OBJECT
  5
6C
102
{ACAD_REACTORS
330
6B
102
}
330
6B
100
AcDbProxyObject
 90
      499
 91
      505
 93
      610
310
40901902A4063FBFFFFFE056BD1B81E855B9FC0AD7A3703D0AD73F4214DD185B99185C9900AD7A3703D0AC73F90141901A02B5E8DC0F42B1CFC02B5E8DC0F42B1CFE5764000000000000300FC0
340
14
340
0
340
11
340
0
 94
        0
1001
ACAD_MLEADERVER
1070
     2
  0
MLINESTYLE
  5
18
102
{ACAD_REACTORS
330
17
102
}
330
17
100
AcDbMlineStyle
  2
Standard
 70
     0
  3

 62
   256
 51
90.0
 52
90.0
 71
     2
 49
0.5
 62
   256
  6
BYLAYER
 49
-0.5
 62
   256
  6
BYLAYER
  0
ACAD_PROXY_OBJECT
  5
48
102
{ACAD_REACTORS
330
47
102
}
330
47
100
AcDbProxyObject
 90
      499
 91
      503
 93
       41
310
903313A31580
  0
ACAD_PROXY_OBJECT
  5
49
102
{ACAD_REACTORS
330
47
102
}
330
47
100
AcDbProxyObject
 90
      499
 91
      503
 93
      105
310
903313A324000000000000004000
  0
ACAD_PROXY_OBJECT
  5
4A
102
{ACAD_REACTORS
330
47
102
}
330
47
100
AcDbProxyObject
 90
      499
 91
      503
 93
      105
310
903313A344000000000000104000
  0
ACAD_PROXY_OBJECT
  5
4B
102
{ACAD_REACTORS
330
47
102
}
330
47
100
AcDbProxyObject
 90
      499
 91
      503
 93
      105
310
903313A354000000000000144000
  0
ACAD_PROXY_OBJECT
  5
4C
102
{ACAD_REACTORS
330
47
102
}
330
47
100
AcDbProxyObject
 90
      499
 91
      503
 93
      105
310
903313A384000000000000204000
  0
ACAD_PROXY_OBJECT
  5
4D
102
{ACAD_REACTORS
330
47
102
}
330
47
100
AcDbProxyObject
 90
      499
 91
      503
 93
      113
310
904313A31304000000000000244000
  0
ACAD_PROXY_OBJECT
  5
4E
102
{ACAD_REACTORS
330
47
102
}
330
47
100
AcDbProxyObject
 90
      499
 91
      503
 93
      113
310
904313A31364000000000000304000
  0
ACAD_PROXY_OBJECT
  5
4F
102
{ACAD_REACTORS
330
47
102
}
330
47
100
AcDbProxyObject
 90
      499
 91
      503
 93
      113
310
904313A32304000000000000344000
  0
ACAD_PROXY_OBJECT
  5
50
102
{ACAD_REACTORS
330
47
102
}
330
47
100
AcDbProxyObject
 90
      499
 91
      503
 93
      113
310
904313A333040000000000003E4000
  0
ACAD_PROXY_OBJECT
  5
51
102
{ACAD_REACTORS
330
47
102
}
330
47
100
AcDbProxyObject
 90
      499
 91
      503
 93
      113
310
904313A34304000000000000444000
  0
ACAD_PROXY_OBJECT
  5
52
102
{ACAD_REACTORS
330
47
102
}
330
47
100
AcDbProxyObject
 90
      499
 91
      503
 93
      113
310
904313A35304000000000000494000
  0
ACAD_PROXY_OBJECT
  5
53
102
{ACAD_REACTORS
330
47
102
}
330
47
100
AcDbProxyObject
 90
      499
 91
      503
 93
      121
310
905313A3130304000000000000594000
  0
ACAD_PROXY_OBJECT
  5
54
102
{ACAD_REACTORS
330
47
102
}
330
47
100
AcDbProxyObject
 90
      499
 91
      503
 93
      105
310
903323A310000000000000010100
  0
ACAD_PROXY_OBJECT
  5
55
102
{ACAD_REACTORS
330
47
102
}
330
47
100
AcDbProxyObject
 90
      499
 91
      503
 93
      105
310
903343A310000000000000410100
  0
ACAD_PROXY_OBJECT
  5
56
102
{ACAD_REACTORS
330
47
102
}
330
47
100
AcDbProxyObject
 90
      499
 91
      503
 93
      105
310
903383A310000000000000810100
  0
ACAD_PROXY_OBJECT
  5
57
102
{ACAD_REACTORS
330
47
102
}
330
47
100
AcDbProxyObject
 90
      499
 91
      503
 93
      113
310
90431303A310000000000000910100
  0
ACAD_PROXY_OBJECT
  5
58
102
{ACAD_REACTORS
330
47
102
}
330
47
100
AcDbProxyObject
 90
      499
 91
      503
 93
      121
310
9053130303A310000000000001650100
  0
ACAD_PROXY_OBJECT
  5
59
102
{ACAD_REACTORS
330
47
102
}
330
47
100
AcDbProxyObject
 90
      499
 91
      503
 93
      257
310
90E312F31323822203D2031272D3022000000000000200FC000000000000284000
  0
ACAD_PROXY_OBJECT
  5
5A
102
{ACAD_REACTORS
330
47
102
}
330
47
100
AcDbProxyObject
 90
      499
 91
      503
 93
      249
310
90D312F363422203D2031272D3022000000000000240FC000000000000284000
  0
ACAD_PROXY_OBJECT
  5
5B
102
{ACAD_REACTORS
330
47
102
}
330
47
100
AcDbProxyObject
 90
      499
 91
      503
 93
      249
310
90D312F333222203D2031272D3022000000000000280FC000000000000284000
  0
ACAD_PROXY_OBJECT
  5
5C
102
{ACAD_REACTORS
330
47
102
}
330
47
100
AcDbProxyObject
 90
      499
 91
      503
 93
      249
310
90D312F313622203D2031272D30220000000000002C0FC000000000000284000
  0
ACAD_PROXY_OBJECT
  5
5D
102
{ACAD_REACTORS
330
47
102
}
330
47
100
AcDbProxyObject
 90
      499
 91
      503
 93
      249
310
90D332F333222203D2031272D30220000000000002E0FC000000000000284000
  0
ACAD_PROXY_OBJECT
  5
5E
102
{ACAD_REACTORS
330
47
102
}
330
47
100
AcDbProxyObject
 90
      499
 91
      503
 93
      241
310
90C312F3822203D2031272D3022000000000000300FC000000000000284000
  0
ACAD_PROXY_OBJECT
  5
5F
102
{ACAD_REACTORS
330
47
102
}
330
47
100
AcDbProxyObject
 90
      499
 91
      503
 93
      249
310
90D332F313622203D2031272D3022000000000000320FC000000000000284000
  0
ACAD_PROXY_OBJECT
  5
60
102
{ACAD_REACTORS
330
47
102
}
330
47
100
AcDbProxyObject
 90
      499
 91
      503
 93
      241
310
90C312F3422203D2031272D3022000000000000340FC000000000000284000
  0
ACAD_PROXY_OBJECT
  5
61
102
{ACAD_REACTORS
330
47
102
}
330
47
100
AcDbProxyObject
 90
      499
 91
      503
 93
      241
310
90C332F3822203D2031272D3022000000000000360FC000000000000284000
  0
ACAD_PROXY_OBJECT
  5
62
102
{ACAD_REACTORS
330
47
102
}
330
47
100
AcDbProxyObject
 90
      499
 91
      503
 93
      241
310
90C312F3222203D2031272D3022000000000000380FC000000000000284000
  0
ACAD_PROXY_OBJECT
  5
63
102
{ACAD_REACTORS
330
47
102
}
330
47
100
AcDbProxyObject
 90
      499
 91
      503
 93
      241
310
90C332F3422203D2031272D30220000000000003A0FC000000000000284000
  0
ACAD_PROXY_OBJECT
  5
64
102
{ACAD_REACTORS
330
47
102
}
330
47
100
AcDbProxyObject
 90
      499
 91
      503
 93
      161
310
90A3122203D2031272D30224000000000000284000
  0
ACAD_PROXY_OBJECT
  5
65
102
{ACAD_REACTORS
330
47
102
}
330
47
100
AcDbProxyObject
 90
      499
 91
      503
 93
      257
310
90E312D312F3222203D2031272D30220000000000003E0FC000000000000284000
  0
ACAD_PROXY_OBJECT
  5
66
102
{ACAD_REACTORS
330
47
102
}
330
47
100
AcDbProxyObject
 90
      499
 91
      503
 93
      225
310
90A3322203D2031272D302200000000000002100000000000000284000
  0
ACAD_PROXY_OBJECT
  5
67
102
{ACAD_REACTORS
330
47
102
}
330
47
100
AcDbProxyObject
 90
      499
 91
      503
 93
      225
310
90A3622203D2031272D302200000000000006100000000000000284000
  0
ACAD_PROXY_OBJECT
  5
68
102
{ACAD_REACTORS
330
47
102
}
330
47
100
AcDbProxyObject
 90
      499
 91
      503
 93
      249
310
90D31272D3022203D2031272D30220000000000000A100000000000000284000
  0
ACAD_PROXY_OBJECT
  5
2F
102
{ACAD_REACTORS
330
2A
102
}
330
2A
100
AcDbProxyObject
 90
      499
 91
      501
 93
      436
310
42CC9915DA5C99599C985B595049028333333333333E33F0000000000000F90107901411070040501600405405064090741402480A0340
1001
ACAD
1000
AcDbSavedByObjectVersion
1070
     0
  0
ACAD_PROXY_OBJECT
  5
32
102
{ACAD_REACTORS
330
2A
102
}
330
2A
100
AcDbProxyObject
 90
      499
 91
      501
 93
      388
310
4150985CDA58D07406404333333333333E33F0000000000000F90107A41107004050150841D405064090741402480A0350
1001
ACAD
1000
AcDbSavedByObjectVersion
1070
     0
  0
ACAD_PROXY_OBJECT
  5
36
102
{ACAD_REACTORS
330
2A
102
}
330
2A
100
AcDbProxyObject
 90
      499
 91
      501
 93
      428
310
42109C9A59DA1D195B90C409028333333333333E33F0000000000000F9010790141107004050150841D405064090741402480A029950
1001
ACAD
1000
AcDbSavedByObjectVersion
1070
     0
  0
ACAD_PROXY_OBJECT
  5
3A
102
{ACAD_REACTORS
330
2A
102
}
330
2A
100
AcDbProxyObject
 90
      499
 91
      501
 93
      452
310
42D0DBDB1BDC90DA185B99D95104090240C333333333333E33F0000000000000F90108901411070040501508421405064090741402480A0350
1001
ACAD
1000
AcDbSavedByObjectVersion
1070
     0
  0
ACAD_PROXY_OBJECT
  5
34
102
{ACAD_REACTORS
330
2A
102
}
330
2A
100
AcDbProxyObject
 90
      499
 91
      501
 93
      500
310
4290DBDB98D95C1D1D585B10940D028333333333333E33F0000000000000F90107902409070040501000000000018199010841D405064090740C02480A0340
1001
ACAD
1000
AcDbSavedByObjectVersion
1070
     0
  0
ACAD_PROXY_OBJECT
  5
35
102
{ACAD_REACTORS
330
2A
102
}
330
2A
100
AcDbProxyObject
 90
      499
 91
      501
 93
      412
310
40D11A5B50B409028333333333333E33F0000000000000F9010790141107004050150841D405064090741402480A02677FFFFFD0
1001
ACAD
1000
AcDbSavedByObjectVersion
1070
     0
  0
ACAD_PROXY_OBJECT
  5
3D
102
{ACAD_REACTORS
330
2A
102
}
330
2A
100
AcDbProxyObject
 90
      499
 91
      501
 93
      452
310
43115919D950DBDB1BDC93D999916409028333333333333E33F0000000000000F9010790141107004050150841D405064090741402480A0350
1001
ACAD
1000
AcDbSavedByObjectVersion
1070
     0
  0
ACAD_PROXY_OBJECT
  5
39
102
{ACAD_REACTORS
330
2A
102
}
330
2A
100
AcDbProxyObject
 90
      499
 91
      501
 93
      444
310
42D19858D95C185D1D195C9B90F409028333333333333E33F0000000000000F9010790141107004050150841D405064090741402480A0350
1001
ACAD
1000
AcDbSavedByObjectVersion
1070
     0
  0
ACAD_PROXY_OBJECT
  5
2B
102
{ACAD_REACTORS
330
2A
102
}
330
2A
100
AcDbProxyObject
 90
      499
 91
      501
 93
      380
310
41119B185D240901404333333333333E33F0000000000000F9010740A907004050150841D405064090741402480A1B50
1001
ACAD
1000
AcDbSavedByObjectVersion
1070
     0
  0
ACAD_PROXY_OBJECT
  5
2C
102
{ACAD_REACTORS
330
2A
102
}
330
2A
100
AcDbProxyObject
 90
      499
 91
      501
 93
      468
310
43519B185D15DA5D1A115919D95CD0140901404333333333333E33F0000000000000F90107409019070040501600405405064090741402480A1B50
1001
ACAD
1000
AcDbSavedByObjectVersion
1070
     0
  0
ACAD_PROXY_OBJECT
  5
2D
102
{ACAD_REACTORS
330
2A
102
}
330
2A
100
AcDbProxyObject
 90
      499
 91
      501
 93
      404
310
41D1DBDD5C985D5910240902404333333333333E33F0000000000000F9010740A9070040501641D405064090741402480A1B50
1001
ACAD
1000
AcDbSavedByObjectVersion
1070
     0
  0
ACAD_PROXY_OBJECT
  5
2E
102
{ACAD_REACTORS
330
2A
102
}
330
2A
100
AcDbProxyObject
 90
      499
 91
      501
 93
      492
310
4411DBDD5C985D5915DA5D1A115919D95CD0340902404333333333333E33F0000000000000F90107409019070040501600405405064090741402480A1B50
1001
ACAD
1000
AcDbSavedByObjectVersion
1070
     0
  0
ACAD_PROXY_OBJECT
  5
31
102
{ACAD_REACTORS
330
2A
102
}
330
2A
100
AcDbProxyObject
 90
      499
 91
      501
 93
      476
310
41921A5919195B90640502408333333333333E33F0000000000000F901079024090700405020000000000001110200405405064090740C02480A0340
1001
ACAD
1000
AcDbSavedByObjectVersion
1070
     0
  0
ACAD_PROXY_OBJECT
  5
3B
102
{ACAD_REACTORS
330
2A
102
}
330
2A
100
AcDbProxyObject
 90
      499
 91
      501
 93
      428
310
42529A5D1D195C93D999914409028333333333333E33F0000000000000F9010790141107004050150A41D405064090741402480A0350
1001
ACAD
1000
AcDbSavedByObjectVersion
1070
     0
  0
ACAD_PROXY_OBJECT
  5
38
102
{ACAD_REACTORS
330
2A
102
}
330
2A
100
AcDbProxyObject
 90
      499
 91
      501
 93
      444
310
42D31A5B995C185D1D195C9B90E409028333333333333E33F0000000000000F9010790141107004050750841D405064090741402483A0350
1001
ACAD
1000
AcDbSavedByObjectVersion
1070
     0
  0
ACAD_PROXY_OBJECT
  5
3C
102
{ACAD_REACTORS
330
2A
102
}
330
2A
100
AcDbProxyObject
 90
      499
 91
      501
 93
      444
310
42D3DD995C9A185B99D3D999915409028333333333333E33F0000000000000F9010790141107004050150941D405064090741402480A0350
1001
ACAD
1000
AcDbSavedByObjectVersion
1070
     0
  0
ACAD_PROXY_OBJECT
  5
33
102
{ACAD_REACTORS
330
2A
102
}
330
2A
100
AcDbProxyObject
 90
      499
 91
      501
 93
      428
310
425499585B1A5CDD1A58D08409038333333333333E33F0000000000000F9010740A907004050150800405405064090740C02480A1B40
1001
ACAD
1000
AcDbSavedByObjectVersion
1070
     0
  0
ACAD_PROXY_OBJECT
  5
42
102
{ACAD_REACTORS
330
2A
102
}
330
2A
100
AcDbProxyObject
 90
      499
 91
      501
 93
      420
310
4194DA1859195911B40902404333333333333E33F0000000000000F9010740A41107004050150800405405064090840C02480A0B40
1001
ACAD
1000
AcDbSavedByObjectVersion
1070
     0
  0
ACAD_PROXY_OBJECT
  5
41
102
{ACAD_REACTORS
330
2A
102
}
330
2A
100
AcDbProxyObject
 90
      499
 91
      501
 93
      516
310
4454DA18591959081DDA5D1A08195919D95CD1A40902404333333333333E33F0000000000000F901074090142907004050250800405405064090740C02480A0B40
1001
ACAD
1000
AcDbSavedByObjectVersion
1070
     0
  0
ACAD_PROXY_OBJECT
  5
3E
102
{ACAD_REACTORS
330
2A
102
}
330
2A
100
AcDbProxyObject
 90
      499
 91
      501
 93
      532
310
4394DA1859195CC81BD98811DC985E5174090240C333333333333E33F0000000000000F901079024090741D01000000000000111010841D405064090740C02480A0340
1001
ACAD
1000
AcDbSavedByObjectVersion
1070
     0
  0
ACAD_PROXY_OBJECT
  5
3F
102
{ACAD_REACTORS
330
2A
102
}
330
2A
100
AcDbProxyObject
 90
      499
 91
      501
 93
      476
310
41D4DAD95D18DA1E51840502408333333333333E33F0000000000000F901079024090741D01000000000000111010B41D405064090741802480A0340
1001
ACAD
1000
AcDbSavedByObjectVersion
1070
     0
  0
ACAD_PROXY_OBJECT
  5
37
102
{ACAD_REACTORS
330
2A
102
}
330
2A
100
AcDbProxyObject
 90
      499
 91
      501
 93
      412
310
41D51A1A58DAD95B90D409028333333333333E33F0000000000000F9010790141107004050150C41D405064090741402480A0350
1001
ACAD
1000
AcDbSavedByObjectVersion
1070
     0
  0
ACAD_PROXY_OBJECT
  5
30
102
{ACAD_REACTORS
330
2A
102
}
330
2A
100
AcDbProxyObject
 90
      499
 91
      501
 93
      420
310
4255DA5C99599C985B595059028333333333333E33F0000000000000F90107901411070040501600405405064090740C02480A0340
1001
ACAD
1000
AcDbSavedByObjectVersion
1070
     0
  0
ACAD_PROXY_OBJECT
  5
40
102
{ACAD_REACTORS
330
2A
102
}
330
2A
100
AcDbProxyObject
 90
      499
 91
      501
 93
      404
310
41560B54985E51940902404000000000000E03F0000000000000F9010740501907004050150841D405064090740C02480A1B40
1001
ACAD
1000
AcDbSavedByObjectVersion
1070
     0
  0
XRECORD
  5
285
102
{ACAD_REACTORS
330
27B
102
}
330
27B
100
AcDbXrecord
340
0
  0
XRECORD
  5
284
102
{ACAD_REACTORS
330
27B
102
}
330
27B
100
AcDbXrecord
 90
        0
  0
XRECORD
  5
29B
102
{ACAD_REACTORS
330
27B
102
}
330
27B
100
AcDbXrecord
1000
DSTYLE
1002
{
1070
   171
 70
     2
1070
   143
 40
25.4
1070
   274
 70
     2
1070
    41
 40
0.18
1070
   141
 40
0.09
1070
   271
 70
     4
1070
    43
 40
0.38
1070
   278
 70
    46
1070
    44
 40
0.18
1070
    42
 40
0.0625
1070
   147
 40
0.09
1070
    77
 70
     0
1070
   272
 70
     4
1070
    73
 70
     1
1070
   172
 70
     0
1070
    74
 70
     1
1070
   283
 70
     1
1070
   340
340
11
1070
   140
 40
0.18
1070
   284
 70
     0
1070
    78
 70
     0
1002
}
  0
XRECORD
  5
286
102
{ACAD_REACTORS
330
27B
102
}
330
27B
100
AcDbXrecord
  1
{3479c330-fbf7-4f7c-9b6d-ddd86ce93d16}
  0
XRECORD
  5
27E
102
{ACAD_REACTORS
330
27B
102
}
330
27B
100
AcDbXrecord
  1

  0
XRECORD
  5
283
102
{ACAD_REACTORS
330
27B
102
}
330
27B
100
AcDbXrecord
 90
        4
  0
XRECORD
  5
280
102
{ACAD_REACTORS
330
27B
102
}
330
27B
100
AcDbXrecord
340
1A
  0
XRECORD
  5
282
102
{ACAD_REACTORS
330
27B
102
}
330
27B
100
AcDbXrecord
 90
    10781
  0
XRECORD
  5
281
102
{ACAD_REACTORS
330
27B
102
}
330
27B
100
AcDbXrecord
340
19
  0
XRECORD
  5
288
102
{ACAD_REACTORS
330
27B
102
}
330
27B
100
AcDbXrecord
 40
0.0
  0
XRECORD
  5
28B
102
{ACAD_REACTORS
330
27B
102
}
330
27B
100
AcDbXrecord
340
0
  0
XRECORD
  5
291
102
{ACAD_REACTORS
330
27B
102
}
330
27B
100
AcDbXrecord
 10
0.0
 20
0.0
 30
0.0
  0
XRECORD
  5
28D
102
{ACAD_REACTORS
330
27B
102
}
330
27B
100
AcDbXrecord
 10
0.0
 20
0.0
 30
0.0
  0
XRECORD
  5
290
102
{ACAD_REACTORS
330
27B
102
}
330
27B
100
AcDbXrecord
 10
0.0
 20
0.0
 30
0.0
  0
XRECORD
  5
28E
102
{ACAD_REACTORS
330
27B
102
}
330
27B
100
AcDbXrecord
 10
0.0
 20
0.0
 30
0.0
  0
XRECORD
  5
28F
102
{ACAD_REACTORS
330
27B
102
}
330
27B
100
AcDbXrecord
 10
0.0
 20
0.0
 30
0.0
  0
XRECORD
  5
28C
102
{ACAD_REACTORS
330
27B
102
}
330
27B
100
AcDbXrecord
 10
0.0
 20
0.0
 30
0.0
  0
XRECORD
  5
289
102
{ACAD_REACTORS
330
27B
102
}
330
27B
100
AcDbXrecord
340
0
  0
XRECORD
  5
28A
102
{ACAD_REACTORS
330
27B
102
}
330
27B
100
AcDbXrecord
 70
     0
  0
XRECORD
  5
27F
102
{ACAD_REACTORS
330
27B
102
}
330
27B
100
AcDbXrecord
  1

  0
XRECORD
  5
27C
102
{ACAD_REACTORS
330
27B
102
}
330
27B
100
AcDbXrecord
 90
        1
  0
XRECORD
  5
27D
102
{ACAD_REACTORS
330
27B
102
}
330
27B
100
AcDbXrecord
 90
       70
  0
XRECORD
  5
294
102
{ACAD_REACTORS
330
27B
102
}
330
27B
100
AcDbXrecord
340
0
  0
XRECORD
  5
29A
102
{ACAD_REACTORS
330
27B
102
}
330
27B
100
AcDbXrecord
 10
0.0
 20
0.0
 30
0.0
  0
XRECORD
  5
296
102
{ACAD_REACTORS
330
27B
102
}
330
27B
100
AcDbXrecord
 10
0.0
 20
0.0
 30
0.0
  0
XRECORD
  5
299
102
{ACAD_REACTORS
330
27B
102
}
330
27B
100
AcDbXrecord
 10
0.0
 20
0.0
 30
0.0
  0
XRECORD
  5
297
102
{ACAD_REACTORS
330
27B
102
}
330
27B
100
AcDbXrecord
 10
0.0
 20
0.0
 30
0.0
  0
XRECORD
  5
298
102
{ACAD_REACTORS
330
27B
102
}
330
27B
100
AcDbXrecord
 10
0.0
 20
0.0
 30
0.0
  0
XRECORD
  5
295
102
{ACAD_REACTORS
330
27B
102
}
330
27B
100
AcDbXrecord
 10
0.0
 20
0.0
 30
0.0
  0
XRECORD
  5
292
102
{ACAD_REACTORS
330
27B
102
}
330
27B
100
AcDbXrecord
340
0
  0
XRECORD
  5
293
102
{ACAD_REACTORS
330
27B
102
}
330
27B
100
AcDbXrecord
 70
     0
  0
XRECORD
  5
287
102
{ACAD_REACTORS
330
27B
102
}
330
27B
100
AcDbXrecord
  1
{FAEB1C32-E019-11D5-929B-00C0DF256EC4}
  0
DICTIONARYVAR
  5
2A5
102
{ACAD_REACTORS
330
29C
102
}
330
29C
100
DictionaryVariables
280
     0
  1
1:1
  0
DICTIONARYVAR
  5
29E
102
{ACAD_REACTORS
330
29C
102
}
330
29C
100
DictionaryVariables
280
     0
  1
Standard
  0
DICTIONARYVAR
  5
29D
102
{ACAD_REACTORS
330
29C
102
}
330
29C
100
DictionaryVariables
280
     0
  1
Standard
  0
DICTIONARYVAR
  5
2A1
102
{ACAD_REACTORS
330
29C
102
}
330
29C
100
DictionaryVariables
280
     0
  1
2
  0
DICTIONARYVAR
  5
2A2
102
{ACAD_REACTORS
330
29C
102
}
330
29C
100
DictionaryVariables
280
     0
  1
1
  0
DICTIONARYVAR
  5
2A6
102
{ACAD_REACTORS
330
29C
102
}
330
29C
100
DictionaryVariables
280
     0
  1
1
  0
DICTIONARY
  5
2A9
330
45
100
AcDbDictionary
280
     1
  3
ACAD_XREC_ROUNDTRIP
360
2AA
  0
DICTIONARY
  5
2A7
330
44
100
AcDbDictionary
280
     1
  3
ACAD_XREC_ROUNDTRIP
360
2A8
  0
DICTIONARY
  5
2AB
330
46
100
AcDbDictionary
280
     1
  3
ACAD_XREC_ROUNDTRIP
360
2AC
  0
XRECORD
  5
2AA
102
{ACAD_REACTORS
330
2A9
102
}
330
2A9
100
AcDbXrecord
102
MATERIAL
148
0.0
149
0.0
149
0.0
 93
        0
 94
      127
282
     0
 72
     1
 77
     1
171
     1
175
     1
179
     1
273
     0
  0
XRECORD
  5
2A8
102
{ACAD_REACTORS
330
2A7
102
}
330
2A7
100
AcDbXrecord
102
MATERIAL
148
0.0
149
0.0
149
0.0
 93
        0
 94
      127
282
     0
 72
     1
 77
     1
171
     1
175
     1
179
     1
273
     0
  0
XRECORD
  5
2AC
102
{ACAD_REACTORS
330
2AB
102
}
330
2AB
100
AcDbXrecord
102
MATERIAL
148
0.0
149
0.0
149
0.0
 93
        0
 94
      127
282
     0
 72
     1
 77
     1
171
     1
175
     1
179
     1
273
     0
  0
ENDSEC
  0
EOF
