  0
SECTION
  2
HEADER
  9
$ACADVER
  1
AC1009
  9
$EXTMIN
 10
0.0
 20
0.0
 30
0.0
  9
$EXTMAX
 10
1000.0
 20
1000.0
 30
0.0
  9
$FILLMODE
 70
 0
  9
$SPLFRAME
 70
 1
  0
ENDSEC
  0
SECTION
  2
TABLES
  0
TABLE
  2
LAYER
 70
1
  0
LAYER
  2
0
 70
     0
 62
     7
  6
CONTINUOUS
  0
ENDTAB
  0
ENDSEC
  0
SECTION
  2
ENTITIES
  0
POLYLINE
  8
0
 62
     20
 66
     1
 10
0
 20
0
 30
0.0
 70
     1
 40
0
 41
0
  0
VERTEX
  8
0
 10
4.62511
 20
0.383192
 30
0.0
 40
0
 41
0
  0
VERTEX
  8
0
 10
4.62511
 20
0.381944
 30
0.0
 40
0
 41
0
  0
VERTEX
  8
0
 10
4.62511
 20
3.06944
 30
0.0
 40
0
 41
0
  0
VERTEX
  8
0
 10
0.000108507
 20
3.06944
 30
0.0
 40
0
 41
0
  0
VERTEX
  8
0
 10
0.000108507
 20
0.381944
 30
0.0
 40
0
 41
0
  0
VERTEX
  8
0
 10
0.000108507
 20
0.383192
 30
0.0
 40
0
 41
0
  0
VERTEX
  8
0
 10
4.62511
 20
0.383192
 30
0.0
 40
0
 41
0
  0
SEQEND
 8
0
  0
POLYLINE
  8
0
 62
     20
 66
     1
 10
0
 20
0
 30
0.0
 70
     1
 40
0
 41
0
  0
VERTEX
  8
0
 10
0.125108
 20
0.672038
 30
0.0
 40
0
 41
0
  0
VERTEX
  8
0
 10
0.137261
 20
0.657824
 30
0.0
 40
0
 41
0
  0
VERTEX
  8
0
 10
0.263781
 20
0.520508
 30
0.0
 40
0
 41
0
  0
VERTEX
  8
0
 10
0.276964
 20
0.507269
 30
0.0
 40
0
 41
0
  0
VERTEX
  8
0
 10
0.125217
 20
0.507269
 30
0.0
 40
0
 41
0
  0
VERTEX
  8
0
 10
0.125108
 20
0.672038
 30
0.0
 40
0
 41
0
  0
SEQEND
 8
0
  0
POLYLINE
  8
0
 62
     20
 66
     1
 10
0
 20
0
 30
0.0
 70
     1
 40
0
 41
0
  0
VERTEX
  8
0
 10
4.44917
 20
0.507269
 30
0.0
 40
0
 41
0
  0
VERTEX
  8
0
 10
4.27919
 20
0.507269
 30
0.0
 40
0
 41
0
  0
VERTEX
  8
0
 10
4.29878
 20
0.52691
 30
0.0
 40
0
 41
0
  0
VERTEX
  8
0
 10
4.48281
 20
0.73405
 30
0.0
 40
0
 41
0
  0
VERTEX
  8
0
 10
4.5
 20
0.755806
 30
0.0
 40
0
 41
0
  0
VERTEX
  8
0
 10
4.5
 20
0.563585
 30
0.0
 40
0
 41
0
  0
VERTEX
  8
0
 10
4.49582
 20
0.558811
 30
0.0
 40
0
 41
0
  0
VERTEX
  8
0
 10
4.45356
 20
0.511882
 30
0.0
 40
0
 41
0
  0
VERTEX
  8
0
 10
4.44928
 20
0.507269
 30
0.0
 40
0
 41
0
  0
VERTEX
  8
0
 10
4.44917
 20
0.507269
 30
0.0
 40
0
 41
0
  0
SEQEND
 8
0
  0
POLYLINE
  8
0
 62
     20
 66
     1
 10
0
 20
0
 30
0.0
 70
     1
 40
0
 41
0
  0
VERTEX
  8
0
 10
4.10101
 20
0.507269
 30
0.0
 40
0
 41
0
  0
VERTEX
  8
0
 10
3.91342
 20
0.507269
 30
0.0
 40
0
 41
0
  0
VERTEX
  8
0
 10
3.95714
 20
0.543078
 30
0.0
 40
0
 41
0
  0
VERTEX
  8
0
 10
4.08208
 20
0.658149
 30
0.0
 40
0
 41
0
  0
VERTEX
  8
0
 10
4.23676
 20
0.822808
 30
0.0
 40
0
 41
0
  0
VERTEX
  8
0
 10
4.37646
 20
1.00032
 30
0.0
 40
0
 41
0
  0
VERTEX
  8
0
 10
4.47157
 20
1.14111
 30
0.0
 40
0
 41
0
  0
VERTEX
  8
0
 10
4.50043
 20
1.18967
 30
0.0
 40
0
 41
0
  0
VERTEX
  8
0
 10
4.50043
 20
0.962457
 30
0.0
 40
0
 41
0
  0
VERTEX
  8
0
 10
4.47146
 20
0.920953
 30
0.0
 40
0
 41
0
  0
VERTEX
  8
0
 10
4.31337
 20
0.723742
 30
0.0
 40
0
 41
0
  0
VERTEX
  8
0
 10
4.13835
 20
0.541396
 30
0.0
 40
0
 41
0
  0
VERTEX
  8
0
 10
4.10092
 20
0.507269
 30
0.0
 40
0
 41
0
  0
VERTEX
  8
0
 10
4.10101
 20
0.507269
 30
0.0
 40
0
 41
0
  0
SEQEND
 8
0
  0
POLYLINE
  8
0
 62
     20
 66
     1
 10
0
 20
0
 30
0.0
 70
     1
 40
0
 41
0
  0
VERTEX
  8
0
 10
3.71094
 20
0.507269
 30
0.0
 40
0
 41
0
  0
VERTEX
  8
0
 10
3.48822
 20
0.507269
 30
0.0
 40
0
 41
0
  0
VERTEX
  8
0
 10
3.53288
 20
0.534343
 30
0.0
 40
0
 41
0
  0
VERTEX
  8
0
 10
3.66206
 20
0.623589
 30
0.0
 40
0
 41
0
  0
VERTEX
  8
0
 10
3.82394
 20
0.754178
 30
0.0
 40
0
 41
0
  0
VERTEX
  8
0
 10
3.97304
 20
0.898004
 30
0.0
 40
0
 41
0
  0
VERTEX
  8
0
 10
4.10856
 20
1.05409
 30
0.0
 40
0
 41
0
  0
VERTEX
  8
0
 10
4.22976
 20
1.22163
 30
0.0
 40
0
 41
0
  0
VERTEX
  8
0
 10
4.33594
 20
1.39947
 30
0.0
 40
0
 41
0
  0
VERTEX
  8
0
 10
4.42626
 20
1.58681
 30
0.0
 40
0
 41
0
  0
VERTEX
  8
0
 10
4.48378
 20
1.73292
 30
0.0
 40
0
 41
0
  0
VERTEX
  8
0
 10
4.5
 20
1.78256
 30
0.0
 40
0
 41
0
  0
VERTEX
  8
0
 10
4.5
 20
1.45068
 30
0.0
 40
0
 41
0
  0
VERTEX
  8
0
 10
4.46664
 20
1.38064
 30
0.0
 40
0
 41
0
  0
VERTEX
  8
0
 10
4.34874
 20
1.17877
 30
0.0
 40
0
 41
0
  0
VERTEX
  8
0
 10
4.16525
 20
0.929036
 30
0.0
 40
0
 41
0
  0
VERTEX
  8
0
 10
3.95188
 20
0.704264
 30
0.0
 40
0
 41
0
  0
VERTEX
  8
0
 10
3.77408
 20
0.552518
 30
0.0
 40
0
 41
0
  0
VERTEX
  8
0
 10
3.71104
 20
0.507269
 30
0.0
 40
0
 41
0
  0
VERTEX
  8
0
 10
3.71094
 20
0.507269
 30
0.0
 40
0
 41
0
  0
SEQEND
 8
0
  0
POLYLINE
  8
0
 62
     20
 66
     1
 10
0
 20
0
 30
0.0
 70
     1
 40
0
 41
0
  0
VERTEX
  8
0
 10
2.278
 20
1.89165
 30
0.0
 40
0
 41
0
  0
VERTEX
  8
0
 10
2.29943
 20
1.8916
 30
0.0
 40
0
 41
0
  0
VERTEX
  8
0
 10
2.40528
 20
1.90462
 30
0.0
 40
0
 41
0
  0
VERTEX
  8
0
 10
2.50743
 20
1.93511
 30
0.0
 40
0
 41
0
  0
VERTEX
  8
0
 10
2.52707
 20
1.94374
 30
0.0
 40
0
 41
0
  0
VERTEX
  8
0
 10
2.75624
 20
1.94374
 30
0.0
 40
0
 41
0
  0
VERTEX
  8
0
 10
2.73096
 20
1.92225
 30
0.0
 40
0
 41
0
  0
VERTEX
  8
0
 10
2.6474
 20
1.86692
 30
0.0
 40
0
 41
0
  0
VERTEX
  8
0
 10
2.52946
 20
1.81201
 30
0.0
 40
0
 41
0
  0
VERTEX
  8
0
 10
2.40554
 20
1.77908
 30
0.0
 40
0
 41
0
  0
VERTEX
  8
0
 10
2.27854
 20
1.76813
 30
0.0
 40
0
 41
0
  0
VERTEX
  8
0
 10
2.15153
 20
1.77908
 30
0.0
 40
0
 41
0
  0
VERTEX
  8
0
 10
2.02756
 20
1.81201
 30
0.0
 40
0
 41
0
  0
VERTEX
  8
0
 10
1.90967
 20
1.86692
 30
0.0
 40
0
 41
0
  0
VERTEX
  8
0
 10
1.82607
 20
1.92225
 30
0.0
 40
0
 41
0
  0
VERTEX
  8
0
 10
1.80083
 20
1.94374
 30
0.0
 40
0
 41
0
  0
VERTEX
  8
0
 10
2.03
 20
1.94374
 30
0.0
 40
0
 41
0
  0
VERTEX
  8
0
 10
2.04953
 20
1.93517
 30
0.0
 40
0
 41
0
  0
VERTEX
  8
0
 10
2.15126
 20
1.90479
 30
0.0
 40
0
 41
0
  0
VERTEX
  8
0
 10
2.25663
 20
1.89165
 30
0.0
 40
0
 41
0
  0
VERTEX
  8
0
 10
2.278
 20
1.89165
 30
0.0
 40
0
 41
0
  0
SEQEND
 8
0
  0
POLYLINE
  8
0
 62
     20
 66
     1
 10
0
 20
0
 30
0.0
 70
     1
 40
0
 41
0
  0
VERTEX
  8
0
 10
1.62636
 20
1.94374
 30
0.0
 40
0
 41
0
  0
VERTEX
  8
0
 10
1.65642
 20
1.90886
 30
0.0
 40
0
 41
0
  0
VERTEX
  8
0
 10
1.76193
 20
1.81717
 30
0.0
 40
0
 41
0
  0
VERTEX
  8
0
 10
1.9196
 20
1.72342
 30
0.0
 40
0
 41
0
  0
VERTEX
  8
0
 10
2.09353
 20
1.66521
 30
0.0
 40
0
 41
0
  0
VERTEX
  8
0
 10
2.23188
 20
1.64518
 30
0.0
 40
0
 41
0
  0
VERTEX
  8
0
 10
2.278
 20
1.64518
 30
0.0
 40
0
 41
0
  0
VERTEX
  8
0
 10
2.32406
 20
1.64518
 30
0.0
 40
0
 41
0
  0
VERTEX
  8
0
 10
2.4624
 20
1.66521
 30
0.0
 40
0
 41
0
  0
VERTEX
  8
0
 10
2.63639
 20
1.72342
 30
0.0
 40
0
 41
0
  0
VERTEX
  8
0
 10
2.79406
 20
1.81717
 30
0.0
 40
0
 41
0
  0
VERTEX
  8
0
 10
2.89958
 20
1.90886
 30
0.0
 40
0
 41
0
  0
VERTEX
  8
0
 10
2.92969
 20
1.94374
 30
0.0
 40
0
 41
0
  0
VERTEX
  8
0
 10
3.08539
 20
1.94374
 30
0.0
 40
0
 41
0
  0
VERTEX
  8
0
 10
3.05165
 20
1.89535
 30
0.0
 40
0
 41
0
  0
VERTEX
  8
0
 10
2.92686
 20
1.76654
 30
0.0
 40
0
 41
0
  0
VERTEX
  8
0
 10
2.7334
 20
1.63406
 30
0.0
 40
0
 41
0
  0
VERTEX
  8
0
 10
2.51411
 20
1.55111
 30
0.0
 40
0
 41
0
  0
VERTEX
  8
0
 10
2.33708
 20
1.52235
 30
0.0
 40
0
 41
0
  0
VERTEX
  8
0
 10
2.2781
 20
1.52235
 30
0.0
 40
0
 41
0
  0
VERTEX
  8
0
 10
2.21907
 20
1.52235
 30
0.0
 40
0
 41
0
  0
VERTEX
  8
0
 10
2.04204
 20
1.55111
 30
0.0
 40
0
 41
0
  0
VERTEX
  8
0
 10
1.82275
 20
1.63406
 30
0.0
 40
0
 41
0
  0
VERTEX
  8
0
 10
1.62929
 20
1.76654
 30
0.0
 40
0
 41
0
  0
VERTEX
  8
0
 10
1.5045
 20
1.89535
 30
0.0
 40
0
 41
0
  0
VERTEX
  8
0
 10
1.47081
 20
1.94374
 30
0.0
 40
0
 41
0
  0
VERTEX
  8
0
 10
1.62636
 20
1.94374
 30
0.0
 40
0
 41
0
  0
SEQEND
 8
0
  0
POLYLINE
  8
0
 62
     20
 66
     1
 10
0
 20
0
 30
0.0
 70
     1
 40
0
 41
0
  0
VERTEX
  8
0
 10
2.278
 20
1.39974
 30
0.0
 40
0
 41
0
  0
VERTEX
  8
0
 10
2.31429
 20
1.39974
 30
0.0
 40
0
 41
0
  0
VERTEX
  8
0
 10
2.42329
 20
1.40924
 30
0.0
 40
0
 41
0
  0
VERTEX
  8
0
 10
2.56429
 20
1.43722
 30
0.0
 40
0
 41
0
  0
VERTEX
  8
0
 10
2.69943
 20
1.48286
 30
0.0
 40
0
 41
0
  0
VERTEX
  8
0
 10
2.8271
 20
1.54525
 30
0.0
 40
0
 41
0
  0
VERTEX
  8
0
 10
2.94569
 20
1.62349
 30
0.0
 40
0
 41
0
  0
VERTEX
  8
0
 10
3.05365
 20
1.71669
 30
0.0
 40
0
 41
0
  0
VERTEX
  8
0
 10
3.14942
 20
1.82389
 30
0.0
 40
0
 41
0
  0
VERTEX
  8
0
 10
3.213
 20
1.91292
 30
0.0
 40
0
 41
0
  0
VERTEX
  8
0
 10
3.23144
 20
1.94422
 30
0.0
 40
0
 41
0
  0
VERTEX
  8
0
 10
3.37175
 20
1.94422
 30
0.0
 40
0
 41
0
  0
VERTEX
  8
0
 10
3.35221
 20
1.90636
 30
0.0
 40
0
 41
0
  0
VERTEX
  8
0
 10
3.28304
 20
1.79801
 30
0.0
 40
0
 41
0
  0
VERTEX
  8
0
 10
3.1766
 20
1.66726
 30
0.0
 40
0
 41
0
  0
VERTEX
  8
0
 10
3.05442
 20
1.55322
 30
0.0
 40
0
 41
0
  0
VERTEX
  8
0
 10
2.91851
 20
1.45719
 30
0.0
 40
0
 41
0
  0
VERTEX
  8
0
 10
2.77089
 20
1.38037
 30
0.0
 40
0
 41
0
  0
VERTEX
  8
0
 10
2.61356
 20
1.32395
 30
0.0
 40
0
 41
0
  0
VERTEX
  8
0
 10
2.44857
 20
1.28917
 30
0.0
 40
0
 41
0
  0
VERTEX
  8
0
 10
2.32064
 20
1.27729
 30
0.0
 40
0
 41
0
  0
VERTEX
  8
0
 10
2.278
 20
1.27729
 30
0.0
 40
0
 41
0
  0
VERTEX
  8
0
 10
2.23529
 20
1.27729
 30
0.0
 40
0
 41
0
  0
VERTEX
  8
0
 10
2.10736
 20
1.28917
 30
0.0
 40
0
 41
0
  0
VERTEX
  8
0
 10
1.94239
 20
1.32395
 30
0.0
 40
0
 41
0
  0
VERTEX
  8
0
 10
1.7851
 20
1.38037
 30
0.0
 40
0
 41
0
  0
VERTEX
  8
0
 10
1.63747
 20
1.45719
 30
0.0
 40
0
 41
0
  0
VERTEX
  8
0
 10
1.50151
 20
1.55322
 30
0.0
 40
0
 41
0
  0
VERTEX
  8
0
 10
1.37934
 20
1.66726
 30
0.0
 40
0
 41
0
  0
VERTEX
  8
0
 10
1.27289
 20
1.79801
 30
0.0
 40
0
 41
0
  0
VERTEX
  8
0
 10
1.20372
 20
1.90636
 30
0.0
 40
0
 41
0
  0
VERTEX
  8
0
 10
1.18424
 20
1.94422
 30
0.0
 40
0
 41
0
  0
VERTEX
  8
0
 10
1.32471
 20
1.94422
 30
0.0
 40
0
 41
0
  0
VERTEX
  8
0
 10
1.3431
 20
1.91297
 30
0.0
 40
0
 41
0
  0
VERTEX
  8
0
 10
1.40668
 20
1.82394
 30
0.0
 40
0
 41
0
  0
VERTEX
  8
0
 10
1.50244
 20
1.71674
 30
0.0
 40
0
 41
0
  0
VERTEX
  8
0
 10
1.6104
 20
1.62358
 30
0.0
 40
0
 41
0
  0
VERTEX
  8
0
 10
1.729
 20
1.54536
 30
0.0
 40
0
 41
0
  0
VERTEX
  8
0
 10
1.85661
 20
1.48296
 30
0.0
 40
0
 41
0
  0
VERTEX
  8
0
 10
1.99169
 20
1.43728
 30
0.0
 40
0
 41
0
  0
VERTEX
  8
0
 10
2.13271
 20
1.40924
 30
0.0
 40
0
 41
0
  0
VERTEX
  8
0
 10
2.24164
 20
1.39974
 30
0.0
 40
0
 41
0
  0
VERTEX
  8
0
 10
2.278
 20
1.39974
 30
0.0
 40
0
 41
0
  0
SEQEND
 8
0
  0
POLYLINE
  8
0
 62
     20
 66
     1
 10
0
 20
0
 30
0.0
 70
     1
 40
0
 41
0
  0
VERTEX
  8
0
 10
2.278
 20
1.15392
 30
0.0
 40
0
 41
0
  0
VERTEX
  8
0
 10
2.32693
 20
1.15392
 30
0.0
 40
0
 41
0
  0
VERTEX
  8
0
 10
2.4739
 20
1.16802
 30
0.0
 40
0
 41
0
  0
VERTEX
  8
0
 10
2.66276
 20
1.20953
 30
0.0
 40
0
 41
0
  0
VERTEX
  8
0
 10
2.84212
 20
1.2768
 30
0.0
 40
0
 41
0
  0
VERTEX
  8
0
 10
3.00944
 20
1.36827
 30
0.0
 40
0
 41
0
  0
VERTEX
  8
0
 10
3.16222
 20
1.48236
 30
0.0
 40
0
 41
0
  0
VERTEX
  8
0
 10
3.29801
 20
1.61746
 30
0.0
 40
0
 41
0
  0
VERTEX
  8
0
 10
3.41428
 20
1.77197
 30
0.0
 40
0
 41
0
  0
VERTEX
  8
0
 10
3.48828
 20
1.89968
 30
0.0
 40
0
 41
0
  0
VERTEX
  8
0
 10
3.50863
 20
1.94422
 30
0.0
 40
0
 41
0
  0
VERTEX
  8
0
 10
3.64258
 20
1.94422
 30
0.0
 40
0
 41
0
  0
VERTEX
  8
0
 10
3.62147
 20
1.89324
 30
0.0
 40
0
 41
0
  0
VERTEX
  8
0
 10
3.54297
 20
1.74636
 30
0.0
 40
0
 41
0
  0
VERTEX
  8
0
 10
3.41721
 20
1.56853
 30
0.0
 40
0
 41
0
  0
VERTEX
  8
0
 10
3.26818
 20
1.41254
 30
0.0
 40
0
 41
0
  0
VERTEX
  8
0
 10
3.0989
 20
1.28054
 30
0.0
 40
0
 41
0
  0
VERTEX
  8
0
 10
2.91228
 20
1.17443
 30
0.0
 40
0
 41
0
  0
VERTEX
  8
0
 10
2.71132
 20
1.09619
 30
0.0
 40
0
 41
0
  0
VERTEX
  8
0
 10
2.49886
 20
1.0478
 30
0.0
 40
0
 41
0
  0
VERTEX
  8
0
 10
2.33317
 20
1.0312
 30
0.0
 40
0
 41
0
  0
VERTEX
  8
0
 10
2.278
 20
1.0312
 30
0.0
 40
0
 41
0
  0
VERTEX
  8
0
 10
2.22276
 20
1.0312
 30
0.0
 40
0
 41
0
  0
VERTEX
  8
0
 10
2.05707
 20
1.0478
 30
0.0
 40
0
 41
0
  0
VERTEX
  8
0
 10
1.84467
 20
1.09619
 30
0.0
 40
0
 41
0
  0
VERTEX
  8
0
 10
1.64367
 20
1.17443
 30
0.0
 40
0
 41
0
  0
VERTEX
  8
0
 10
1.45708
 20
1.28054
 30
0.0
 40
0
 41
0
  0
VERTEX
  8
0
 10
1.28776
 20
1.41254
 30
0.0
 40
0
 41
0
  0
VERTEX
  8
0
 10
1.13878
 20
1.56853
 30
0.0
 40
0
 41
0
  0
VERTEX
  8
0
 10
1.01297
 20
1.74636
 30
0.0
 40
0
 41
0
  0
VERTEX
  8
0
 10
0.934463
 20
1.89324
 30
0.0
 40
0
 41
0
  0
VERTEX
  8
0
 10
0.913411
 20
1.94422
 30
0.0
 40
0
 41
0
  0
VERTEX
  8
0
 10
1.04753
 20
1.94422
 30
0.0
 40
0
 41
0
  0
VERTEX
  8
0
 10
1.06782
 20
1.89974
 30
0.0
 40
0
 41
0
  0
VERTEX
  8
0
 10
1.14182
 20
1.77197
 30
0.0
 40
0
 41
0
  0
VERTEX
  8
0
 10
1.25808
 20
1.61751
 30
0.0
 40
0
 41
0
  0
VERTEX
  8
0
 10
1.39382
 20
1.48242
 30
0.0
 40
0
 41
0
  0
VERTEX
  8
0
 10
1.5466
 20
1.36833
 30
0.0
 40
0
 41
0
  0
VERTEX
  8
0
 10
1.71392
 20
1.27686
 30
0.0
 40
0
 41
0
  0
VERTEX
  8
0
 10
1.89324
 20
1.20953
 30
0.0
 40
0
 41
0
  0
VERTEX
  8
0
 10
2.08208
 20
1.16808
 30
0.0
 40
0
 41
0
  0
VERTEX
  8
0
 10
2.229
 20
1.15392
 30
0.0
 40
0
 41
0
  0
VERTEX
  8
0
 10
2.278
 20
1.15392
 30
0.0
 40
0
 41
0
  0
SEQEND
 8
0
  0
POLYLINE
  8
0
 62
     20
 66
     1
 10
0
 20
0
 30
0.0
 70
     1
 40
0
 41
0
  0
VERTEX
  8
0
 10
0.781358
 20
1.94422
 30
0.0
 40
0
 41
0
  0
VERTEX
  8
0
 10
0.802951
 20
1.88672
 30
0.0
 40
0
 41
0
  0
VERTEX
  8
0
 10
0.885633
 20
1.72076
 30
0.0
 40
0
 41
0
  0
VERTEX
  8
0
 10
1.0204
 20
1.51932
 30
0.0
 40
0
 41
0
  0
VERTEX
  8
0
 10
1.18229
 20
1.34239
 30
0.0
 40
0
 41
0
  0
VERTEX
  8
0
 10
1.36784
 20
1.19233
 30
0.0
 40
0
 41
0
  0
VERTEX
  8
0
 10
1.57363
 20
1.07145
 30
0.0
 40
0
 41
0
  0
VERTEX
  8
0
 10
1.79617
 20
0.982206
 30
0.0
 40
0
 41
0
  0
VERTEX
  8
0
 10
2.03217
 20
0.926921
 30
0.0
 40
0
 41
0
  0
VERTEX
  8
0
 10
2.21658
 20
0.907932
 30
0.0
 40
0
 41
0
  0
VERTEX
  8
0
 10
2.2781
 20
0.907932
 30
0.0
 40
0
 41
0
  0
VERTEX
  8
0
 10
2.33957
 20
0.907932
 30
0.0
 40
0
 41
0
  0
VERTEX
  8
0
 10
2.52403
 20
0.926921
 30
0.0
 40
0
 41
0
  0
VERTEX
  8
0
 10
2.75999
 20
0.982206
 30
0.0
 40
0
 41
0
  0
VERTEX
  8
0
 10
2.98258
 20
1.07145
 30
0.0
 40
0
 41
0
  0
VERTEX
  8
0
 10
3.18838
 20
1.19233
 30
0.0
 40
0
 41
0
  0
VERTEX
  8
0
 10
3.37386
 20
1.34239
 30
0.0
 40
0
 41
0
  0
VERTEX
  8
0
 10
3.53575
 20
1.51932
 30
0.0
 40
0
 41
0
  0
VERTEX
  8
0
 10
3.67057
 20
1.72076
 30
0.0
 40
0
 41
0
  0
VERTEX
  8
0
 10
3.75325
 20
1.88672
 30
0.0
 40
0
 41
0
  0
VERTEX
  8
0
 10
3.7749
 20
1.94422
 30
0.0
 40
0
 41
0
  0
VERTEX
  8
0
 10
3.9056
 20
1.94422
 30
0.0
 40
0
 41
0
  0
VERTEX
  8
0
 10
3.88346
 20
1.88026
 30
0.0
 40
0
 41
0
  0
VERTEX
  8
0
 10
3.79688
 20
1.69526
 30
0.0
 40
0
 41
0
  0
VERTEX
  8
0
 10
3.65332
 20
1.47043
 30
0.0
 40
0
 41
0
  0
VERTEX
  8
0
 10
3.47879
 20
1.27257
 30
0.0
 40
0
 41
0
  0
VERTEX
  8
0
 10
3.27718
 20
1.10444
 30
0.0
 40
0
 41
0
  0
VERTEX
  8
0
 10
3.0524
 20
0.968858
 30
0.0
 40
0
 41
0
  0
VERTEX
  8
0
 10
2.80838
 20
0.868599
 30
0.0
 40
0
 41
0
  0
VERTEX
  8
0
 10
2.54893
 20
0.806369
 30
0.0
 40
0
 41
0
  0
VERTEX
  8
0
 10
2.34581
 20
0.784993
 30
0.0
 40
0
 41
0
  0
VERTEX
  8
0
 10
2.2781
 20
0.784993
 30
0.0
 40
0
 41
0
  0
VERTEX
  8
0
 10
2.21035
 20
0.784993
 30
0.0
 40
0
 41
0
  0
VERTEX
  8
0
 10
2.00722
 20
0.806369
 30
0.0
 40
0
 41
0
  0
VERTEX
  8
0
 10
1.74783
 20
0.868599
 30
0.0
 40
0
 41
0
  0
VERTEX
  8
0
 10
1.50379
 20
0.968858
 30
0.0
 40
0
 41
0
  0
VERTEX
  8
0
 10
1.27902
 20
1.10444
 30
0.0
 40
0
 41
0
  0
VERTEX
  8
0
 10
1.07742
 20
1.27257
 30
0.0
 40
0
 41
0
  0
VERTEX
  8
0
 10
0.902886
 20
1.47043
 30
0.0
 40
0
 41
0
  0
VERTEX
  8
0
 10
0.759278
 20
1.69526
 30
0.0
 40
0
 41
0
  0
VERTEX
  8
0
 10
0.672689
 20
1.88026
 30
0.0
 40
0
 41
0
  0
VERTEX
  8
0
 10
0.650608
 20
1.94422
 30
0.0
 40
0
 41
0
  0
VERTEX
  8
0
 10
0.781358
 20
1.94422
 30
0.0
 40
0
 41
0
  0
SEQEND
 8
0
  0
POLYLINE
  8
0
 62
     20
 66
     1
 10
0
 20
0
 30
0.0
 70
     1
 40
0
 41
0
  0
VERTEX
  8
0
 10
0.520942
 20
1.94422
 30
0.0
 40
0
 41
0
  0
VERTEX
  8
0
 10
0.543457
 20
1.87386
 30
0.0
 40
0
 41
0
  0
VERTEX
  8
0
 10
0.633789
 20
1.66982
 30
0.0
 40
0
 41
0
  0
VERTEX
  8
0
 10
0.785861
 20
1.4216
 30
0.0
 40
0
 41
0
  0
VERTEX
  8
0
 10
0.972874
 20
1.20285
 30
0.0
 40
0
 41
0
  0
VERTEX
  8
0
 10
1.19038
 20
1.01666
 30
0.0
 40
0
 41
0
  0
VERTEX
  8
0
 10
1.43403
 20
0.866319
 30
0.0
 40
0
 41
0
  0
VERTEX
  8
0
 10
1.69943
 20
0.754937
 30
0.0
 40
0
 41
0
  0
VERTEX
  8
0
 10
1.98221
 20
0.685764
 30
0.0
 40
0
 41
0
  0
VERTEX
  8
0
 10
2.20404
 20
0.662001
 30
0.0
 40
0
 41
0
  0
VERTEX
  8
0
 10
2.278
 20
0.662001
 30
0.0
 40
0
 41
0
  0
VERTEX
  8
0
 10
2.35189
 20
0.662001
 30
0.0
 40
0
 41
0
  0
VERTEX
  8
0
 10
2.57374
 20
0.685764
 30
0.0
 40
0
 41
0
  0
VERTEX
  8
0
 10
2.85656
 20
0.754937
 30
0.0
 40
0
 41
0
  0
VERTEX
  8
0
 10
3.12196
 20
0.866319
 30
0.0
 40
0
 41
0
  0
VERTEX
  8
0
 10
3.36561
 20
1.01666
 30
0.0
 40
0
 41
0
  0
VERTEX
  8
0
 10
3.58311
 20
1.20285
 30
0.0
 40
0
 41
0
  0
VERTEX
  8
0
 10
3.77013
 20
1.4216
 30
0.0
 40
0
 41
0
  0
VERTEX
  8
0
 10
3.92219
 20
1.66982
 30
0.0
 40
0
 41
0
  0
VERTEX
  8
0
 10
4.01253
 20
1.87386
 30
0.0
 40
0
 41
0
  0
VERTEX
  8
0
 10
4.0351
 20
1.94422
 30
0.0
 40
0
 41
0
  0
VERTEX
  8
0
 10
4.16342
 20
1.94422
 30
0.0
 40
0
 41
0
  0
VERTEX
  8
0
 10
4.14046
 20
1.86746
 30
0.0
 40
0
 41
0
  0
VERTEX
  8
0
 10
4.0466
 20
1.64447
 30
0.0
 40
0
 41
0
  0
VERTEX
  8
0
 10
3.88612
 20
1.37294
 30
0.0
 40
0
 41
0
  0
VERTEX
  8
0
 10
3.68679
 20
1.13325
 30
0.0
 40
0
 41
0
  0
VERTEX
  8
0
 10
3.4535
 20
0.929036
 30
0.0
 40
0
 41
0
  0
VERTEX
  8
0
 10
3.19108
 20
0.763889
 30
0.0
 40
0
 41
0
  0
VERTEX
  8
0
 10
2.9044
 20
0.641439
 30
0.0
 40
0
 41
0
  0
VERTEX
  8
0
 10
2.59831
 20
0.565321
 30
0.0
 40
0
 41
0
  0
VERTEX
  8
0
 10
2.35786
 20
0.539117
 30
0.0
 40
0
 41
0
  0
VERTEX
  8
0
 10
2.27772
 20
0.539117
 30
0.0
 40
0
 41
0
  0
VERTEX
  8
0
 10
2.19754
 20
0.539117
 30
0.0
 40
0
 41
0
  0
VERTEX
  8
0
 10
1.95703
 20
0.565321
 30
0.0
 40
0
 41
0
  0
VERTEX
  8
0
 10
1.65093
 20
0.641439
 30
0.0
 40
0
 41
0
  0
VERTEX
  8
0
 10
1.36426
 20
0.763889
 30
0.0
 40
0
 41
0
  0
VERTEX
  8
0
 10
1.10183
 20
0.929036
 30
0.0
 40
0
 41
0
  0
VERTEX
  8
0
 10
0.868544
 20
1.13325
 30
0.0
 40
0
 41
0
  0
VERTEX
  8
0
 10
0.669217
 20
1.37294
 30
0.0
 40
0
 41
0
  0
VERTEX
  8
0
 10
0.508735
 20
1.64447
 30
0.0
 40
0
 41
0
  0
VERTEX
  8
0
 10
0.414876
 20
1.86746
 30
0.0
 40
0
 41
0
  0
VERTEX
  8
0
 10
0.391982
 20
1.94422
 30
0.0
 40
0
 41
0
  0
VERTEX
  8
0
 10
0.520942
 20
1.94422
 30
0.0
 40
0
 41
0
  0
SEQEND
 8
0
  0
POLYLINE
  8
0
 62
     20
 66
     1
 10
0
 20
0
 30
0.0
 70
     1
 40
0
 41
0
  0
VERTEX
  8
0
 10
0.264268
 20
1.94422
 30
0.0
 40
0
 41
0
  0
VERTEX
  8
0
 10
0.282064
 20
1.88058
 30
0.0
 40
0
 41
0
  0
VERTEX
  8
0
 10
0.351617
 20
1.69401
 30
0.0
 40
0
 41
0
  0
VERTEX
  8
0
 10
0.468317
 20
1.45953
 30
0.0
 40
0
 41
0
  0
VERTEX
  8
0
 10
0.612304
 20
1.243
 30
0.0
 40
0
 41
0
  0
VERTEX
  8
0
 10
0.781413
 20
1.04671
 30
0.0
 40
0
 41
0
  0
VERTEX
  8
0
 10
0.973415
 20
0.872775
 30
0.0
 40
0
 41
0
  0
VERTEX
  8
0
 10
1.18631
 20
0.723415
 30
0.0
 40
0
 41
0
  0
VERTEX
  8
0
 10
1.41781
 20
0.600857
 30
0.0
 40
0
 41
0
  0
VERTEX
  8
0
 10
1.6026
 20
0.526693
 30
0.0
 40
0
 41
0
  0
VERTEX
  8
0
 10
1.66585
 20
0.507269
 30
0.0
 40
0
 41
0
  0
VERTEX
  8
0
 10
1.32699
 20
0.507269
 30
0.0
 40
0
 41
0
  0
VERTEX
  8
0
 10
1.27219
 20
0.533365
 30
0.0
 40
0
 41
0
  0
VERTEX
  8
0
 10
1.11355
 20
0.623699
 30
0.0
 40
0
 41
0
  0
VERTEX
  8
0
 10
0.915961
 20
0.761447
 30
0.0
 40
0
 41
0
  0
VERTEX
  8
0
 10
0.735406
 20
0.918892
 30
0.0
 40
0
 41
0
  0
VERTEX
  8
0
 10
0.573351
 20
1.0944
 30
0.0
 40
0
 41
0
  0
VERTEX
  8
0
 10
0.431099
 20
1.28635
 30
0.0
 40
0
 41
0
  0
VERTEX
  8
0
 10
0.310058
 20
1.49306
 30
0.0
 40
0
 41
0
  0
VERTEX
  8
0
 10
0.211589
 20
1.71294
 30
0.0
 40
0
 41
0
  0
VERTEX
  8
0
 10
0.152399
 20
1.88558
 30
0.0
 40
0
 41
0
  0
VERTEX
  8
0
 10
0.13699
 20
1.94422
 30
0.0
 40
0
 41
0
  0
VERTEX
  8
0
 10
0.264268
 20
1.94422
 30
0.0
 40
0
 41
0
  0
SEQEND
 8
0
  0
POLYLINE
  8
0
 62
     20
 66
     1
 10
0
 20
0
 30
0.0
 70
     1
 40
0
 41
0
  0
VERTEX
  8
0
 10
4.29178
 20
1.94422
 30
0.0
 40
0
 41
0
  0
VERTEX
  8
0
 10
4.41917
 20
1.94422
 30
0.0
 40
0
 41
0
  0
VERTEX
  8
0
 10
4.40369
 20
1.88558
 30
0.0
 40
0
 41
0
  0
VERTEX
  8
0
 10
4.34457
 20
1.71294
 30
0.0
 40
0
 41
0
  0
VERTEX
  8
0
 10
4.24604
 20
1.49311
 30
0.0
 40
0
 41
0
  0
VERTEX
  8
0
 10
4.125
 20
1.2864
 30
0.0
 40
0
 41
0
  0
VERTEX
  8
0
 10
3.98281
 20
1.09446
 30
0.0
 40
0
 41
0
  0
VERTEX
  8
0
 10
3.82075
 20
0.918946
 30
0.0
 40
0
 41
0
  0
VERTEX
  8
0
 10
3.64025
 20
0.761501
 30
0.0
 40
0
 41
0
  0
VERTEX
  8
0
 10
3.4426
 20
0.623699
 30
0.0
 40
0
 41
0
  0
VERTEX
  8
0
 10
3.28401
 20
0.533365
 30
0.0
 40
0
 41
0
  0
VERTEX
  8
0
 10
3.22928
 20
0.507269
 30
0.0
 40
0
 41
0
  0
VERTEX
  8
0
 10
2.8904
 20
0.507269
 30
0.0
 40
0
 41
0
  0
VERTEX
  8
0
 10
2.95361
 20
0.526693
 30
0.0
 40
0
 41
0
  0
VERTEX
  8
0
 10
3.1384
 20
0.600857
 30
0.0
 40
0
 41
0
  0
VERTEX
  8
0
 10
3.3699
 20
0.723415
 30
0.0
 40
0
 41
0
  0
VERTEX
  8
0
 10
3.58274
 20
0.872775
 30
0.0
 40
0
 41
0
  0
VERTEX
  8
0
 10
3.77474
 20
1.04671
 30
0.0
 40
0
 41
0
  0
VERTEX
  8
0
 10
3.94379
 20
1.243
 30
0.0
 40
0
 41
0
  0
VERTEX
  8
0
 10
4.08778
 20
1.45953
 30
0.0
 40
0
 41
0
  0
VERTEX
  8
0
 10
4.20454
 20
1.69401
 30
0.0
 40
0
 41
0
  0
VERTEX
  8
0
 10
4.27408
 20
1.88058
 30
0.0
 40
0
 41
0
  0
VERTEX
  8
0
 10
4.29189
 20
1.94422
 30
0.0
 40
0
 41
0
  0
VERTEX
  8
0
 10
4.29178
 20
1.94422
 30
0.0
 40
0
 41
0
  0
SEQEND
 8
0
  0
POLYLINE
  8
0
 62
     20
 66
     1
 10
0
 20
0
 30
0.0
 70
     1
 40
0
 41
0
  0
VERTEX
  8
0
 10
1.06803
 20
0.507269
 30
0.0
 40
0
 41
0
  0
VERTEX
  8
0
 10
0.845215
 20
0.507269
 30
0.0
 40
0
 41
0
  0
VERTEX
  8
0
 10
0.789768
 20
0.547037
 30
0.0
 40
0
 41
0
  0
VERTEX
  8
0
 10
0.632324
 20
0.678711
 30
0.0
 40
0
 41
0
  0
VERTEX
  8
0
 10
0.440212
 20
0.871963
 30
0.0
 40
0
 41
0
  0
VERTEX
  8
0
 10
0.270617
 20
1.08523
 30
0.0
 40
0
 41
0
  0
VERTEX
  8
0
 10
0.158257
 20
1.257
 30
0.0
 40
0
 41
0
  0
VERTEX
  8
0
 10
0.125217
 20
1.31662
 30
0.0
 40
0
 41
0
  0
VERTEX
  8
0
 10
0.125217
 20
1.59728
 30
0.0
 40
0
 41
0
  0
VERTEX
  8
0
 10
0.160807
 20
1.51307
 30
0.0
 40
0
 41
0
  0
VERTEX
  8
0
 10
0.294271
 20
1.27159
 30
0.0
 40
0
 41
0
  0
VERTEX
  8
0
 10
0.510688
 20
0.977974
 30
0.0
 40
0
 41
0
  0
VERTEX
  8
0
 10
0.770019
 20
0.721517
 30
0.0
 40
0
 41
0
  0
VERTEX
  8
0
 10
0.9898
 20
0.554688
 30
0.0
 40
0
 41
0
  0
VERTEX
  8
0
 10
1.06803
 20
0.507269
 30
0.0
 40
0
 41
0
  0
SEQEND
 8
0
  0
POLYLINE
  8
0
 62
     20
 66
     1
 10
0
 20
0
 30
0.0
 70
     1
 40
0
 41
0
  0
VERTEX
  8
0
 10
0.643229
 20
0.507269
 30
0.0
 40
0
 41
0
  0
VERTEX
  8
0
 10
0.455078
 20
0.507269
 30
0.0
 40
0
 41
0
  0
VERTEX
  8
0
 10
0.424914
 20
0.534776
 30
0.0
 40
0
 41
0
  0
VERTEX
  8
0
 10
0.281956
 20
0.680122
 30
0.0
 40
0
 41
0
  0
VERTEX
  8
0
 10
0.149903
 20
0.835449
 30
0.0
 40
0
 41
0
  0
VERTEX
  8
0
 10
0.125217
 20
0.867893
 30
0.0
 40
0
 41
0
  0
VERTEX
  8
0
 10
0.125217
 20
1.07986
 30
0.0
 40
0
 41
0
  0
VERTEX
  8
0
 10
0.160969
 20
1.02593
 30
0.0
 40
0
 41
0
  0
VERTEX
  8
0
 10
0.362739
 20
0.774143
 30
0.0
 40
0
 41
0
  0
VERTEX
  8
0
 10
0.593153
 20
0.548286
 30
0.0
 40
0
 41
0
  0
VERTEX
  8
0
 10
0.643229
 20
0.507269
 30
0.0
 40
0
 41
0
  0
SEQEND
 8
0
  0
POLYLINE
  8
0
 62
     9
 66
     1
 10
0
 20
0
 30
0.0
 70
     1
 40
0
 41
0
  0
VERTEX
  8
0
 10
0.000108507
 20
0.383192
 30
0.0
 40
0
 41
0
  0
VERTEX
  8
0
 10
4.62511
 20
0.383192
 30
0.0
 40
0
 41
0
  0
VERTEX
  8
0
 10
4.62511
 20
0.00819228
 30
0.0
 40
0
 41
0
  0
VERTEX
  8
0
 10
0.000108507
 20
0.00819228
 30
0.0
 40
0
 41
0
  0
VERTEX
  8
0
 10
0.000108507
 20
0.383192
 30
0.0
 40
0
 41
0
  0
SEQEND
 8
0
  0
ENDSEC
  0
EOF
