  0
SECTION
  2
HEADER
  9
$ACADVER
  1
AC1027
  9
$ACADMAINTVER
 70
   105
  9
$DWGCODEPAGE
  3
ANSI_1252
  9
$LASTSAVEDBY
  1
ian.thorley
  9
$REQUIREDVERSIONS
160
                 0
  9
$INSBASE
 10
0.0
 20
0.0
 30
0.0
  9
$EXTMIN
 10
0.0
 20
-0.3333333333333333
 30
0.0
  9
$EXTMAX
 10
2500.0
 20
1220.0
 30
0.000000000009215
  9
$LIMMIN
 10
0.0
 20
0.0
  9
$LIMMAX
 10
12.0
 20
9.0
  9
$ORTHOMODE
 70
     0
  9
$REGENMODE
 70
     1
  9
$FILLMODE
 70
     1
  9
$QTEXTMODE
 70
     0
  9
$MIRRTEXT
 70
     1
  9
$LTSCALE
 40
25.4
  9
$ATTMODE
 70
     1
  9
$TEXTSIZE
 40
0.2
  9
$TRACEWID
 40
0.05
  9
$TEXTSTYLE
  7
Standard
  9
$CLAYER
  8
0
  9
$CELTYPE
  6
ByLayer
  9
$CECOLOR
 62
   256
  9
$CELTSCALE
 40
1.0
  9
$DISPSILH
 70
     0
  9
$DIMSCALE
 40
1.0
  9
$DIMASZ
 40
0.18
  9
$DIMEXO
 40
0.0625
  9
$DIMDLI
 40
0.38
  9
$DIMRND
 40
0.0
  9
$DIMDLE
 40
0.0
  9
$DIMEXE
 40
0.18
  9
$DIMTP
 40
0.0
  9
$DIMTM
 40
0.0
  9
$DIMTXT
 40
0.18
  9
$DIMCEN
 40
0.09
  9
$DIMTSZ
 40
0.0
  9
$DIMTOL
 70
     0
  9
$DIMLIM
 70
     0
  9
$DIMTIH
 70
     1
  9
$DIMTOH
 70
     1
  9
$DIMSE1
 70
     0
  9
$DIMSE2
 70
     0
  9
$DIMTAD
 70
     0
  9
$DIMZIN
 70
     0
  9
$DIMBLK
  1

  9
$DIMASO
 70
     1
  9
$DIMSHO
 70
     1
  9
$DIMPOST
  1

  9
$DIMAPOST
  1

  9
$DIMALT
 70
     0
  9
$DIMALTD
 70
     2
  9
$DIMALTF
 40
25.4
  9
$DIMLFAC
 40
1.0
  9
$DIMTOFL
 70
     0
  9
$DIMTVP
 40
0.0
  9
$DIMTIX
 70
     0
  9
$DIMSOXD
 70
     0
  9
$DIMSAH
 70
     0
  9
$DIMBLK1
  1

  9
$DIMBLK2
  1

  9
$DIMSTYLE
  2
Standard
  9
$DIMCLRD
 70
    18
  9
$DIMCLRE
 70
    18
  9
$DIMCLRT
 70
    18
  9
$DIMTFAC
 40
1.0
  9
$DIMGAP
 40
0.09
  9
$DIMJUST
 70
     0
  9
$DIMSD1
 70
     0
  9
$DIMSD2
 70
     0
  9
$DIMTOLJ
 70
     1
  9
$DIMTZIN
 70
     0
  9
$DIMALTZ
 70
     0
  9
$DIMALTTZ
 70
     0
  9
$DIMUPT
 70
     0
  9
$DIMDEC
 70
     4
  9
$DIMTDEC
 70
     4
  9
$DIMALTU
 70
     2
  9
$DIMALTTD
 70
     2
  9
$DIMTXSTY
  7
Standard
  9
$DIMAUNIT
 70
     0
  9
$DIMADEC
 70
     0
  9
$DIMALTRND
 40
0.0
  9
$DIMAZIN
 70
     0
  9
$DIMDSEP
 70
    46
  9
$DIMATFIT
 70
     3
  9
$DIMFRAC
 70
     0
  9
$DIMLDRBLK
  1

  9
$DIMLUNIT
 70
     2
  9
$DIMLWD
 70
    -2
  9
$DIMLWE
 70
    -2
  9
$DIMTMOVE
 70
     0
  9
$DIMFXL
 40
1.0
  9
$DIMFXLON
 70
     0
  9
$DIMJOGANG
 40
0.7853981633974483
  9
$DIMTFILL
 70
     0
  9
$DIMTFILLCLR
 70
     0
  9
$DIMARCSYM
 70
     0
  9
$DIMLTYPE
  6

  9
$DIMLTEX1
  6

  9
$DIMLTEX2
  6

  9
$DIMTXTDIRECTION
 70
     0
  9
$LUNITS
 70
     2
  9
$LUPREC
 70
     4
  9
$SKETCHINC
 40
0.1
  9
$FILLETRAD
 40
0.5
  9
$AUNITS
 70
     0
  9
$AUPREC
 70
     0
  9
$MENU
  1
.
  9
$ELEVATION
 40
0.0
  9
$PELEVATION
 40
0.0
  9
$THICKNESS
 40
0.0
  9
$LIMCHECK
 70
     0
  9
$CHAMFERA
 40
0.0
  9
$CHAMFERB
 40
0.0
  9
$CHAMFERC
 40
0.0
  9
$CHAMFERD
 40
0.0
  9
$SKPOLY
 70
     0
  9
$TDCREATE
 40
2458948.736114386
  9
$TDUCREATE
 40
2458948.69444772
  9
$TDUPDATE
 40
2458948.736114676
  9
$TDUUPDATE
 40
2458948.694448009
  9
$TDINDWG
 40
0.0000000116
  9
$TDUSRTIMER
 40
0.0000000116
  9
$USRTIMER
 70
     1
  9
$ANGBASE
 50
0.0
  9
$ANGDIR
 70
     0
  9
$PDMODE
 70
     0
  9
$PDSIZE
 40
0.0
  9
$PLINEWID
 40
0.0
  9
$SPLFRAME
 70
     0
  9
$SPLINETYPE
 70
     6
  9
$SPLINESEGS
 70
     8
  9
$HANDSEED
  5
673
  9
$SURFTAB1
 70
     6
  9
$SURFTAB2
 70
     6
  9
$SURFTYPE
 70
     6
  9
$SURFU
 70
     6
  9
$SURFV
 70
     6
  9
$UCSBASE
  2

  9
$UCSNAME
  2

  9
$UCSORG
 10
0.0
 20
0.0
 30
0.0
  9
$UCSXDIR
 10
1.0
 20
0.0
 30
0.0
  9
$UCSYDIR
 10
0.0
 20
1.0
 30
0.0
  9
$UCSORTHOREF
  2

  9
$UCSORTHOVIEW
 70
     0
  9
$UCSORGTOP
 10
0.0
 20
0.0
 30
0.0
  9
$UCSORGBOTTOM
 10
0.0
 20
0.0
 30
0.0
  9
$UCSORGLEFT
 10
0.0
 20
0.0
 30
0.0
  9
$UCSORGRIGHT
 10
0.0
 20
0.0
 30
0.0
  9
$UCSORGFRONT
 10
0.0
 20
0.0
 30
0.0
  9
$UCSORGBACK
 10
0.0
 20
0.0
 30
0.0
  9
$PUCSBASE
  2

  9
$PUCSNAME
  2

  9
$PUCSORG
 10
0.0
 20
0.0
 30
0.0
  9
$PUCSXDIR
 10
1.0
 20
0.0
 30
0.0
  9
$PUCSYDIR
 10
0.0
 20
1.0
 30
0.0
  9
$PUCSORTHOREF
  2

  9
$PUCSORTHOVIEW
 70
     0
  9
$PUCSORGTOP
 10
0.0
 20
0.0
 30
0.0
  9
$PUCSORGBOTTOM
 10
0.0
 20
0.0
 30
0.0
  9
$PUCSORGLEFT
 10
0.0
 20
0.0
 30
0.0
  9
$PUCSORGRIGHT
 10
0.0
 20
0.0
 30
0.0
  9
$PUCSORGFRONT
 10
0.0
 20
0.0
 30
0.0
  9
$PUCSORGBACK
 10
0.0
 20
0.0
 30
0.0
  9
$USERI1
 70
     0
  9
$USERI2
 70
     0
  9
$USERI3
 70
     0
  9
$USERI4
 70
     0
  9
$USERI5
 70
     0
  9
$USERR1
 40
0.0
  9
$USERR2
 40
0.0
  9
$USERR3
 40
0.0
  9
$USERR4
 40
0.0
  9
$USERR5
 40
0.0
  9
$WORLDVIEW
 70
     1
  9
$SHADEDGE
 70
     3
  9
$SHADEDIF
 70
    70
  9
$TILEMODE
 70
     1
  9
$MAXACTVP
 70
    64
  9
$PINSBASE
 10
0.0
 20
0.0
 30
0.0
  9
$PLIMCHECK
 70
     0
  9
$PEXTMIN
 10
0.0
 20
0.0
 30
0.0
  9
$PEXTMAX
 10
0.0
 20
0.0
 30
0.0
  9
$PLIMMIN
 10
-20.0
 20
-7.5
  9
$PLIMMAX
 10
277.0
 20
202.5
  9
$UNITMODE
 70
     0
  9
$VISRETAIN
 70
     1
  9
$PLINEGEN
 70
     0
  9
$PSLTSCALE
 70
     1
  9
$TREEDEPTH
 70
  3020
  9
$CMLSTYLE
  2
Standard
  9
$CMLJUST
 70
     0
  9
$CMLSCALE
 40
1.0
  9
$PROXYGRAPHICS
 70
     1
  9
$MEASUREMENT
 70
     1
  9
$CELWEIGHT
370
    -1
  9
$ENDCAPS
280
     0
  9
$JOINSTYLE
280
     0
  9
$LWDISPLAY
290
     0
  9
$INSUNITS
 70
     4
  9
$HYPERLINKBASE
  1

  9
$STYLESHEET
  1

  9
$XEDIT
290
     1
  9
$CEPSNTYPE
380
     0
  9
$PSTYLEMODE
290
     1
  9
$FINGERPRINTGUID
  2
{89ed8166-1bf5-4be2-be28-6b917870ecca}
  9
$VERSIONGUID
  2
{FAEB1C32-E019-11D5-929B-00C0DF256EC4}
  9
$EXTNAMES
290
     1
  9
$PSVPSCALE
 40
0.0
  9
$OLESTARTUP
290
     0
  9
$SORTENTS
280
   127
  9
$INDEXCTL
280
     0
  9
$HIDETEXT
280
     1
  9
$XCLIPFRAME
280
     2
  9
$HALOGAP
280
     0
  9
$OBSCOLOR
 70
   257
  9
$OBSLTYPE
280
     0
  9
$INTERSECTIONDISPLAY
280
     0
  9
$INTERSECTIONCOLOR
 70
   257
  9
$DIMASSOC
280
     2
  9
$PROJECTNAME
  1

  9
$CAMERADISPLAY
290
     0
  9
$LENSLENGTH
 40
50.0
  9
$CAMERAHEIGHT
 40
0.0
  9
$STEPSPERSEC
 40
2.0
  9
$STEPSIZE
 40
6.0
  9
$3DDWFPREC
 40
2.0
  9
$PSOLWIDTH
 40
0.25
  9
$PSOLHEIGHT
 40
4.0
  9
$LOFTANG1
 40
1.570796326794897
  9
$LOFTANG2
 40
1.570796326794897
  9
$LOFTMAG1
 40
0.0
  9
$LOFTMAG2
 40
0.0
  9
$LOFTPARAM
 70
     7
  9
$LOFTNORMALS
280
     1
  9
$LATITUDE
 40
37.795
  9
$LONGITUDE
 40
-122.394
  9
$NORTHDIRECTION
 40
0.0
  9
$TIMEZONE
 70
 -8000
  9
$LIGHTGLYPHDISPLAY
280
     1
  9
$TILEMODELIGHTSYNCH
280
     1
  9
$CMATERIAL
347
5B1
  9
$SOLIDHIST
280
     0
  9
$SHOWHIST
280
     1
  9
$DWFFRAME
280
     2
  9
$DGNFRAME
280
     2
  9
$REALWORLDSCALE
290
     1
  9
$INTERFERECOLOR
 62
   256
  9
$CSHADOW
280
     0
  9
$SHADOWPLANELOCATION
 40
0.0
  0
ENDSEC
  0
SECTION
  2
CLASSES
  0
CLASS
  1
ACDBDICTIONARYWDFLT
  2
AcDbDictionaryWithDefault
  3
ObjectDBX Classes
 90
        0
 91
        3
280
     0
281
     0
  0
CLASS
  1
VISUALSTYLE
  2
AcDbVisualStyle
  3
ObjectDBX Classes
 90
     4095
 91
        3
280
     0
281
     0
  0
CLASS
  1
MATERIAL
  2
AcDbMaterial
  3
ObjectDBX Classes
 90
     1153
 91
        3
280
     0
281
     0
  0
CLASS
  1
SCALE
  2
AcDbScale
  3
ObjectDBX Classes
 90
     1153
 91
        3
280
     0
281
     0
  0
CLASS
  1
TABLESTYLE
  2
AcDbTableStyle
  3
ObjectDBX Classes
 90
     4095
 91
        3
280
     0
281
     0
  0
CLASS
  1
MLEADERSTYLE
  2
AcDbMLeaderStyle
  3
ACDB_MLEADERSTYLE_CLASS
 90
     4095
 91
        3
280
     0
281
     0
  0
CLASS
  1
SUN
  2
AcDbSun
  3
SCENEOE
 90
     1153
 91
        3
280
     0
281
     0
  0
CLASS
  1
DICTIONARYVAR
  2
AcDbDictionaryVar
  3
ObjectDBX Classes
 90
        0
 91
        3
280
     0
281
     0
  0
CLASS
  1
CELLSTYLEMAP
  2
AcDbCellStyleMap
  3
ObjectDBX Classes
 90
     1152
 91
        3
280
     0
281
     0
  0
ENDSEC
  0
SECTION
  2
TABLES
  0
TABLE
  2
VPORT
  5
576
330
0
100
AcDbSymbolTable
 70
     1
  0
VPORT
  5
596
330
576
100
AcDbSymbolTableRecord
100
AcDbViewportTableRecord
  2
*Active
 70
     0
 10
0.0
 20
0.0
 11
1.0
 21
1.0
 12
1117.222641509433
 22
588.6792452830186
 13
0.0
 23
0.0
 14
0.5
 24
0.5
 15
0.5
 25
0.5
 16
0.0
 26
0.0
 36
1.0
 17
0.0
 27
0.0
 37
0.0
 40
1729.811320754717
 41
1.799738219895288
 42
50.0
 43
0.0
 44
0.0
 50
0.0
 51
0.0
 71
     0
 72
   100
 73
     1
 74
     3
 75
     0
 76
     0
 77
     0
 78
     0
281
     0
 65
     1
110
0.0
120
0.0
130
0.0
111
1.0
121
0.0
131
0.0
112
0.0
122
1.0
132
0.0
 79
     0
146
0.0
348
59C
 60
     3
 61
     5
292
     1
282
     1
141
0.0
142
0.0
 63
   250
361
5DA
  0
ENDTAB
  0
TABLE
  2
LTYPE
  5
573
330
0
100
AcDbSymbolTable
 70
    48
  0
LTYPE
  5
581
330
573
100
AcDbSymbolTableRecord
100
AcDbLinetypeTableRecord
  2
ByBlock
 70
     0
  3

 72
    65
 73
     0
 40
0.0
  0
LTYPE
  5
582
330
573
100
AcDbSymbolTableRecord
100
AcDbLinetypeTableRecord
  2
ByLayer
 70
     0
  3

 72
    65
 73
     0
 40
0.0
  0
LTYPE
  5
583
330
573
100
AcDbSymbolTableRecord
100
AcDbLinetypeTableRecord
  2
Continuous
 70
     0
  3
Solid line
 72
    65
 73
     0
 40
0.0
  0
LTYPE
  5
614
330
573
100
AcDbSymbolTableRecord
100
AcDbLinetypeTableRecord
  2
PHANTOM
 70
     0
  3
Phantom ______  __  __  ______  __  __  ______ 
 72
    65
 73
     6
 40
63.50000000000001
 49
31.75
 74
     0
 49
-6.35
 74
     0
 49
6.35
 74
     0
 49
-6.35
 74
     0
 49
6.35
 74
     0
 49
-6.35
 74
     0
  0
LTYPE
  5
615
330
573
100
AcDbSymbolTableRecord
100
AcDbLinetypeTableRecord
  2
PHANTOM2
 70
     0
  3
Phantom (.5x) ___ _ _ ___ _ _ ___ _ _ ___ _ _
 72
    65
 73
     6
 40
31.75
 49
15.875
 74
     0
 49
-3.175
 74
     0
 49
3.175
 74
     0
 49
-3.175
 74
     0
 49
3.175
 74
     0
 49
-3.175
 74
     0
  0
LTYPE
  5
616
330
573
100
AcDbSymbolTableRecord
100
AcDbLinetypeTableRecord
  2
HIDDENX2
 70
     0
  3
Hidden (2x) ____ ____ ____ ____ ____ ____ ____ 
 72
    65
 73
     2
 40
19.05
 49
12.7
 74
     0
 49
-6.35
 74
     0
  0
LTYPE
  5
618
330
573
100
AcDbSymbolTableRecord
100
AcDbLinetypeTableRecord
  2
HOT_WATER_SUPPLY
 70
     0
  3
Hot water supply ---- HW ---- HW ---- HW ----
 72
    65
 73
     3
 40
22.86
 49
12.7
 74
     0
 49
-5.08
 74
     2
 75
     0
340
617
 46
2.54
 50
0.0
 44
-2.54
 45
-1.27
  9
HW
 49
-5.08
 74
     0
  0
LTYPE
  5
61B
330
573
100
AcDbSymbolTableRecord
100
AcDbLinetypeTableRecord
  2
ZIGZAG
 70
     0
  3
Zig zag /\/\/\/\/\/\/\/\/\/\/\/\/\/\/\/\/\/\/\/\/\/\/\/
 72
    65
 73
     4
 40
20.32254
 49
0.00254
 74
     0
 49
-5.08
 74
     2
 75
     0
340
619
 46
5.08
 50
0.0
 44
-5.08
 45
0.0
  9
ZIG
 49
-10.16
 74
     2
 75
     0
340
61A
 46
5.08
 50
180.0
 44
5.08
 45
0.0
  9
ZIG
 49
-5.08
 74
     0
  0
LTYPE
  5
61C
330
573
100
AcDbSymbolTableRecord
100
AcDbLinetypeTableRecord
  2
PHANTOMX2
 70
     0
  3
Phantom (2x) ____________    ____    ____   _
 72
    65
 73
     6
 40
127.0
 49
63.5
 74
     0
 49
-12.7
 74
     0
 49
12.7
 74
     0
 49
-12.7
 74
     0
 49
12.7
 74
     0
 49
-12.7
 74
     0
  0
LTYPE
  5
61E
330
573
100
AcDbSymbolTableRecord
100
AcDbLinetypeTableRecord
  2
TRACKS
 70
     0
  3
Tracks -|-|-|-|-|-|-|-|-|-|-|-|-|-|-|-|-|-|-|-|-|-|-|-|-
 72
    65
 73
     2
 40
7.62
 49
3.81
 74
     2
 75
     0
340
61D
 46
6.35
 50
0.0
 44
0.0
 45
0.0
  9
TRACK1
 49
3.81
 74
     0
  0
LTYPE
  5
620
330
573
100
AcDbSymbolTableRecord
100
AcDbLinetypeTableRecord
  2
DRAINAGE2
 70
     0
  3
Drainage reversed----<----<----<----
 72
    65
 73
     2
 40
10.16
 49
5.08
 74
     2
 75
     0
340
61F
 46
2.54
 50
0.0
 44
0.0
 45
0.0
  9
RIGHT_ARROW
 49
5.08
 74
     0
  0
LTYPE
  5
622
330
573
100
AcDbSymbolTableRecord
100
AcDbLinetypeTableRecord
  2
FENCELINE1
 70
     0
  3
Fenceline circle ----0-----0----0-----0----0-----0--
 72
    65
 73
     4
 40
36.83
 49
6.35
 74
     0
 49
-2.54
 74
     2
 75
     0
340
621
 46
2.54
 50
0.0
 44
-2.54
 45
0.0
  9
CIRC1
 49
-2.54
 74
     0
 49
25.4
 74
     0
  0
LTYPE
  5
623
330
573
100
AcDbSymbolTableRecord
100
AcDbLinetypeTableRecord
  2
DOTX2
 70
     0
  3
Dot (2x) .  .  .  .  .  .  .  .  .  .  .  .  .  .
 72
    65
 73
     2
 40
12.7
 49
0.0
 74
     0
 49
-12.7
 74
     0
  0
LTYPE
  5
625
330
573
100
AcDbSymbolTableRecord
100
AcDbLinetypeTableRecord
  2
DRAINAGE
 70
     0
  3
Drainage ---->---->---->----
 72
    65
 73
     2
 40
10.16
 49
5.08
 74
     2
 75
     0
340
624
 46
2.54
 50
180.0
 44
0.0
 45
0.0
  9
RIGHT_ARROW
 49
5.08
 74
     0
  0
LTYPE
  5
626
330
573
100
AcDbSymbolTableRecord
100
AcDbLinetypeTableRecord
  2
HIDDEN
 70
     0
  3
Hidden __ __ __ __ __ __ __ __ __ __ __ __ __ __
 72
    65
 73
     2
 40
9.524999999999999
 49
6.35
 74
     0
 49
-3.175
 74
     0
  0
LTYPE
  5
627
330
573
100
AcDbSymbolTableRecord
100
AcDbLinetypeTableRecord
  2
HIDDEN2
 70
     0
  3
Hidden (.5x) _ _ _ _ _ _ _ _ _ _ _ _ _ _ _ _ _ 
 72
    65
 73
     2
 40
4.762499999999999
 49
3.175
 74
     0
 49
-1.5875
 74
     0
  0
LTYPE
  5
629
330
573
100
AcDbSymbolTableRecord
100
AcDbLinetypeTableRecord
  2
FENCELINE2
 70
     0
  3
Fenceline square ----[]-----[]----[]-----[]----[]---
 72
    65
 73
     4
 40
36.83
 49
6.35
 74
     0
 49
-2.54
 74
     2
 75
     0
340
628
 46
2.54
 50
0.0
 44
-2.54
 45
0.0
  9
BOX
 49
-2.54
 74
     0
 49
25.4
 74
     0
  0
LTYPE
  5
62B
330
573
100
AcDbSymbolTableRecord
100
AcDbLinetypeTableRecord
  2
GAS_LINE
 70
     0
  3
Gas line ----GAS----GAS----GAS----GAS----GAS----GAS--
 72
    65
 73
     3
 40
24.13
 49
12.7
 74
     0
 49
-5.08
 74
     2
 75
     0
340
62A
 46
2.54
 50
0.0
 44
-2.54
 45
-1.27
  9
GAS
 49
-6.35
 74
     0
  0
LTYPE
  5
62C
330
573
100
AcDbSymbolTableRecord
100
AcDbLinetypeTableRecord
  2
DASHEDX2
 70
     0
  3
Dashed (2x) ____  ____  ____  ____  ____  ___
 72
    65
 73
     2
 40
38.09999999999999
 49
25.4
 74
     0
 49
-12.7
 74
     0
  0
LTYPE
  5
62D
330
573
100
AcDbSymbolTableRecord
100
AcDbLinetypeTableRecord
  2
DIVIDE
 70
     0
  3
Divide ____ . . ____ . . ____ . . ____ . . ____
 72
    65
 73
     6
 40
31.75
 49
12.7
 74
     0
 49
-6.35
 74
     0
 49
0.0
 74
     0
 49
-6.35
 74
     0
 49
0.0
 74
     0
 49
-6.35
 74
     0
  0
LTYPE
  5
62E
330
573
100
AcDbSymbolTableRecord
100
AcDbLinetypeTableRecord
  2
DASHED
 70
     0
  3
Dashed __ __ __ __ __ __ __ __ __ __ __ __ __ _
 72
    65
 73
     2
 40
19.05
 49
12.7
 74
     0
 49
-6.35
 74
     0
  0
LTYPE
  5
62F
330
573
100
AcDbSymbolTableRecord
100
AcDbLinetypeTableRecord
  2
DASHED2
 70
     0
  3
Dashed (.5x) _ _ _ _ _ _ _ _ _ _ _ _ _ _ _ _ _ 
 72
    65
 73
     2
 40
9.524999999999999
 49
6.35
 74
     0
 49
-3.175
 74
     0
  0
LTYPE
  5
630
330
573
100
AcDbSymbolTableRecord
100
AcDbLinetypeTableRecord
  2
DOT
 70
     0
  3
Dot . . . . . . . . . . . . . . . . . . . . . . . .
 72
    65
 73
     2
 40
6.35
 49
0.0
 74
     0
 49
-6.35
 74
     0
  0
LTYPE
  5
631
330
573
100
AcDbSymbolTableRecord
100
AcDbLinetypeTableRecord
  2
DOT2
 70
     0
  3
Dot (.5x) ........................................
 72
    65
 73
     2
 40
3.175
 49
0.0
 74
     0
 49
-3.175
 74
     0
  0
LTYPE
  5
632
330
573
100
AcDbSymbolTableRecord
100
AcDbLinetypeTableRecord
  2
DIVIDE2
 70
     0
  3
Divide (.5x) __..__..__..__..__..__..__..__.._
 72
    65
 73
     6
 40
15.875
 49
6.35
 74
     0
 49
-3.175
 74
     0
 49
0.0
 74
     0
 49
-3.175
 74
     0
 49
0.0
 74
     0
 49
-3.175
 74
     0
  0
LTYPE
  5
633
330
573
100
AcDbSymbolTableRecord
100
AcDbLinetypeTableRecord
  2
DIVIDEX2
 70
     0
  3
Divide (2x) ________  .  .  ________  .  .  _
 72
    65
 73
     6
 40
63.5
 49
25.4
 74
     0
 49
-12.7
 74
     0
 49
0.0
 74
     0
 49
-12.7
 74
     0
 49
0.0
 74
     0
 49
-12.7
 74
     0
  0
LTYPE
  5
634
330
573
100
AcDbSymbolTableRecord
100
AcDbLinetypeTableRecord
  2
CENTER
 70
     0
  3
Center ____ _ ____ _ ____ _ ____ _ ____ _ ____
 72
    65
 73
     4
 40
50.8
 49
31.75
 74
     0
 49
-6.35
 74
     0
 49
6.35
 74
     0
 49
-6.35
 74
     0
  0
LTYPE
  5
635
330
573
100
AcDbSymbolTableRecord
100
AcDbLinetypeTableRecord
  2
CENTER2
 70
     0
  3
Center (.5x) ___ _ ___ _ ___ _ ___ _ ___ _ ___
 72
    65
 73
     4
 40
28.575
 49
19.05
 74
     0
 49
-3.175
 74
     0
 49
3.175
 74
     0
 49
-3.175
 74
     0
  0
LTYPE
  5
636
330
573
100
AcDbSymbolTableRecord
100
AcDbLinetypeTableRecord
  2
BORDER2
 70
     0
  3
Border (.5x) __.__.__.__.__.__.__.__.__.__.__.
 72
    65
 73
     6
 40
22.225
 49
6.35
 74
     0
 49
-3.175
 74
     0
 49
6.35
 74
     0
 49
-3.175
 74
     0
 49
0.0
 74
     0
 49
-3.175
 74
     0
  0
LTYPE
  5
637
330
573
100
AcDbSymbolTableRecord
100
AcDbLinetypeTableRecord
  2
BORDERX2
 70
     0
  3
Border (2x) ____  ____  .  ____  ____  .  ___
 72
    65
 73
     6
 40
88.89999999999999
 49
25.4
 74
     0
 49
-12.7
 74
     0
 49
25.4
 74
     0
 49
-12.7
 74
     0
 49
0.0
 74
     0
 49
-12.7
 74
     0
  0
LTYPE
  5
638
330
573
100
AcDbSymbolTableRecord
100
AcDbLinetypeTableRecord
  2
DASHDOT2
 70
     0
  3
Dash dot (.5x) _._._._._._._._._._._._._._._.
 72
    65
 73
     4
 40
12.7
 49
6.35
 74
     0
 49
-3.175
 74
     0
 49
0.0
 74
     0
 49
-3.175
 74
     0
  0
LTYPE
  5
639
330
573
100
AcDbSymbolTableRecord
100
AcDbLinetypeTableRecord
  2
DASHDOTX2
 70
     0
  3
Dash dot (2x) ____  .  ____  .  ____  .  ___
 72
    65
 73
     4
 40
50.8
 49
25.4
 74
     0
 49
-12.7
 74
     0
 49
0.0
 74
     0
 49
-12.7
 74
     0
  0
LTYPE
  5
63A
330
573
100
AcDbSymbolTableRecord
100
AcDbLinetypeTableRecord
  2
CENTERX2
 70
     0
  3
Center (2x) ________  __  ________  __  _____
 72
    65
 73
     4
 40
101.6
 49
63.5
 74
     0
 49
-12.7
 74
     0
 49
12.7
 74
     0
 49
-12.7
 74
     0
  0
LTYPE
  5
63B
330
573
100
AcDbSymbolTableRecord
100
AcDbLinetypeTableRecord
  2
DASHDOT
 70
     0
  3
Dash dot __ . __ . __ . __ . __ . __ . __ . __
 72
    65
 73
     4
 40
25.4
 49
12.7
 74
     0
 49
-6.35
 74
     0
 49
0.0
 74
     0
 49
-6.35
 74
     0
  0
LTYPE
  5
63C
330
573
100
AcDbSymbolTableRecord
100
AcDbLinetypeTableRecord
  2
ACAD_ISO12W100
 70
     0
  3
ISO dash double-dot __ . . __ . . __ . . __ . . 
 72
    65
 73
     6
 40
21.0
 49
12.0
 74
     0
 49
-3.0
 74
     0
 49
0.0
 74
     0
 49
-3.0
 74
     0
 49
0.0
 74
     0
 49
-3.0
 74
     0
  0
LTYPE
  5
63D
330
573
100
AcDbSymbolTableRecord
100
AcDbLinetypeTableRecord
  2
ACAD_ISO13W100
 70
     0
  3
ISO double-dash double-dot __ __ . . __ __ . . _
 72
    65
 73
     8
 40
36.0
 49
12.0
 74
     0
 49
-3.0
 74
     0
 49
12.0
 74
     0
 49
-3.0
 74
     0
 49
0.0
 74
     0
 49
-3.0
 74
     0
 49
0.0
 74
     0
 49
-3.0
 74
     0
  0
LTYPE
  5
63E
330
573
100
AcDbSymbolTableRecord
100
AcDbLinetypeTableRecord
  2
ACAD_ISO10W100
 70
     0
  3
ISO dash dot __ . __ . __ . __ . __ . __ . __ . 
 72
    65
 73
     4
 40
18.0
 49
12.0
 74
     0
 49
-3.0
 74
     0
 49
0.0
 74
     0
 49
-3.0
 74
     0
  0
LTYPE
  5
63F
330
573
100
AcDbSymbolTableRecord
100
AcDbLinetypeTableRecord
  2
ACAD_ISO11W100
 70
     0
  3
ISO double-dash dot __ __ . __ __ . __ __ . __ _
 72
    65
 73
     6
 40
33.0
 49
12.0
 74
     0
 49
-3.0
 74
     0
 49
12.0
 74
     0
 49
-3.0
 74
     0
 49
0.0
 74
     0
 49
-3.0
 74
     0
  0
LTYPE
  5
642
330
573
100
AcDbSymbolTableRecord
100
AcDbLinetypeTableRecord
  2
BATTING
 70
     0
  3
Batting SSSSSSSSSSSSSSSSSSSSSSSSSSSSSSSSSSSSSSSSSSSSSSS
 72
    65
 73
     4
 40
10.16254
 49
0.00254
 74
     0
 49
-2.54
 74
     2
 75
     0
340
640
 46
2.54
 50
0.0
 44
-2.54
 45
0.0
  9
BAT
 49
-5.08
 74
     2
 75
     0
340
641
 46
2.54
 50
180.0
 44
2.54
 45
0.0
  9
BAT
 49
-2.54
 74
     0
  0
LTYPE
  5
643
330
573
100
AcDbSymbolTableRecord
100
AcDbLinetypeTableRecord
  2
BORDER
 70
     0
  3
Border __ __ . __ __ . __ __ . __ __ . __ __ .
 72
    65
 73
     6
 40
44.45
 49
12.7
 74
     0
 49
-6.35
 74
     0
 49
12.7
 74
     0
 49
-6.35
 74
     0
 49
0.0
 74
     0
 49
-6.35
 74
     0
  0
LTYPE
  5
644
330
573
100
AcDbSymbolTableRecord
100
AcDbLinetypeTableRecord
  2
ACAD_ISO14W100
 70
     0
  3
ISO dash triple-dot __ . . . __ . . . __ . . . _
 72
    65
 73
     8
 40
24.0
 49
12.0
 74
     0
 49
-3.0
 74
     0
 49
0.0
 74
     0
 49
-3.0
 74
     0
 49
0.0
 74
     0
 49
-3.0
 74
     0
 49
0.0
 74
     0
 49
-3.0
 74
     0
  0
LTYPE
  5
645
330
573
100
AcDbSymbolTableRecord
100
AcDbLinetypeTableRecord
  2
ACAD_ISO15W100
 70
     0
  3
ISO double-dash triple-dot __ __ . . . __ __ . .
 72
    65
 73
    10
 40
39.0
 49
12.0
 74
     0
 49
-3.0
 74
     0
 49
12.0
 74
     0
 49
-3.0
 74
     0
 49
0.0
 74
     0
 49
-3.0
 74
     0
 49
0.0
 74
     0
 49
-3.0
 74
     0
 49
0.0
 74
     0
 49
-3.0
 74
     0
  0
LTYPE
  5
646
330
573
100
AcDbSymbolTableRecord
100
AcDbLinetypeTableRecord
  2
ACAD_ISO04W100
 70
     0
  3
ISO long-dash dot ____ . ____ . ____ . ____ . _
 72
    65
 73
     4
 40
30.0
 49
24.0
 74
     0
 49
-3.0
 74
     0
 49
0.0
 74
     0
 49
-3.0
 74
     0
  0
LTYPE
  5
647
330
573
100
AcDbSymbolTableRecord
100
AcDbLinetypeTableRecord
  2
ACAD_ISO05W100
 70
     0
  3
ISO long-dash double-dot ____ .. ____ .. ____ . 
 72
    65
 73
     6
 40
33.0
 49
24.0
 74
     0
 49
-3.0
 74
     0
 49
0.0
 74
     0
 49
-3.0
 74
     0
 49
0.0
 74
     0
 49
-3.0
 74
     0
  0
LTYPE
  5
648
330
573
100
AcDbSymbolTableRecord
100
AcDbLinetypeTableRecord
  2
ACAD_ISO02W100
 70
     0
  3
ISO dash __ __ __ __ __ __ __ __ __ __ __ __ __
 72
    65
 73
     2
 40
15.0
 49
12.0
 74
     0
 49
-3.0
 74
     0
  0
LTYPE
  5
649
330
573
100
AcDbSymbolTableRecord
100
AcDbLinetypeTableRecord
  2
ACAD_ISO03W100
 70
     0
  3
ISO dash space __    __    __    __    __    __
 72
    65
 73
     2
 40
30.0
 49
12.0
 74
     0
 49
-18.0
 74
     0
  0
LTYPE
  5
64A
330
573
100
AcDbSymbolTableRecord
100
AcDbLinetypeTableRecord
  2
ACAD_ISO08W100
 70
     0
  3
ISO long-dash short-dash ____ __ ____ __ ____ _
 72
    65
 73
     4
 40
36.0
 49
24.0
 74
     0
 49
-3.0
 74
     0
 49
6.0
 74
     0
 49
-3.0
 74
     0
  0
LTYPE
  5
64B
330
573
100
AcDbSymbolTableRecord
100
AcDbLinetypeTableRecord
  2
ACAD_ISO09W100
 70
     0
  3
ISO long-dash double-short-dash ____ __ __ ____
 72
    65
 73
     6
 40
45.0
 49
24.0
 74
     0
 49
-3.0
 74
     0
 49
6.0
 74
     0
 49
-3.0
 74
     0
 49
6.0
 74
     0
 49
-3.0
 74
     0
  0
LTYPE
  5
64C
330
573
100
AcDbSymbolTableRecord
100
AcDbLinetypeTableRecord
  2
ACAD_ISO06W100
 70
     0
  3
ISO long-dash triple-dot ____ ... ____ ... ____
 72
    65
 73
     8
 40
36.0
 49
24.0
 74
     0
 49
-3.0
 74
     0
 49
0.0
 74
     0
 49
-3.0
 74
     0
 49
0.0
 74
     0
 49
-3.0
 74
     0
 49
0.0
 74
     0
 49
-3.0
 74
     0
  0
LTYPE
  5
64D
330
573
100
AcDbSymbolTableRecord
100
AcDbLinetypeTableRecord
  2
ACAD_ISO07W100
 70
     0
  3
ISO dot . . . . . . . . . . . . . . . . . . . . 
 72
    65
 73
     2
 40
3.0
 49
0.0
 74
     0
 49
-3.0
 74
     0
  0
ENDTAB
  0
TABLE
  2
LAYER
  5
571
330
0
100
AcDbSymbolTable
 70
     3
  0
LAYER
  5
57E
330
571
100
AcDbSymbolTableRecord
100
AcDbLayerTableRecord
  2
0
 70
     1
 62
   -13
420
 16733268
  6
Continuous
370
    -3
390
57D
347
5B3
348
0
  0
LAYER
  5
64E
330
571
100
AcDbSymbolTableRecord
100
AcDbLayerTableRecord
  2
ProcPart_18
 70
     0
 62
     2
420
 16776960
  6
Continuous
370
    -3
390
57D
347
5B3
348
0
  0
LAYER
  5
64F
330
571
100
AcDbSymbolTableRecord
100
AcDbLayerTableRecord
  2
V_Fraes_0.5T128
 70
     0
 62
     7
420
 16777200
  6
Continuous
370
    -3
390
57D
347
5B3
348
0
  0
ENDTAB
  0
TABLE
  2
STYLE
  5
572
330
0
100
AcDbSymbolTable
 70
    14
  0
STYLE
  5
57F
330
572
100
AcDbSymbolTableRecord
100
AcDbTextStyleTableRecord
  2
Standard
 70
     0
 40
0.0
 41
1.0
 50
0.0
 71
     0
 42
0.2
  3
txt
  4

  0
STYLE
  5
612
330
572
100
AcDbSymbolTableRecord
100
AcDbTextStyleTableRecord
  2
QCADDimTextStyle
 70
     0
 40
0.0
 41
1.0
 50
0.0
 71
     0
 42
0.2
  3

  4

  0
STYLE
  5
617
330
572
100
AcDbSymbolTableRecord
100
AcDbTextStyleTableRecord
  2
textstyle0
 70
     0
 40
0.0
 41
1.0
 50
0.0
 71
     0
 42
0.2
  3
STANDARD
  4

  0
STYLE
  5
619
330
572
100
AcDbSymbolTableRecord
100
AcDbTextStyleTableRecord
  2
textstyle1
 70
     0
 40
0.0
 41
1.0
 50
0.0
 71
     0
 42
0.2
  3
ltypeshp.shx
  4

  0
STYLE
  5
61A
330
572
100
AcDbSymbolTableRecord
100
AcDbTextStyleTableRecord
  2
textstyle2
 70
     0
 40
0.0
 41
1.0
 50
0.0
 71
     0
 42
0.2
  3
ltypeshp.shx
  4

  0
STYLE
  5
61D
330
572
100
AcDbSymbolTableRecord
100
AcDbTextStyleTableRecord
  2
textstyle3
 70
     0
 40
0.0
 41
1.0
 50
0.0
 71
     0
 42
0.2
  3
ltypeshp.shx
  4

  0
STYLE
  5
61F
330
572
100
AcDbSymbolTableRecord
100
AcDbTextStyleTableRecord
  2
textstyle4
 70
     0
 40
0.0
 41
1.0
 50
0.0
 71
     0
 42
0.2
  3
qcadshp.shx
  4

  0
STYLE
  5
621
330
572
100
AcDbSymbolTableRecord
100
AcDbTextStyleTableRecord
  2
textstyle5
 70
     0
 40
0.0
 41
1.0
 50
0.0
 71
     0
 42
0.2
  3
ltypeshp.shx
  4

  0
STYLE
  5
624
330
572
100
AcDbSymbolTableRecord
100
AcDbTextStyleTableRecord
  2
textstyle6
 70
     0
 40
0.0
 41
1.0
 50
0.0
 71
     0
 42
0.2
  3
qcadshp.shx
  4

  0
STYLE
  5
628
330
572
100
AcDbSymbolTableRecord
100
AcDbTextStyleTableRecord
  2
textstyle7
 70
     0
 40
0.0
 41
1.0
 50
0.0
 71
     0
 42
0.2
  3
ltypeshp.shx
  4

  0
STYLE
  5
62A
330
572
100
AcDbSymbolTableRecord
100
AcDbTextStyleTableRecord
  2
textstyle8
 70
     0
 40
0.0
 41
1.0
 50
0.0
 71
     0
 42
0.2
  3
STANDARD
  4

  0
STYLE
  5
640
330
572
100
AcDbSymbolTableRecord
100
AcDbTextStyleTableRecord
  2
textstyle9
 70
     0
 40
0.0
 41
1.0
 50
0.0
 71
     0
 42
0.2
  3
ltypeshp.shx
  4

  0
STYLE
  5
641
330
572
100
AcDbSymbolTableRecord
100
AcDbTextStyleTableRecord
  2
textstyle10
 70
     0
 40
0.0
 41
1.0
 50
0.0
 71
     0
 42
0.2
  3
ltypeshp.shx
  4

  0
STYLE
  5
668
330
572
100
AcDbSymbolTableRecord
100
AcDbTextStyleTableRecord
  2
textstyle11
 70
     0
 40
0.0
 41
1.0
 50
0.0
 71
     0
 42
0.2
  3
standard
  4

  0
ENDTAB
  0
TABLE
  2
VIEW
  5
574
330
0
100
AcDbSymbolTable
 70
     1
  0
VIEW
  5
667
330
574
100
AcDbSymbolTableRecord
100
AcDbViewTableRecord
  2
SECTION 1
 70
     0
 40
3832.216659142125
 10
0.0
 20
0.0
 41
5109.494471634194
 11
0.0
 21
0.0
 31
1.0
 12
0.0
 22
0.0
 32
0.0
 42
50.0
 43
0.0
 44
0.0
 50
0.0
 71
     0
281
     0
 72
     0
 73
     0
  0
ENDTAB
  0
TABLE
  2
UCS
  5
575
330
0
100
AcDbSymbolTable
 70
     0
  0
ENDTAB
  0
TABLE
  2
APPID
  5
577
330
0
100
AcDbSymbolTable
 70
     2
  0
APPID
  5
580
330
577
100
AcDbSymbolTableRecord
100
AcDbRegAppTableRecord
  2
ACAD
 70
     0
  0
APPID
  5
5DB
330
577
100
AcDbSymbolTableRecord
100
AcDbRegAppTableRecord
  2
QCAD
 70
     0
  0
ENDTAB
  0
TABLE
  2
DIMSTYLE
  5
578
330
0
100
AcDbSymbolTable
 70
     2
100
AcDbDimStyleTable
  0
DIMSTYLE
105
594
330
578
100
AcDbSymbolTableRecord
100
AcDbDimStyleTableRecord
  2
Standard
 70
     0
178
     0
340
57F
  0
DIMSTYLE
105
613
330
578
100
AcDbSymbolTableRecord
100
AcDbDimStyleTableRecord
  2
QCADDimStyle
 70
     0
 73
     0
 77
     1
178
     0
340
612
  0
ENDTAB
  0
TABLE
  2
BLOCK_RECORD
  5
570
330
0
100
AcDbSymbolTable
 70
     6
  0
BLOCK_RECORD
  5
58C
330
570
100
AcDbSymbolTableRecord
100
AcDbBlockTableRecord
  2
*Model_Space
340
58F
 70
     0
280
     1
281
     0
  0
BLOCK_RECORD
  5
652
330
570
100
AcDbSymbolTableRecord
100
AcDbBlockTableRecord
  2
*Paper_Space
340
653
 70
     0
280
     1
281
     0
  0
BLOCK_RECORD
  5
588
330
570
100
AcDbSymbolTableRecord
100
AcDbBlockTableRecord
  2
*Paper_Space1
340
58B
 70
     0
280
     1
281
     0
  0
BLOCK_RECORD
  5
658
330
570
100
AcDbSymbolTableRecord
100
AcDbBlockTableRecord
  2
4ST
340
0
102
{BLKREFS
331
508
102
}
 70
     0
280
     1
281
     0
  0
BLOCK_RECORD
  5
65B
330
570
100
AcDbSymbolTableRecord
100
AcDbBlockTableRecord
  2
Commerce gaten grondvlak 2017 cleaned.dxf
340
0
 70
     0
280
     1
281
     0
  0
BLOCK_RECORD
  5
65E
330
570
100
AcDbSymbolTableRecord
100
AcDbBlockTableRecord
  2
Group4#1
340
0
102
{BLKREFS
331
56C
102
}
 70
     0
280
     1
281
     0
  0
BLOCK_RECORD
  5
661
330
570
100
AcDbSymbolTableRecord
100
AcDbBlockTableRecord
  2
GROUP_1
340
0
102
{BLKREFS
331
509
102
}
 70
     0
280
     1
281
     0
  0
BLOCK_RECORD
  5
664
330
570
100
AcDbSymbolTableRecord
100
AcDbBlockTableRecord
  2
MDF_6_STANDAARD
340
0
102
{BLKREFS
331
507
102
}
 70
     0
280
     1
281
     0
  0
ENDTAB
  0
ENDSEC
  0
SECTION
  2
BLOCKS
  0
BLOCK
  5
58D
330
58C
100
AcDbEntity
  8
0
100
AcDbBlockBegin
  2
*Model_Space
 70
     0
 10
0.0
 20
0.0
 30
0.0
  3
*Model_Space
  1

  0
ENDBLK
  5
58E
330
58C
100
AcDbEntity
  8
0
100
AcDbBlockEnd
  0
BLOCK
  5
654
330
652
100
AcDbEntity
 67
     1
  8
0
100
AcDbBlockBegin
  2
*Paper_Space
 70
     0
 10
0.0
 20
0.0
 30
0.0
  3
*Paper_Space
  1

  0
ENDBLK
  5
655
330
652
100
AcDbEntity
 67
     1
  8
0
100
AcDbBlockEnd
  0
BLOCK
  5
589
330
588
100
AcDbEntity
  8
0
100
AcDbBlockBegin
  2
*Paper_Space1
 70
     0
 10
0.0
 20
0.0
 30
0.0
  3
*Paper_Space1
  1

  0
VIEWPORT
  5
650
330
588
100
AcDbEntity
  8
0
100
AcDbViewport
 10
128.5
 20
97.5
 30
0.0
 40
314.226
 41
222.18
 68
     1
 69
     1
 12
128.5
 22
97.5
 13
0.0
 23
0.0
 14
10.0
 24
10.0
 15
10.0
 25
10.0
 16
0.0
 26
0.0
 36
1.0
 17
0.0
 27
0.0
 37
0.0
 42
50.0
 43
0.0
 44
0.0
 45
222.18
 50
0.0
 51
0.0
 72
   100
 90
   557152
  1

281
     0
 71
     1
 74
     0
110
0.0
120
0.0
130
0.0
111
1.0
121
0.0
131
0.0
112
0.0
122
1.0
132
0.0
 79
     0
146
0.0
170
     0
 61
     5
348
59C
292
     1
282
     1
141
0.0
142
0.0
 63
   256
361
651
  0
ENDBLK
  5
58A
330
588
100
AcDbEntity
  8
0
100
AcDbBlockEnd
  0
BLOCK
  5
659
330
658
100
AcDbEntity
  8
0
100
AcDbBlockBegin
  2
4ST
 70
     0
 10
0.0
 20
0.0
 30
0.0
  3
4ST
  1

  0
LINE
  5
212
330
658
100
AcDbEntity
  8
0
 62
    13
420
 13395558
100
AcDbLine
 10
-62.19667943805881
 20
-27.9693486590038
 30
0.0
 11
-62.19667943805881
 21
-93.35887611749678
 31
0.0
  0
LINE
  5
213
330
658
100
AcDbEntity
  8
0
 62
    13
420
 13395558
100
AcDbLine
 10
-62.19667943805881
 20
96.80715197956575
 30
0.0
 11
-62.19667943805881
 21
-7.535121328224744
 31
0.0
  0
LINE
  5
214
330
658
100
AcDbEntity
  8
0
 62
    13
420
 13395558
100
AcDbLine
 10
126.5644955300127
 20
90.29374201787995
 30
0.0
 11
126.5644955300127
 21
49.29757343550444
 31
0.0
  0
LINE
  5
215
330
658
100
AcDbEntity
  8
0
 62
    13
420
 13395558
100
AcDbLine
 10
126.5644955300127
 20
29.37420178799495
 30
0.0
 11
126.5644955300127
 21
-38.44189016602807
 31
0.0
  0
LINE
  5
216
330
658
100
AcDbEntity
  8
0
 62
     0
100
AcDbLine
 10
-62.19667943805881
 20
-7.535121328224744
 30
0.0
 11
-62.19667943805881
 21
-93.35887611749678
 31
0.0
  0
LINE
  5
217
330
658
100
AcDbEntity
  8
0
 62
     0
100
AcDbLine
 10
126.5644955300127
 20
49.29757343550444
 30
0.0
 11
126.5644955300127
 21
-38.44189016602807
 31
0.0
  0
LINE
  5
218
330
658
100
AcDbEntity
  8
0
 62
    13
420
 13395558
100
AcDbLine
 10
-39.59131545338448
 20
-7.535121328224744
 30
0.0
 11
-39.59131545338448
 21
-27.9693486590038
 31
0.0
  0
LINE
  5
219
330
658
100
AcDbEntity
  8
0
 62
    13
420
 13395558
100
AcDbLine
 10
-39.59131545338448
 20
-27.9693486590038
 30
0.0
 11
-62.19667943805881
 21
-27.9693486590038
 31
0.0
  0
LINE
  5
21A
330
658
100
AcDbEntity
  8
0
 62
     0
100
AcDbLine
 10
-62.19667943805881
 20
-27.9693486590038
 30
0.0
 11
-62.19667943805881
 21
-7.535121328224744
 31
0.0
  0
LINE
  5
21B
330
658
100
AcDbEntity
  8
0
 62
    13
420
 13395558
100
AcDbLine
 10
-62.19667943805881
 20
-7.535121328224744
 30
0.0
 11
-39.59131545338448
 21
-7.535121328224744
 31
0.0
  0
LINE
  5
21C
330
658
100
AcDbEntity
  8
0
 62
    13
420
 13395558
100
AcDbLine
 10
-85.69604086845472
 20
96.80715197956575
 30
0.0
 11
-62.19667943805881
 21
96.80715197956575
 31
0.0
  0
LINE
  5
21D
330
658
100
AcDbEntity
  8
0
 62
     0
100
AcDbLine
 10
-62.19667943805881
 20
96.80715197956575
 30
0.0
 11
-62.19667943805881
 21
-93.35887611749678
 31
0.0
  0
LINE
  5
21E
330
658
100
AcDbEntity
  8
0
 62
    13
420
 13395558
100
AcDbLine
 10
-62.19667943805881
 20
-93.35887611749678
 30
0.0
 11
-86.71775223499367
 21
-93.35887611749678
 31
0.0
  0
LINE
  5
21F
330
658
100
AcDbEntity
  8
0
 62
    13
420
 13395558
100
AcDbLine
 10
-86.71775223499367
 20
-93.35887611749678
 30
0.0
 11
-86.71775223499367
 21
-27.9693486590038
 31
0.0
  0
LINE
  5
220
330
658
100
AcDbEntity
  8
0
 62
     0
100
AcDbLine
 10
-86.71775223499367
 20
-27.9693486590038
 30
0.0
 11
-86.71775223499367
 21
-7.535121328224744
 31
0.0
  0
LINE
  5
221
330
658
100
AcDbEntity
  8
0
 62
    13
420
 13395558
100
AcDbLine
 10
-86.71775223499367
 20
-7.535121328224744
 30
0.0
 11
-86.71775223499367
 21
66.79438058748404
 31
0.0
  0
LINE
  5
222
330
658
100
AcDbEntity
  8
0
 62
    13
420
 13395558
100
AcDbLine
 10
-86.71775223499367
 20
66.79438058748404
 30
0.0
 11
-150.830140485313
 21
-7.535121328224744
 31
0.0
  0
LINE
  5
223
330
658
100
AcDbEntity
  8
0
 62
     0
100
AcDbLine
 10
-150.830140485313
 20
-7.535121328224744
 30
0.0
 11
-170.7535121328226
 21
-27.9693486590038
 31
0.0
  0
LINE
  5
224
330
658
100
AcDbEntity
  8
0
 62
    13
420
 13395558
100
AcDbLine
 10
-170.7535121328226
 20
-27.9693486590038
 30
0.0
 11
-170.7535121328225
 21
-1.149425287356295
 31
0.0
  0
LINE
  5
225
330
658
100
AcDbEntity
  8
0
 62
    13
420
 13395558
100
AcDbLine
 10
-170.7535121328225
 20
-1.149425287356295
 30
0.0
 11
-85.69604086845472
 21
96.80715197956575
 31
0.0
  0
LINE
  5
226
330
658
100
AcDbEntity
  8
0
 62
    13
420
 13395558
100
AcDbLine
 10
-150.830140485313
 20
-7.535121328224744
 30
0.0
 11
-86.71775223499367
 21
-7.535121328224744
 31
0.0
  0
LINE
  5
227
330
658
100
AcDbEntity
  8
0
 62
     0
100
AcDbLine
 10
-86.71775223499367
 20
-27.9693486590038
 30
0.0
 11
-86.71775223499367
 21
-7.535121328224744
 31
0.0
  0
LINE
  5
228
330
658
100
AcDbEntity
  8
0
 62
    13
420
 13395558
100
AcDbLine
 10
-86.71775223499367
 20
-27.9693486590038
 30
0.0
 11
-170.7535121328226
 21
-27.9693486590038
 31
0.0
  0
LINE
  5
229
330
658
100
AcDbEntity
  8
0
 62
     0
100
AcDbLine
 10
-150.830140485313
 20
-7.535121328224744
 30
0.0
 11
-170.7535121328226
 21
-27.9693486590038
 31
0.0
  0
LINE
  5
22A
330
658
100
AcDbEntity
  8
0
 62
    13
420
 13395558
100
AcDbLine
 10
7.630906768837788
 20
49.71264367816093
 30
0.0
 11
17.90389527458488
 21
51.98754789272034
 31
0.0
  0
LINE
  5
22B
330
658
100
AcDbEntity
  8
0
 62
    13
420
 13395558
100
AcDbLine
 10
17.90389527458488
 20
51.98754789272034
 30
0.0
 11
29.3742017879948
 21
52.74584929757345
 31
0.0
  0
LINE
  5
22C
330
658
100
AcDbEntity
  8
0
 62
    13
420
 13395558
100
AcDbLine
 10
29.3742017879948
 20
52.74584929757345
 30
0.0
 11
53.25670498084281
 21
49.80842911877394
 31
0.0
  0
LINE
  5
22D
330
658
100
AcDbEntity
  8
0
 62
    13
420
 13395558
100
AcDbLine
 10
53.25670498084281
 20
49.80842911877394
 30
0.0
 11
73.4355044699872
 21
42.40102171136656
 31
0.0
  0
LINE
  5
22E
330
658
100
AcDbEntity
  8
0
 62
    13
420
 13395558
100
AcDbLine
 10
73.4355044699872
 20
42.40102171136656
 30
0.0
 11
73.4355044699872
 21
16.73052362707535
 31
0.0
  0
LINE
  5
22F
330
658
100
AcDbEntity
  8
0
 62
    13
420
 13395558
100
AcDbLine
 10
73.4355044699872
 20
16.73052362707535
 30
0.0
 11
72.1583652618135
 21
16.73052362707535
 31
0.0
  0
LINE
  5
230
330
658
100
AcDbEntity
  8
0
 62
    13
420
 13395558
100
AcDbLine
 10
72.1583652618135
 20
16.73052362707535
 30
0.0
 11
62.43614303959119
 21
23.24393358876126
 31
0.0
  0
LINE
  5
231
330
658
100
AcDbEntity
  8
0
 62
    13
420
 13395558
100
AcDbLine
 10
62.43614303959119
 20
23.24393358876126
 30
0.0
 11
51.66028097062569
 21
28.22477650063866
 31
0.0
  0
LINE
  5
232
330
658
100
AcDbEntity
  8
0
 62
    13
420
 13395558
100
AcDbLine
 10
51.66028097062569
 20
28.22477650063866
 30
0.0
 11
40.309706257982
 21
31.38569604086846
 31
0.0
  0
LINE
  5
233
330
658
100
AcDbEntity
  8
0
 62
    13
420
 13395558
100
AcDbLine
 10
40.309706257982
 20
31.38569604086846
 30
0.0
 11
28.86334610472537
 21
32.43933588761175
 31
0.0
  0
LINE
  5
234
330
658
100
AcDbEntity
  8
0
 62
    13
420
 13395558
100
AcDbLine
 10
28.86334610472537
 20
32.43933588761175
 30
0.0
 11
17.911877394636
 21
31.19412515964246
 31
0.0
  0
LINE
  5
235
330
658
100
AcDbEntity
  8
0
 62
    13
420
 13395558
100
AcDbLine
 10
17.911877394636
 20
31.19412515964246
 30
0.0
 11
8.812260536398409
 21
27.45849297573435
 31
0.0
  0
LINE
  5
236
330
658
100
AcDbEntity
  8
0
 62
    13
420
 13395558
100
AcDbLine
 10
8.812260536398409
 20
27.45849297573435
 30
0.0
 11
2.681992337164699
 21
21.20051085568337
 31
0.0
  0
LINE
  5
237
330
658
100
AcDbEntity
  8
0
 62
    13
420
 13395558
100
AcDbLine
 10
2.681992337164699
 20
21.20051085568337
 30
0.0
 11
0.6385696040867817
 21
12.38825031928484
 31
0.0
  0
LINE
  5
238
330
658
100
AcDbEntity
  8
0
 62
    13
420
 13395558
100
AcDbLine
 10
0.6385696040867817
 20
12.38825031928484
 30
0.0
 11
1.851851851851784
 21
4.581736909323158
 31
0.0
  0
LINE
  5
239
330
658
100
AcDbEntity
  8
0
 62
    13
420
 13395558
100
AcDbLine
 10
1.851851851851784
 20
4.581736909323158
 30
0.0
 11
5.491698595146792
 21
-0.9578544061302402
 31
0.0
  0
LINE
  5
23A
330
658
100
AcDbEntity
  8
0
 62
    13
420
 13395558
100
AcDbLine
 10
5.491698595146792
 20
-0.9578544061302402
 30
0.0
 11
11.81353767560659
 21
-4.9648786717752
 31
0.0
  0
LINE
  5
23B
330
658
100
AcDbEntity
  8
0
 62
    13
420
 13395558
100
AcDbLine
 10
11.81353767560659
 20
-4.9648786717752
 30
0.0
 11
21.0727969348658
 21
-8.173690932311592
 31
0.0
  0
LINE
  5
23C
330
658
100
AcDbEntity
  8
0
 62
    13
420
 13395558
100
AcDbLine
 10
21.0727969348658
 20
-8.173690932311592
 30
0.0
 11
33.01404853128992
 21
-10.91954022988503
 31
0.0
  0
LINE
  5
23D
330
658
100
AcDbEntity
  8
0
 62
    13
420
 13395558
100
AcDbLine
 10
33.01404853128992
 20
-10.91954022988503
 30
0.0
 11
46.8710089399744
 21
-14.04853128991057
 31
0.0
  0
LINE
  5
23E
330
658
100
AcDbEntity
  8
0
 62
    13
420
 13395558
100
AcDbLine
 10
46.8710089399744
 20
-14.04853128991057
 30
0.0
 11
60.74393358876109
 21
-19.31673052362704
 31
0.0
  0
LINE
  5
23F
330
658
100
AcDbEntity
  8
0
 62
    13
420
 13395558
100
AcDbLine
 10
60.74393358876109
 20
-19.31673052362704
 30
0.0
 11
70.6896551724137
 21
-27.20306513409959
 31
0.0
  0
LINE
  5
240
330
658
100
AcDbEntity
  8
0
 62
    13
420
 13395558
100
AcDbLine
 10
70.6896551724137
 20
-27.20306513409959
 30
0.0
 11
76.6762452107279
 21
-38.05874840357595
 31
0.0
  0
LINE
  5
241
330
658
100
AcDbEntity
  8
0
 62
    13
420
 13395558
100
AcDbLine
 10
76.6762452107279
 20
-38.05874840357595
 30
0.0
 11
78.6717752234993
 21
-52.23499361430394
 31
0.0
  0
LINE
  5
242
330
658
100
AcDbEntity
  8
0
 62
    13
420
 13395558
100
AcDbLine
 10
78.6717752234993
 20
-52.23499361430394
 30
0.0
 11
77.76181353767548
 21
-61.19093231162194
 31
0.0
  0
LINE
  5
243
330
658
100
AcDbEntity
  8
0
 62
    13
420
 13395558
100
AcDbLine
 10
77.76181353767548
 20
-61.19093231162194
 30
0.0
 11
75.03192848020427
 21
-69.66794380587481
 31
0.0
  0
LINE
  5
244
330
658
100
AcDbEntity
  8
0
 62
    13
420
 13395558
100
AcDbLine
 10
75.03192848020427
 20
-69.66794380587481
 30
0.0
 11
70.54597701149419
 21
-77.31481481481478
 31
0.0
  0
LINE
  5
245
330
658
100
AcDbEntity
  8
0
 62
    13
420
 13395558
100
AcDbLine
 10
70.54597701149419
 20
-77.31481481481478
 30
0.0
 11
64.36781609195401
 21
-83.7803320561941
 31
0.0
  0
LINE
  5
246
330
658
100
AcDbEntity
  8
0
 62
    13
420
 13395558
100
AcDbLine
 10
64.36781609195401
 20
-83.7803320561941
 30
0.0
 11
56.21008939974449
 21
-89.39974457215833
 31
0.0
  0
LINE
  5
247
330
658
100
AcDbEntity
  8
0
 62
    13
420
 13395558
100
AcDbLine
 10
56.21008939974449
 20
-89.39974457215833
 30
0.0
 11
47.06257982120047
 21
-93.48659003831415
 31
0.0
  0
LINE
  5
248
330
658
100
AcDbEntity
  8
0
 62
    13
420
 13395558
100
AcDbLine
 10
47.06257982120047
 20
-93.48659003831415
 30
0.0
 11
36.19093231162189
 21
-95.97701149425284
 31
0.0
  0
LINE
  5
249
330
658
100
AcDbEntity
  8
0
 62
    13
420
 13395558
100
AcDbLine
 10
36.19093231162189
 20
-95.97701149425284
 30
0.0
 11
22.86079182630898
 21
-96.80715197956575
 31
0.0
  0
LINE
  5
24A
330
658
100
AcDbEntity
  8
0
 62
    13
420
 13395558
100
AcDbLine
 10
22.86079182630898
 20
-96.80715197956575
 30
0.0
 11
9.019795657726586
 21
-95.84929757343548
 31
0.0
  0
LINE
  5
24B
330
658
100
AcDbEntity
  8
0
 62
    13
420
 13395558
100
AcDbLine
 10
9.019795657726586
 20
-95.84929757343548
 30
0.0
 11
-3.895274584929815
 21
-92.97573435504466
 31
0.0
  0
LINE
  5
24C
330
658
100
AcDbEntity
  8
0
 62
    13
420
 13395558
100
AcDbLine
 10
-3.895274584929815
 20
-92.97573435504466
 30
0.0
 11
-24.5210727969349
 21
-84.80204342273304
 31
0.0
  0
LINE
  5
24D
330
658
100
AcDbEntity
  8
0
 62
    13
420
 13395558
100
AcDbLine
 10
-24.5210727969349
 20
-84.80204342273304
 30
0.0
 11
-24.5210727969349
 21
-57.85440613026817
 31
0.0
  0
LINE
  5
24E
330
658
100
AcDbEntity
  8
0
 62
    13
420
 13395558
100
AcDbLine
 10
-24.5210727969349
 20
-57.85440613026817
 30
0.0
 11
-23.2439335887612
 21
-57.85440613026817
 31
0.0
  0
LINE
  5
24F
330
658
100
AcDbEntity
  8
0
 62
    13
420
 13395558
100
AcDbLine
 10
-23.2439335887612
 20
-57.85440613026817
 30
0.0
 11
-16.02809706257991
 21
-63.21839080459768
 31
0.0
  0
LINE
  5
250
330
658
100
AcDbEntity
  8
0
 62
    13
420
 13395558
100
AcDbLine
 10
-16.02809706257991
 20
-63.21839080459768
 30
0.0
 11
-4.980842911877493
 21
-69.34865900383139
 31
0.0
  0
LINE
  5
251
330
658
100
AcDbEntity
  8
0
 62
    13
420
 13395558
100
AcDbLine
 10
-4.980842911877493
 20
-69.34865900383139
 30
0.0
 11
8.492975734354994
 21
-74.32950191570878
 31
0.0
  0
LINE
  5
252
330
658
100
AcDbEntity
  8
0
 62
    13
420
 13395558
100
AcDbLine
 10
8.492975734354994
 20
-74.32950191570878
 30
0.0
 11
23.75478927203059
 21
-76.50063856960405
 31
0.0
  0
LINE
  5
253
330
658
100
AcDbEntity
  8
0
 62
    13
420
 13395558
100
AcDbLine
 10
23.75478927203059
 20
-76.50063856960405
 30
0.0
 11
36.01532567049799
 21
-75.15964240102169
 31
0.0
  0
LINE
  5
254
330
658
100
AcDbEntity
  8
0
 62
    13
420
 13395558
100
AcDbLine
 10
36.01532567049799
 20
-75.15964240102169
 30
0.0
 11
45.72158365261809
 21
-71.7752234993614
 31
0.0
  0
LINE
  5
255
330
658
100
AcDbEntity
  8
0
 62
    13
420
 13395558
100
AcDbLine
 10
45.72158365261809
 20
-71.7752234993614
 30
0.0
 11
52.17113665389522
 21
-65.51724137931032
 31
0.0
  0
LINE
  5
256
330
658
100
AcDbEntity
  8
0
 62
    13
420
 13395558
100
AcDbLine
 10
52.17113665389522
 20
-65.51724137931032
 30
0.0
 11
54.15070242656446
 21
-55.55555555555552
 31
0.0
  0
LINE
  5
257
330
658
100
AcDbEntity
  8
0
 62
    13
420
 13395558
100
AcDbLine
 10
54.15070242656446
 20
-55.55555555555552
 30
0.0
 11
52.985312899106
 21
-48.05236270753508
 31
0.0
  0
LINE
  5
258
330
658
100
AcDbEntity
  8
0
 62
    13
420
 13395558
100
AcDbLine
 10
52.985312899106
 20
-48.05236270753508
 30
0.0
 11
49.48914431673052
 21
-42.65644955300125
 31
0.0
  0
LINE
  5
259
330
658
100
AcDbEntity
  8
0
 62
    13
420
 13395558
100
AcDbLine
 10
49.48914431673052
 20
-42.65644955300125
 30
0.0
 11
43.02362707535119
 21
-38.66538952745845
 31
0.0
  0
LINE
  5
25A
330
658
100
AcDbEntity
  8
0
 62
    13
420
 13395558
100
AcDbLine
 10
43.02362707535119
 20
-38.66538952745845
 30
0.0
 11
32.9501915708812
 21
-35.37675606641122
 31
0.0
  0
LINE
  5
25B
330
658
100
AcDbEntity
  8
0
 62
    13
420
 13395558
100
AcDbLine
 10
32.9501915708812
 20
-35.37675606641122
 30
0.0
 11
20.94508301404848
 21
-32.69476372924646
 31
0.0
  0
LINE
  5
25C
330
658
100
AcDbEntity
  8
0
 62
    13
420
 13395558
100
AcDbLine
 10
20.94508301404848
 20
-32.69476372924646
 30
0.0
 11
7.279693486589992
 21
-29.37420178799487
 31
0.0
  0
LINE
  5
25D
330
658
100
AcDbEntity
  8
0
 62
    13
420
 13395558
100
AcDbLine
 10
7.279693486589992
 20
-29.37420178799487
 30
0.0
 11
-6.832694763729322
 21
-23.35568326947635
 31
0.0
  0
LINE
  5
25E
330
658
100
AcDbEntity
  8
0
 62
    13
420
 13395558
100
AcDbLine
 10
-6.832694763729322
 20
-23.35568326947635
 30
0.0
 11
-16.47509578544069
 21
-14.7509578544061
 31
0.0
  0
LINE
  5
25F
330
658
100
AcDbEntity
  8
0
 62
    13
420
 13395558
100
AcDbLine
 10
-16.47509578544069
 20
-14.7509578544061
 30
0.0
 11
-22.0306513409962
 21
-3.815453384418894
 31
0.0
  0
LINE
  5
260
330
658
100
AcDbEntity
  8
0
 62
    13
420
 13395558
100
AcDbLine
 10
-22.0306513409962
 20
-3.815453384418894
 30
0.0
 11
-23.88250319284812
 21
9.195402298850642
 31
0.0
  0
LINE
  5
261
330
658
100
AcDbEntity
  8
0
 62
    13
420
 13395558
100
AcDbLine
 10
-23.88250319284812
 20
9.195402298850642
 30
0.0
 11
-22.97254150702442
 21
18.39080459770114
 31
0.0
  0
LINE
  5
262
330
658
100
AcDbEntity
  8
0
 62
    13
420
 13395558
100
AcDbLine
 10
-22.97254150702442
 20
18.39080459770114
 30
0.0
 11
-20.24265644955311
 21
26.69220945083016
 31
0.0
  0
LINE
  5
263
330
658
100
AcDbEntity
  8
0
 62
    13
420
 13395558
100
AcDbLine
 10
-20.24265644955311
 20
26.69220945083016
 30
0.0
 11
-15.69284802043431
 21
34.09961685823754
 31
0.0
  0
LINE
  5
264
330
658
100
AcDbEntity
  8
0
 62
    13
420
 13395558
100
AcDbLine
 10
-15.69284802043431
 20
34.09961685823754
 30
0.0
 11
-9.323116219668023
 21
40.61302681992345
 31
0.0
  0
LINE
  5
265
330
658
100
AcDbEntity
  8
0
 62
    13
420
 13395558
100
AcDbLine
 10
-9.323116219668023
 20
40.61302681992345
 30
0.0
 11
-1.444763729246619
 21
45.92113665389525
 31
0.0
  0
LINE
  5
266
330
658
100
AcDbEntity
  8
0
 62
    13
420
 13395558
100
AcDbLine
 10
-1.444763729246619
 20
45.92113665389525
 30
0.0
 11
7.630906768837788
 21
49.71264367816093
 31
0.0
  0
LINE
  5
267
330
658
100
AcDbEntity
  8
0
 62
    13
420
 13395558
100
AcDbLine
 10
170.7535121328225
 20
49.29757343550444
 30
0.0
 11
170.7535121328225
 21
29.37420178799495
 31
0.0
  0
LINE
  5
268
330
658
100
AcDbEntity
  8
0
 62
    13
420
 13395558
100
AcDbLine
 10
170.7535121328225
 20
29.37420178799495
 30
0.0
 11
126.5644955300127
 21
29.37420178799495
 31
0.0
  0
LINE
  5
269
330
658
100
AcDbEntity
  8
0
 62
     0
100
AcDbLine
 10
126.5644955300127
 20
29.37420178799495
 30
0.0
 11
126.5644955300127
 21
49.29757343550444
 31
0.0
  0
LINE
  5
26A
330
658
100
AcDbEntity
  8
0
 62
    13
420
 13395558
100
AcDbLine
 10
126.5644955300127
 20
49.29757343550444
 30
0.0
 11
170.7535121328225
 21
49.29757343550444
 31
0.0
  0
LINE
  5
26B
330
658
100
AcDbEntity
  8
0
 62
     0
100
AcDbLine
 10
126.5644955300127
 20
90.29374201787995
 30
0.0
 11
126.5644955300127
 21
-38.44189016602807
 31
0.0
  0
LINE
  5
26C
330
658
100
AcDbEntity
  8
0
 62
    13
420
 13395558
100
AcDbLine
 10
126.5644955300127
 20
-38.44189016602807
 30
0.0
 11
126.9476372924649
 21
-55.17241379310342
 31
0.0
  0
LINE
  5
26D
330
658
100
AcDbEntity
  8
0
 62
    13
420
 13395558
100
AcDbLine
 10
126.9476372924649
 20
-55.17241379310342
 30
0.0
 11
129.8850574712643
 21
-66.15581098339716
 31
0.0
  0
LINE
  5
26E
330
658
100
AcDbEntity
  8
0
 62
    13
420
 13395558
100
AcDbLine
 10
129.8850574712643
 20
-66.15581098339716
 30
0.0
 11
132.7266922094508
 21
-70.06704980842909
 31
0.0
  0
LINE
  5
26F
330
658
100
AcDbEntity
  8
0
 62
    13
420
 13395558
100
AcDbLine
 10
132.7266922094508
 20
-70.06704980842909
 30
0.0
 11
136.9093231162196
 21
-72.86079182630904
 31
0.0
  0
LINE
  5
270
330
658
100
AcDbEntity
  8
0
 62
    13
420
 13395558
100
AcDbLine
 10
136.9093231162196
 20
-72.86079182630904
 30
0.0
 11
150.0638569604086
 21
-75.09578544061299
 31
0.0
  0
LINE
  5
271
330
658
100
AcDbEntity
  8
0
 62
    13
420
 13395558
100
AcDbLine
 10
150.0638569604086
 20
-75.09578544061299
 30
0.0
 11
161.4303959131545
 21
-73.37164750957851
 31
0.0
  0
LINE
  5
272
330
658
100
AcDbEntity
  8
0
 62
    13
420
 13395558
100
AcDbLine
 10
161.4303959131545
 20
-73.37164750957851
 30
0.0
 11
169.3486590038314
 21
-70.4980842911877
 31
0.0
  0
LINE
  5
273
330
658
100
AcDbEntity
  8
0
 62
    13
420
 13395558
100
AcDbLine
 10
169.3486590038314
 20
-70.4980842911877
 30
0.0
 11
170.7535121328225
 21
-70.4980842911877
 31
0.0
  0
LINE
  5
274
330
658
100
AcDbEntity
  8
0
 62
    13
420
 13395558
100
AcDbLine
 10
170.7535121328225
 20
-70.4980842911877
 30
0.0
 11
170.7535121328225
 21
-92.08173690932308
 31
0.0
  0
LINE
  5
275
330
658
100
AcDbEntity
  8
0
 62
    13
420
 13395558
100
AcDbLine
 10
170.7535121328225
 20
-92.08173690932308
 30
0.0
 11
157.0242656449552
 21
-95.08301404853125
 31
0.0
  0
LINE
  5
276
330
658
100
AcDbEntity
  8
0
 62
    13
420
 13395558
100
AcDbLine
 10
157.0242656449552
 20
-95.08301404853125
 30
0.0
 11
144.1890166028096
 21
-96.16858237547889
 31
0.0
  0
LINE
  5
277
330
658
100
AcDbEntity
  8
0
 62
    13
420
 13395558
100
AcDbLine
 10
144.1890166028096
 20
-96.16858237547889
 30
0.0
 11
134.8978288633461
 21
-95.47014687100891
 31
0.0
  0
LINE
  5
278
330
658
100
AcDbEntity
  8
0
 62
    13
420
 13395558
100
AcDbLine
 10
134.8978288633461
 20
-95.47014687100891
 30
0.0
 11
126.6922094508301
 21
-93.37484035759894
 31
0.0
  0
LINE
  5
279
330
658
100
AcDbEntity
  8
0
 62
    13
420
 13395558
100
AcDbLine
 10
126.6922094508301
 20
-93.37484035759894
 30
0.0
 11
119.5721583652618
 21
-89.88266283524901
 31
0.0
  0
LINE
  5
27A
330
658
100
AcDbEntity
  8
0
 62
    13
420
 13395558
100
AcDbLine
 10
119.5721583652618
 20
-89.88266283524901
 30
0.0
 11
113.537675606641
 21
-84.9936143039591
 31
0.0
  0
LINE
  5
27B
330
658
100
AcDbEntity
  8
0
 62
    13
420
 13395558
100
AcDbLine
 10
113.537675606641
 20
-84.9936143039591
 30
0.0
 11
108.7324393358876
 21
-78.595945083014
 31
0.0
  0
LINE
  5
27C
330
658
100
AcDbEntity
  8
0
 62
    13
420
 13395558
100
AcDbLine
 10
108.7324393358876
 20
-78.595945083014
 30
0.0
 11
105.3001277139208
 21
-70.57790549169857
 31
0.0
  0
LINE
  5
27D
330
658
100
AcDbEntity
  8
0
 62
    13
420
 13395558
100
AcDbLine
 10
105.3001277139208
 20
-70.57790549169857
 30
0.0
 11
103.2407407407406
 21
-60.93949553001274
 31
0.0
  0
LINE
  5
27E
330
658
100
AcDbEntity
  8
0
 62
    13
420
 13395558
100
AcDbLine
 10
103.2407407407406
 20
-60.93949553001274
 30
0.0
 11
102.5542784163473
 21
-49.68071519795654
 31
0.0
  0
LINE
  5
27F
330
658
100
AcDbEntity
  8
0
 62
    13
420
 13395558
100
AcDbLine
 10
102.5542784163473
 20
-49.68071519795654
 30
0.0
 11
102.5542784163473
 21
29.37420178799495
 31
0.0
  0
LINE
  5
280
330
658
100
AcDbEntity
  8
0
 62
    13
420
 13395558
100
AcDbLine
 10
102.5542784163473
 20
29.37420178799495
 30
0.0
 11
86.3346104725414
 21
29.37420178799495
 31
0.0
  0
LINE
  5
281
330
658
100
AcDbEntity
  8
0
 62
    13
420
 13395558
100
AcDbLine
 10
86.3346104725414
 20
29.37420178799495
 30
0.0
 11
86.3346104725414
 21
49.29757343550444
 31
0.0
  0
LINE
  5
282
330
658
100
AcDbEntity
  8
0
 62
    13
420
 13395558
100
AcDbLine
 10
86.3346104725414
 20
49.29757343550444
 30
0.0
 11
102.5542784163473
 21
49.29757343550444
 31
0.0
  0
LINE
  5
283
330
658
100
AcDbEntity
  8
0
 62
    13
420
 13395558
100
AcDbLine
 10
102.5542784163473
 20
49.29757343550444
 30
0.0
 11
102.5542784163473
 21
90.29374201787995
 31
0.0
  0
LINE
  5
284
330
658
100
AcDbEntity
  8
0
 62
    13
420
 13395558
100
AcDbLine
 10
102.5542784163473
 20
90.29374201787995
 30
0.0
 11
126.5644955300127
 21
90.29374201787995
 31
0.0
  0
ENDBLK
  5
65A
330
658
100
AcDbEntity
  8
0
100
AcDbBlockEnd
  0
BLOCK
  5
65C
330
65B
100
AcDbEntity
  8
0
100
AcDbBlockBegin
  2
Commerce gaten grondvlak 2017 cleaned.dxf
 70
     0
 10
0.0
 20
0.0
 30
0.0
  3
Commerce gaten grondvlak 2017 cleaned.dxf
  1

  0
LINE
  5
503
330
65B
100
AcDbEntity
  8
ProcPart_18
 62
    36
420
  8339200
100
AcDbLine
 10
1268.571999999999
 20
2158.944
 30
0.0000008898984753
 11
1268.571999999999
 21
0.0
 31
0.0000008898984753
  0
LINE
  5
504
330
65B
100
AcDbEntity
  8
ProcPart_18
 62
    36
420
  8339200
100
AcDbLine
 10
1268.571999999999
 20
0.0
 30
0.0000008898984753
 11
0.0
 21
0.0000000000001918
 31
0.0000008898984753
  0
LINE
  5
505
330
65B
100
AcDbEntity
  8
ProcPart_18
 62
    36
420
  8339200
100
AcDbLine
 10
0.0
 20
0.0000000000001918
 30
0.0000008898984753
 11
0.0
 21
2158.944
 31
0.0000008898984753
  0
LINE
  5
506
330
65B
100
AcDbEntity
  8
ProcPart_18
 62
    36
420
  8339200
100
AcDbLine
 10
0.0
 20
2158.944
 30
0.0000008898984753
 11
1268.571999999999
 21
2158.944
 31
0.0000008898984753
  0
INSERT
  5
507
330
65B
100
AcDbEntity
  8
0
 62
    13
420
 13395558
100
AcDbBlockReference
  2
MDF_6_STANDAARD
 10
1294.201485930253
 20
2751.194629143553
 30
0.1602200600471373
  0
INSERT
  5
508
330
65B
100
AcDbEntity
  8
0
 62
    13
420
 13395558
100
AcDbBlockReference
  2
4ST
 10
3495.027365618035
 20
2392.789381453921
 30
1.159899465698865
  0
INSERT
  5
509
330
65B
100
AcDbEntity
  8
0
 62
    13
420
 13395558
100
AcDbBlockReference
  2
GROUP_1
 10
3548.785996869522
 20
1101.903437390684
 30
0.0799505130998276
  0
ENDBLK
  5
65D
330
65B
100
AcDbEntity
  8
0
100
AcDbBlockEnd
  0
BLOCK
  5
65F
330
65E
100
AcDbEntity
  8
0
100
AcDbBlockBegin
  2
Group4#1
 70
     0
 10
0.0
 20
0.0
 30
0.0
  3
Group4#1
  1

  0
LINE
  5
50A
330
65E
100
AcDbEntity
  8
ProcPart_18
 62
     0
100
AcDbLine
 10
0.0
 20
0.0
 30
0.0
 11
0.254
 21
0.0
 31
0.0
  0
ENDBLK
  5
660
330
65E
100
AcDbEntity
  8
0
100
AcDbBlockEnd
  0
BLOCK
  5
662
330
661
100
AcDbEntity
  8
0
100
AcDbBlockBegin
  2
GROUP_1
 70
     0
 10
0.0
 20
0.0
 30
0.0
  3
GROUP_1
  1

  0
LINE
  5
285
330
661
100
AcDbEntity
  8
0
 62
    13
420
 13395558
100
AcDbLine
 10
-402.4999776204687
 20
-944.6532552021632
 30
0.0715685498062884
 11
-402.4946249280448
 21
-944.4897473804833
 31
0.0715512964341892
  0
LINE
  5
286
330
661
100
AcDbEntity
  8
0
 62
    13
420
 13395558
100
AcDbLine
 10
-402.4946249280448
 20
-944.4897473804833
 30
0.0715512964341892
 11
-402.4785897729005
 21
-944.3269397243981
 31
0.0715344477239053
  0
LINE
  5
287
330
661
100
AcDbEntity
  8
0
 62
    13
420
 13395558
100
AcDbLine
 10
-402.4785897729005
 20
-944.3269397243981
 30
0.0715344477239053
 11
-402.4519408200316
 21
-944.1655294012855
 31
0.0715180758242008
  0
LINE
  5
288
330
661
100
AcDbEntity
  8
0
 62
    13
420
 13395558
100
AcDbLine
 10
-402.4519408200316
 20
-944.1655294012855
 30
0.0715180758242008
 11
-402.4147921843458
 21
-944.0062075949294
 31
0.0715022508420637
  0
LINE
  5
289
330
661
100
AcDbEntity
  8
0
 62
    13
420
 13395558
100
AcDbLine
 10
-402.4147921843458
 20
-944.0062075949294
 30
0.0715022508420637
 11
-402.3673029420041
 21
-943.849656545764
 31
0.071487040542497
  0
LINE
  5
28A
330
661
100
AcDbEntity
  8
0
 62
    13
420
 13395558
100
AcDbLine
 10
-402.3673029420041
 20
-943.849656545764
 30
0.071487040542497
 11
-402.3096764492329
 21
-943.6965466294159
 31
0.0714725100583385
  0
LINE
  5
28B
330
661
100
AcDbEntity
  8
0
 62
    13
420
 13395558
100
AcDbLine
 10
-402.3096764492329
 20
-943.6965466294159
 30
0.0714725100583385
 11
-402.2421594715212
 21
-943.547533486053
 31
0.0714587216113523
  0
LINE
  5
28C
330
661
100
AcDbEntity
  8
0
 62
    13
420
 13395558
100
AcDbLine
 10
-402.2421594715212
 20
-943.547533486053
 30
0.0714587216113523
 11
-402.1650411269331
 21
-943.4032552128319
 31
0.0714457342457851
  0
LINE
  5
28D
330
661
100
AcDbEntity
  8
0
 62
    13
420
 13395558
100
AcDbLine
 10
-402.1650411269331
 20
-943.4032552128319
 30
0.0714457342457851
 11
-402.0786516480594
 21
-943.2643296314686
 31
0.0714336035755301
  0
LINE
  5
28E
330
661
100
AcDbEntity
  8
0
 62
    13
420
 13395558
100
AcDbLine
 10
-402.0786516480594
 20
-943.2643296314686
 30
0.0714336035755301
 11
-401.9833609679115
 21
-943.1313516426306
 31
0.0714223815459797
  0
LINE
  5
28F
330
661
100
AcDbEntity
  8
0
 62
    13
420
 13395558
100
AcDbLine
 10
-401.9833609679115
 20
-943.1313516426306
 30
0.0714223815459797
 11
-401.879577135811
 21
-943.0048906784816
 31
0.0714121162115873
  0
LINE
  5
290
330
661
100
AcDbEntity
  8
0
 62
    13
420
 13395558
100
AcDbLine
 10
-401.879577135811
 20
-943.0048906784816
 30
0.0714121162115873
 11
-401.7677445700601
 21
-942.8854882642846
 31
0.0714028515300908
  0
LINE
  5
291
330
661
100
AcDbEntity
  8
0
 62
    13
420
 13395558
100
AcDbLine
 10
-401.7677445700601
 20
-942.8854882642846
 30
0.0714028515300908
 11
-401.6483421548743
 21
-942.7736556995079
 31
0.0713946271742785
  0
LINE
  5
292
330
661
100
AcDbEntity
  8
0
 62
    13
420
 13395558
100
AcDbLine
 10
-401.6483421548743
 20
-942.7736556995079
 30
0.0713946271742785
 11
-401.5218811897265
 21
-942.6698718683631
 31
0.0713874783621048
  0
LINE
  5
293
330
661
100
AcDbEntity
  8
0
 62
    13
420
 13395558
100
AcDbLine
 10
-401.5218811897265
 20
-942.6698718683631
 30
0.0713874783621048
 11
-401.3889031998838
 21
-942.5745811891481
 31
0.0713814357058808
  0
LINE
  5
294
330
661
100
AcDbEntity
  8
0
 62
    13
420
 13395558
100
AcDbLine
 10
-401.3889031998838
 20
-942.5745811891481
 30
0.0713814357058808
 11
-401.2499776175142
 21
-942.4881917111807
 31
0.0713765250811883
  0
LINE
  5
295
330
661
100
AcDbEntity
  8
0
 62
    13
420
 13395558
100
AcDbLine
 10
-401.2499776175142
 20
-942.4881917111807
 30
0.0713765250811883
 11
-401.1056993432894
 21
-942.4110733674682
 31
0.071372767516076
  0
LINE
  5
296
330
661
100
AcDbEntity
  8
0
 62
    13
420
 13395558
100
AcDbLine
 10
-401.1056993432894
 20
-942.4110733674682
 30
0.071372767516076
 11
-400.9566861989298
 21
-942.3435563905981
 31
0.0713701791010146
  0
LINE
  5
297
330
661
100
AcDbEntity
  8
0
 62
    13
420
 13395558
100
AcDbLine
 10
-400.9566861989298
 20
-942.3435563905981
 30
0.0713701791010146
 11
-400.8035762815963
 21
-942.2859298986305
 31
0.0713687709199948
  0
LINE
  5
298
330
661
100
AcDbEntity
  8
0
 62
    13
420
 13395558
100
AcDbLine
 10
-400.8035762815963
 20
-942.2859298986305
 30
0.0713687709199948
 11
-400.6470252314609
 21
-942.2384406570508
 31
0.0713685490030639
  0
LINE
  5
299
330
661
100
AcDbEntity
  8
0
 62
    13
420
 13395558
100
AcDbLine
 10
-400.6470252314609
 20
-942.2384406570508
 30
0.0713685490030639
 11
-400.4877034241545
 21
-942.2012920220824
 31
0.0713695143005043
  0
LINE
  5
29A
330
661
100
AcDbEntity
  8
0
 62
    13
420
 13395558
100
AcDbLine
 10
-400.4877034241545
 20
-942.2012920220824
 30
0.0713695143005043
 11
-400.3262931001153
 21
-942.1746430698834
 31
0.0713716626787641
  0
LINE
  5
29B
330
661
100
AcDbEntity
  8
0
 62
    13
420
 13395558
100
AcDbLine
 10
-400.3262931001153
 20
-942.1746430698834
 30
0.0713716626787641
 11
-400.1634854431312
 21
-942.1586079153584
 31
0.0713749849381578
  0
LINE
  5
29C
330
661
100
AcDbEntity
  8
0
 62
    13
420
 13395558
100
AcDbLine
 10
-400.1634854431312
 20
-942.1586079153584
 30
0.0713749849381578
 11
-399.9999776205839
 21
-942.1532552235004
 31
0.0713794668522607
  0
LINE
  5
29D
330
661
100
AcDbEntity
  8
0
 62
    13
420
 13395558
100
AcDbLine
 10
-399.9999776205839
 20
-942.1532552235004
 30
0.0713794668522607
 11
-399.8364697980719
 21
-942.1586079153584
 31
0.0713850892288284
  0
LINE
  5
29E
330
661
100
AcDbEntity
  8
0
 62
    13
420
 13395558
100
AcDbLine
 10
-399.8364697980719
 20
-942.1586079153584
 30
0.0713850892288284
 11
-399.6736621411933
 21
-942.1746430698834
 31
0.0713918279919814
  0
LINE
  5
29F
330
661
100
AcDbEntity
  8
0
 62
    13
420
 13395558
100
AcDbLine
 10
-399.6736621411933
 20
-942.1746430698834
 30
0.0713918279919814
 11
-399.5122518173296
 21
-942.2012920220824
 31
0.0713996542853012
  0
LINE
  5
2A0
330
661
100
AcDbEntity
  8
0
 62
    13
420
 13395558
100
AcDbLine
 10
-399.5122518173296
 20
-942.2012920220824
 30
0.0713996542853012
 11
-399.3529300102677
 21
-942.2384406570508
 31
0.0714085345953984
  0
LINE
  5
2A1
330
661
100
AcDbEntity
  8
0
 62
    13
420
 13395558
100
AcDbLine
 10
-399.3529300102677
 20
-942.2384406570508
 30
0.0714085345953984
 11
-399.196378960445
 21
-942.2859298986305
 31
0.0714184308954218
  0
LINE
  5
2A2
330
661
100
AcDbEntity
  8
0
 62
    13
420
 13395558
100
AcDbLine
 10
-399.196378960445
 20
-942.2859298986305
 30
0.0714184308954218
 11
-399.0432690434909
 21
-942.3435563905981
 31
0.0714293008078954
  0
LINE
  5
2A3
330
661
100
AcDbEntity
  8
0
 62
    13
420
 13395558
100
AcDbLine
 10
-399.0432690434909
 20
-942.3435563905981
 30
0.0714293008078954
 11
-398.8942558995757
 21
-942.4110733674682
 31
0.0714410977861852
  0
LINE
  5
2A4
330
661
100
AcDbEntity
  8
0
 62
    13
420
 13395558
100
AcDbLine
 10
-398.8942558995757
 20
-942.4110733674682
 30
0.0714410977861852
 11
-398.7499776258586
 21
-942.4881917111807
 31
0.071453771313819
  0
LINE
  5
2A5
330
661
100
AcDbEntity
  8
0
 62
    13
420
 13395558
100
AcDbLine
 10
-398.7499776258586
 20
-942.4881917111807
 30
0.071453771313819
 11
-398.6110520440577
 21
-942.5745811891481
 31
0.0714672671208059
  0
LINE
  5
2A6
330
661
100
AcDbEntity
  8
0
 62
    13
420
 13395558
100
AcDbLine
 10
-398.6110520440577
 20
-942.5745811891481
 30
0.0714672671208059
 11
-398.4780740548424
 21
-942.6698718683631
 31
0.0714815274160284
  0
LINE
  5
2A7
330
661
100
AcDbEntity
  8
0
 62
    13
420
 13395558
100
AcDbLine
 10
-398.4780740548424
 20
-942.6698718683631
 30
0.0714815274160284
 11
-398.3516130903777
 21
-942.7736556995079
 31
0.0714964911347131
  0
LINE
  5
2A8
330
661
100
AcDbEntity
  8
0
 62
    13
420
 13395558
100
AcDbLine
 10
-398.3516130903777
 20
-942.7736556995079
 30
0.0714964911347131
 11
-398.2322106759282
 21
-942.8854882642846
 31
0.0715120941999193
  0
LINE
  5
2A9
330
661
100
AcDbEntity
  8
0
 62
    13
420
 13395558
100
AcDbLine
 10
-398.2322106759282
 20
-942.8854882642846
 30
0.0715120941999193
 11
-398.1203781109634
 21
-943.0048906784816
 31
0.0715282697969264
  0
LINE
  5
2AA
330
661
100
AcDbEntity
  8
0
 62
    13
420
 13395558
100
AcDbLine
 10
-398.1203781109634
 20
-943.0048906784816
 30
0.0715282697969264
 11
-398.0165942796954
 21
-943.1313516426306
 31
0.0715449486593446
  0
LINE
  5
2AB
330
661
100
AcDbEntity
  8
0
 62
    13
420
 13395558
100
AcDbLine
 10
-398.0165942796954
 20
-943.1313516426306
 30
0.0715449486593446
 11
-397.921303600423
 21
-943.2643296314686
 31
0.0715620593657246
  0
LINE
  5
2AC
330
661
100
AcDbEntity
  8
0
 62
    13
420
 13395558
100
AcDbLine
 10
-397.921303600423
 20
-943.2643296314686
 30
0.0715620593657246
 11
-397.8349141224638
 21
-943.4032552128319
 31
0.0715795286453947
  0
LINE
  5
2AD
330
661
100
AcDbEntity
  8
0
 62
    13
420
 13395558
100
AcDbLine
 10
-397.8349141224638
 20
-943.4032552128319
 30
0.0715795286453947
 11
-397.7577957788255
 21
-943.547533486053
 31
0.0715972816922174
  0
LINE
  5
2AE
330
661
100
AcDbEntity
  8
0
 62
    13
420
 13395558
100
AcDbLine
 10
-397.7577957788255
 20
-943.547533486053
 30
0.0715972816922174
 11
-397.690278802095
 21
-943.6965466294159
 31
0.0716152424849207
  0
LINE
  5
2AF
330
661
100
AcDbEntity
  8
0
 62
    13
420
 13395558
100
AcDbLine
 10
-397.690278802095
 20
-943.6965466294159
 30
0.0716152424849207
 11
-397.6326523103317
 21
-943.849656545764
 31
0.071633334112633
  0
LINE
  5
2B0
330
661
100
AcDbEntity
  8
0
 62
    13
420
 13395558
100
AcDbLine
 10
-397.6326523103317
 20
-943.849656545764
 30
0.071633334112633
 11
-397.5851630690206
 21
-944.0062075949294
 31
0.0716514791042267
  0
LINE
  5
2B1
330
661
100
AcDbEntity
  8
0
 62
    13
420
 13395558
100
AcDbLine
 10
-397.5851630690206
 20
-944.0062075949294
 30
0.0716514791042267
 11
-397.5480144343837
 21
-944.1655294012855
 31
0.0716695997600624
  0
LINE
  5
2B2
330
661
100
AcDbEntity
  8
0
 62
    13
420
 13395558
100
AcDbLine
 10
-397.5480144343837
 20
-944.1655294012855
 30
0.0716695997600624
 11
-397.5213654825774
 21
-944.3269397243981
 31
0.0716876184847097
  0
LINE
  5
2B3
330
661
100
AcDbEntity
  8
0
 62
    13
420
 13395558
100
AcDbLine
 10
-397.5213654825774
 20
-944.3269397243981
 30
0.0716876184847097
 11
-397.505330328505
 21
-944.4897473804833
 31
0.0717054581192234
  0
LINE
  5
2B4
330
661
100
AcDbEntity
  8
0
 62
    13
420
 13395558
100
AcDbLine
 10
-397.505330328505
 20
-944.4897473804833
 30
0.0717054581192234
 11
-397.4999776371575
 21
-944.6532552021632
 31
0.0717230422715498
  0
LINE
  5
2B5
330
661
100
AcDbEntity
  8
0
 62
    13
420
 13395558
100
AcDbLine
 10
-397.4999776371575
 20
-944.6532552021632
 30
0.0717230422715498
 11
-397.5053303295813
 21
-944.8167630238431
 31
0.071740295643649
  0
LINE
  5
2B6
330
661
100
AcDbEntity
  8
0
 62
    13
420
 13395558
100
AcDbLine
 10
-397.5053303295813
 20
-944.8167630238431
 30
0.071740295643649
 11
-397.5213654847257
 21
-944.9795706799283
 31
0.0717571443539329
  0
LINE
  5
2B7
330
661
100
AcDbEntity
  8
0
 62
    13
420
 13395558
100
AcDbLine
 10
-397.5213654847257
 20
-944.9795706799283
 30
0.0717571443539329
 11
-397.5480144375945
 21
-945.1409810030409
 31
0.0717735162536374
  0
LINE
  5
2B8
330
661
100
AcDbEntity
  8
0
 62
    13
420
 13395558
100
AcDbLine
 10
-397.5480144375945
 20
-945.1409810030409
 30
0.0717735162536374
 11
-397.5851630732803
 21
-945.3003028093971
 31
0.0717893412357745
  0
LINE
  5
2B9
330
661
100
AcDbEntity
  8
0
 62
    13
420
 13395558
100
AcDbLine
 10
-397.5851630732803
 20
-945.3003028093971
 30
0.0717893412357745
 11
-397.6326523156221
 21
-945.4568538585625
 31
0.0718045515353412
  0
LINE
  5
2BA
330
661
100
AcDbEntity
  8
0
 62
    13
420
 13395558
100
AcDbLine
 10
-397.6326523156221
 20
-945.4568538585625
 30
0.0718045515353412
 11
-397.6902788083933
 21
-945.6099637749105
 31
0.0718190820194996
  0
LINE
  5
2BB
330
661
100
AcDbEntity
  8
0
 62
    13
420
 13395558
100
AcDbLine
 10
-397.6902788083933
 20
-945.6099637749105
 30
0.0718190820194996
 11
-397.7577957861049
 21
-945.7589769182734
 31
0.0718328704664859
  0
LINE
  5
2BC
330
661
100
AcDbEntity
  8
0
 62
    13
420
 13395558
100
AcDbLine
 10
-397.7577957861049
 20
-945.7589769182734
 30
0.0718328704664859
 11
-397.8349141306931
 21
-945.9032551914945
 31
0.0718458578320531
  0
LINE
  5
2BD
330
661
100
AcDbEntity
  8
0
 62
    13
420
 13395558
100
AcDbLine
 10
-397.8349141306931
 20
-945.9032551914945
 30
0.0718458578320531
 11
-397.9213036095667
 21
-946.0421807728578
 31
0.0718579885023081
  0
LINE
  5
2BE
330
661
100
AcDbEntity
  8
0
 62
    13
420
 13395558
100
AcDbLine
 10
-397.9213036095667
 20
-946.0421807728578
 30
0.0718579885023081
 11
-398.0165942897146
 21
-946.1751587616958
 31
0.0718692105318585
  0
LINE
  5
2BF
330
661
100
AcDbEntity
  8
0
 62
    13
420
 13395558
100
AcDbLine
 10
-398.0165942897146
 20
-946.1751587616958
 30
0.0718692105318585
 11
-398.1203781218152
 21
-946.3016197258448
 31
0.0718794758662509
  0
LINE
  5
2C0
330
661
100
AcDbEntity
  8
0
 62
    13
420
 13395558
100
AcDbLine
 10
-398.1203781218152
 20
-946.3016197258448
 30
0.0718794758662509
 11
-398.232210687566
 21
-946.4210221400418
 31
0.0718887405477474
  0
LINE
  5
2C1
330
661
100
AcDbEntity
  8
0
 62
    13
420
 13395558
100
AcDbLine
 10
-398.232210687566
 20
-946.4210221400418
 30
0.0718887405477474
 11
-398.3516131027518
 21
-946.5328547048184
 31
0.0718969649035597
  0
LINE
  5
2C2
330
661
100
AcDbEntity
  8
0
 62
    13
420
 13395558
100
AcDbLine
 10
-398.3516131027518
 20
-946.5328547048184
 30
0.0718969649035597
 11
-398.4780740678996
 21
-946.6366385359634
 31
0.0719041137157334
  0
LINE
  5
2C3
330
661
100
AcDbEntity
  8
0
 62
    13
420
 13395558
100
AcDbLine
 10
-398.4780740678996
 20
-946.6366385359634
 30
0.0719041137157334
 11
-398.6110520577423
 21
-946.7319292151784
 31
0.0719101563719573
  0
LINE
  5
2C4
330
661
100
AcDbEntity
  8
0
 62
    13
420
 13395558
100
AcDbLine
 10
-398.6110520577423
 20
-946.7319292151784
 30
0.0719101563719573
 11
-398.7499776401119
 21
-946.8183186931457
 31
0.0719150669966499
  0
LINE
  5
2C5
330
661
100
AcDbEntity
  8
0
 62
    13
420
 13395558
100
AcDbLine
 10
-398.7499776401119
 20
-946.8183186931457
 30
0.0719150669966499
 11
-398.8942559143367
 21
-946.8954370368581
 31
0.0719188245617622
  0
LINE
  5
2C6
330
661
100
AcDbEntity
  8
0
 62
    13
420
 13395558
100
AcDbLine
 10
-398.8942559143367
 20
-946.8954370368581
 30
0.0719188245617622
 11
-399.0432690586964
 21
-946.9629540137283
 31
0.0719214129768236
  0
LINE
  5
2C7
330
661
100
AcDbEntity
  8
0
 62
    13
420
 13395558
100
AcDbLine
 10
-399.0432690586964
 20
-946.9629540137283
 30
0.0719214129768236
 11
-399.1963789760298
 21
-947.020580505696
 31
0.0719228211578434
  0
LINE
  5
2C8
330
661
100
AcDbEntity
  8
0
 62
    13
420
 13395558
100
AcDbLine
 10
-399.1963789760298
 20
-947.020580505696
 30
0.0719228211578434
 11
-399.3529300261652
 21
-947.0680697472757
 31
0.0719230430747743
  0
LINE
  5
2C9
330
661
100
AcDbEntity
  8
0
 62
    13
420
 13395558
100
AcDbLine
 10
-399.3529300261652
 20
-947.0680697472757
 30
0.0719230430747743
 11
-399.5122518334717
 21
-947.1052183822441
 31
0.0719220777773339
  0
LINE
  5
2CA
330
661
100
AcDbEntity
  8
0
 62
    13
420
 13395558
100
AcDbLine
 10
-399.5122518334717
 20
-947.1052183822441
 30
0.0719220777773339
 11
-399.6736621575109
 21
-947.1318673344431
 31
0.0719199293990741
  0
LINE
  5
2CB
330
661
100
AcDbEntity
  8
0
 62
    13
420
 13395558
100
AcDbLine
 10
-399.6736621575109
 20
-947.1318673344431
 30
0.0719199293990741
 11
-399.836469814495
 21
-947.147902488968
 31
0.0719166071396804
  0
LINE
  5
2CC
330
661
100
AcDbEntity
  8
0
 62
    13
420
 13395558
100
AcDbLine
 10
-399.836469814495
 20
-947.147902488968
 30
0.0719166071396804
 11
-399.9999776370422
 21
-947.153255180826
 31
0.0719121252255775
  0
LINE
  5
2CD
330
661
100
AcDbEntity
  8
0
 62
    13
420
 13395558
100
AcDbLine
 10
-399.9999776370422
 20
-947.153255180826
 30
0.0719121252255775
 11
-400.1634854595542
 21
-947.147902488968
 31
0.0719065028490098
  0
LINE
  5
2CE
330
661
100
AcDbEntity
  8
0
 62
    13
420
 13395558
100
AcDbLine
 10
-400.1634854595542
 20
-947.147902488968
 30
0.0719065028490098
 11
-400.3262931164328
 21
-947.1318673344431
 31
0.0718997640858568
  0
LINE
  5
2CF
330
661
100
AcDbEntity
  8
0
 62
    13
420
 13395558
100
AcDbLine
 10
-400.3262931164328
 20
-947.1318673344431
 30
0.0718997640858568
 11
-400.4877034402965
 21
-947.1052183822441
 31
0.071891937792537
  0
LINE
  5
2D0
330
661
100
AcDbEntity
  8
0
 62
    13
420
 13395558
100
AcDbLine
 10
-400.4877034402965
 20
-947.1052183822441
 30
0.071891937792537
 11
-400.6470252473584
 21
-947.0680697472757
 31
0.0718830574824398
  0
LINE
  5
2D1
330
661
100
AcDbEntity
  8
0
 62
    13
420
 13395558
100
AcDbLine
 10
-400.6470252473584
 20
-947.0680697472757
 30
0.0718830574824398
 11
-400.8035762971812
 21
-947.020580505696
 31
0.0718731611824164
  0
LINE
  5
2D2
330
661
100
AcDbEntity
  8
0
 62
    13
420
 13395558
100
AcDbLine
 10
-400.8035762971812
 20
-947.020580505696
 30
0.0718731611824164
 11
-400.9566862141353
 21
-946.9629540137283
 31
0.0718622912699428
  0
LINE
  5
2D3
330
661
100
AcDbEntity
  8
0
 62
    13
420
 13395558
100
AcDbLine
 10
-400.9566862141353
 20
-946.9629540137283
 30
0.0718622912699428
 11
-401.1056993580505
 21
-946.8954370368581
 31
0.071850494291653
  0
LINE
  5
2D4
330
661
100
AcDbEntity
  8
0
 62
    13
420
 13395558
100
AcDbLine
 10
-401.1056993580505
 20
-946.8954370368581
 30
0.071850494291653
 11
-401.2499776317675
 21
-946.8183186931457
 31
0.0718378207640192
  0
LINE
  5
2D5
330
661
100
AcDbEntity
  8
0
 62
    13
420
 13395558
100
AcDbLine
 10
-401.2499776317675
 20
-946.8183186931457
 30
0.0718378207640192
 11
-401.3889032135685
 21
-946.7319292151784
 31
0.0718243249570323
  0
LINE
  5
2D6
330
661
100
AcDbEntity
  8
0
 62
    13
420
 13395558
100
AcDbLine
 10
-401.3889032135685
 20
-946.7319292151784
 30
0.0718243249570323
 11
-401.5218812027837
 21
-946.6366385359634
 31
0.0718100646618098
  0
LINE
  5
2D7
330
661
100
AcDbEntity
  8
0
 62
    13
420
 13395558
100
AcDbLine
 10
-401.5218812027837
 20
-946.6366385359634
 30
0.0718100646618098
 11
-401.6483421672484
 21
-946.5328547048184
 31
0.0717951009431251
  0
LINE
  5
2D8
330
661
100
AcDbEntity
  8
0
 62
    13
420
 13395558
100
AcDbLine
 10
-401.6483421672484
 20
-946.5328547048184
 30
0.0717951009431251
 11
-401.7677445816979
 21
-946.4210221400418
 31
0.0717794978779189
  0
LINE
  5
2D9
330
661
100
AcDbEntity
  8
0
 62
    13
420
 13395558
100
AcDbLine
 10
-401.7677445816979
 20
-946.4210221400418
 30
0.0717794978779189
 11
-401.8795771466627
 21
-946.3016197258448
 31
0.0717633222809118
  0
LINE
  5
2DA
330
661
100
AcDbEntity
  8
0
 62
    13
420
 13395558
100
AcDbLine
 10
-401.8795771466627
 20
-946.3016197258448
 30
0.0717633222809118
 11
-401.9833609779307
 21
-946.1751587616958
 31
0.0717466434184935
  0
LINE
  5
2DB
330
661
100
AcDbEntity
  8
0
 62
    13
420
 13395558
100
AcDbLine
 10
-401.9833609779307
 20
-946.1751587616958
 30
0.0717466434184935
 11
-402.0786516572032
 21
-946.0421807728578
 31
0.0717295327121136
  0
LINE
  5
2DC
330
661
100
AcDbEntity
  8
0
 62
    13
420
 13395558
100
AcDbLine
 10
-402.0786516572032
 20
-946.0421807728578
 30
0.0717295327121136
 11
-402.1650411351623
 21
-945.9032551914945
 31
0.0717120634324435
  0
LINE
  5
2DD
330
661
100
AcDbEntity
  8
0
 62
    13
420
 13395558
100
AcDbLine
 10
-402.1650411351623
 20
-945.9032551914945
 30
0.0717120634324435
 11
-402.2421594788006
 21
-945.7589769182734
 31
0.0716943103856208
  0
LINE
  5
2DE
330
661
100
AcDbEntity
  8
0
 62
    13
420
 13395558
100
AcDbLine
 10
-402.2421594788006
 20
-945.7589769182734
 30
0.0716943103856208
 11
-402.3096764555312
 21
-945.6099637749105
 31
0.0716763495929174
  0
LINE
  5
2DF
330
661
100
AcDbEntity
  8
0
 62
    13
420
 13395558
100
AcDbLine
 10
-402.3096764555312
 20
-945.6099637749105
 30
0.0716763495929174
 11
-402.3673029472944
 21
-945.4568538585625
 31
0.0716582579652052
  0
LINE
  5
2E0
330
661
100
AcDbEntity
  8
0
 62
    13
420
 13395558
100
AcDbLine
 10
-402.3673029472944
 20
-945.4568538585625
 30
0.0716582579652052
 11
-402.4147921886055
 21
-945.3003028093971
 31
0.0716401129736114
  0
LINE
  5
2E1
330
661
100
AcDbEntity
  8
0
 62
    13
420
 13395558
100
AcDbLine
 10
-402.4147921886055
 20
-945.3003028093971
 30
0.0716401129736114
 11
-402.4519408232425
 21
-945.1409810030409
 31
0.0716219923177758
  0
LINE
  5
2E2
330
661
100
AcDbEntity
  8
0
 62
    13
420
 13395558
100
AcDbLine
 10
-402.4519408232425
 20
-945.1409810030409
 30
0.0716219923177758
 11
-402.4785897750487
 21
-944.9795706799283
 31
0.0716039735931285
  0
LINE
  5
2E3
330
661
100
AcDbEntity
  8
0
 62
    13
420
 13395558
100
AcDbLine
 10
-402.4785897750487
 20
-944.9795706799283
 30
0.0716039735931285
 11
-402.4946249291212
 21
-944.8167630238431
 31
0.0715861339586148
  0
LINE
  5
2E4
330
661
100
AcDbEntity
  8
0
 62
    13
420
 13395558
100
AcDbLine
 10
-402.4946249291212
 20
-944.8167630238431
 30
0.0715861339586148
 11
-402.4999776204687
 21
-944.6532552021632
 31
0.0715685498062884
  0
LINE
  5
2E5
330
661
100
AcDbEntity
  8
0
 62
    13
420
 13395558
100
AcDbLine
 10
-2.499977641577985
 20
-944.6532557989775
 30
0.0715913386186015
 11
-2.494624949139781
 21
-944.489747978617
 31
0.071565796799475
  0
LINE
  5
2E6
330
661
100
AcDbEntity
  8
0
 62
    13
420
 13395558
100
AcDbLine
 10
-2.494624949139781
 20
-944.489747978617
 30
0.071565796799475
 11
-2.478589793993847
 21
-944.3269403238452
 31
0.0715405975626346
  0
LINE
  5
2E7
330
661
100
AcDbEntity
  8
0
 62
    13
420
 13395558
100
AcDbLine
 10
-2.478589793993847
 20
-944.3269403238452
 30
0.0715405975626346
 11
-2.45194084113628
 21
-944.165530002035
 31
0.0715158488150809
  0
LINE
  5
2E8
330
661
100
AcDbEntity
  8
0
 62
    13
420
 13395558
100
AcDbLine
 10
-2.45194084113628
 20
-944.165530002035
 30
0.0715158488150809
 11
-2.414792205474438
 21
-944.0062081969642
 31
0.0714916565347506
  0
LINE
  5
2E9
330
661
100
AcDbEntity
  8
0
 62
    13
420
 13395558
100
AcDbLine
 10
-2.414792205474438
 20
-944.0062081969642
 30
0.0714916565347506
 11
-2.367302963169386
 21
-943.8496571490618
 31
0.0714681243167021
  0
LINE
  5
2EA
330
661
100
AcDbEntity
  8
0
 62
    13
420
 13395558
100
AcDbLine
 10
-2.367302963169386
 20
-943.8496571490618
 30
0.0714681243167021
 11
-2.309676470447358
 21
-943.6965472339492
 31
0.0714453529295059
  0
LINE
  5
2EB
330
661
100
AcDbEntity
  8
0
 62
    13
420
 13395558
100
AcDbLine
 10
-2.309676470447358
 20
-943.6965472339492
 30
0.0714453529295059
 11
-2.242159492797167
 21
-943.5475340917886
 31
0.0714234398837376
  0
LINE
  5
2EC
330
661
100
AcDbEntity
  8
0
 62
    13
420
 13395558
100
AcDbLine
 10
-2.242159492797167
 20
-943.5475340917886
 30
0.0714234398837376
 11
-2.165041148282507
 21
-943.4032558197315
 31
0.0714024790144237
  0
LINE
  5
2ED
330
661
100
AcDbEntity
  8
0
 62
    13
420
 13395558
100
AcDbLine
 10
-2.165041148282507
 20
-943.4032558197315
 30
0.0714024790144237
 11
-2.078651669494012
 21
-943.2643302394891
 31
0.0713825600792243
  0
LINE
  5
2EE
330
661
100
AcDbEntity
  8
0
 62
    13
420
 13395558
100
AcDbLine
 10
-2.078651669494012
 20
-943.2643302394891
 30
0.0713825600792243
 11
-1.983360989442613
 21
-943.1313522517241
 31
0.0713637683740781
  0
LINE
  5
2EF
330
661
100
AcDbEntity
  8
0
 62
    13
420
 13395558
100
AcDbLine
 10
-1.983360989442613
 20
-943.1313522517241
 30
0.0713637683740781
 11
-1.879577157449577
 21
-943.0048912885956
 31
0.0713461843679514
  0
LINE
  5
2F0
330
661
100
AcDbEntity
  8
0
 62
    13
420
 13395558
100
AcDbLine
 10
-1.879577157449577
 20
-943.0048912885956
 30
0.0713461843679514
 11
-1.767744591816683
 21
-942.8854888753617
 31
0.071329883358258
  0
LINE
  5
2F1
330
661
100
AcDbEntity
  8
0
 62
    13
420
 13395558
100
AcDbLine
 10
-1.767744591816683
 20
-942.8854888753617
 30
0.071329883358258
 11
-1.648342176758819
 21
-942.7736563114873
 31
0.071314935148424
  0
LINE
  5
2F2
330
661
100
AcDbEntity
  8
0
 62
    13
420
 13395558
100
AcDbLine
 10
-1.648342176758819
 20
-942.7736563114873
 30
0.071314935148424
 11
-1.521881211748256
 21
-942.6698724811799
 31
0.0713014037489789
  0
LINE
  5
2F3
330
661
100
AcDbEntity
  8
0
 62
    13
420
 13395558
100
AcDbLine
 10
-1.521881211748256
 20
-942.6698724811799
 30
0.0713014037489789
 11
-1.388903222051808
 21
-942.5745818027339
 31
0.0712893471034523
  0
LINE
  5
2F4
330
661
100
AcDbEntity
  8
0
 62
    13
420
 13395558
100
AcDbLine
 10
-1.388903222051808
 20
-942.5745818027339
 30
0.0712893471034523
 11
-1.24997763983651
 21
-942.4881923254634
 31
0.0712788168402514
  0
LINE
  5
2F5
330
661
100
AcDbEntity
  8
0
 62
    13
420
 13395558
100
AcDbLine
 10
-1.24997763983651
 20
-942.4881923254634
 30
0.0712788168402514
 11
-1.105699365773649
 21
-942.4110739823733
 31
0.0712698580515799
  0
LINE
  5
2F6
330
661
100
AcDbEntity
  8
0
 62
    13
420
 13395558
100
AcDbLine
 10
-1.105699365773649
 20
-942.4110739823733
 30
0.0712698580515799
 11
-0.9566862215827672
 21
-942.3435570060477
 31
0.0712625091003462
  0
LINE
  5
2F7
330
661
100
AcDbEntity
  8
0
 62
    13
420
 13395558
100
AcDbLine
 10
-0.9566862215827672
 20
-942.3435570060477
 30
0.0712625091003462
 11
-0.8035763044242035
 21
-942.285930514545
 31
0.0712568014558878
  0
LINE
  5
2F8
330
661
100
AcDbEntity
  8
0
 62
    13
420
 13395558
100
AcDbLine
 10
-0.8035763044242035
 20
-942.285930514545
 30
0.0712568014558878
 11
-0.6470252544690929
 21
-942.2384412733486
 31
0.0712527595592145
  0
LINE
  5
2F9
330
661
100
AcDbEntity
  8
0
 62
    13
420
 13395558
100
AcDbLine
 10
-0.6470252544690929
 20
-942.2384412733486
 30
0.0712527595592145
 11
-0.4877034473474977
 21
-942.2012926386799
 31
0.0712504007183484
  0
LINE
  5
2FA
330
661
100
AcDbEntity
  8
0
 62
    13
420
 13395558
100
AcDbLine
 10
-0.4877034473474977
 20
-942.2012926386799
 30
0.0712504007183484
 11
-0.3262931234970414
 21
-942.1746436866958
 31
0.0712497350342081
  0
LINE
  5
2FB
330
661
100
AcDbEntity
  8
0
 62
    13
420
 13395558
100
AcDbLine
 10
-0.3262931234970414
 20
-942.1746436866958
 30
0.0712497350342081
 11
-0.1634854667046155
 21
-942.1586085323001
 31
0.0712507653573554
  0
LINE
  5
2FC
330
661
100
AcDbEntity
  8
0
 62
    13
420
 13395558
100
AcDbLine
 10
-0.1634854667046155
 20
-942.1586085323001
 30
0.0712507653573554
 11
0.0000223556487088
 21
-942.1532558404855
 31
0.0712534872757884
  0
LINE
  5
2FD
330
661
100
AcDbEntity
  8
0
 62
    13
420
 13395558
100
AcDbLine
 10
0.0000223556487088
 20
-942.1532558404855
 30
0.0712534872757884
 11
0.163530177965437
 21
-942.1586085323001
 31
0.0712578891338344
  0
LINE
  5
2FE
330
661
100
AcDbEntity
  8
0
 62
    13
420
 13395558
100
AcDbLine
 10
0.163530177965437
 20
-942.1586085323001
 30
0.0712578891338344
 11
0.3263378346482312
 21
-942.1746436866958
 31
0.0712639520820616
  0
LINE
  5
2FF
330
661
100
AcDbEntity
  8
0
 62
    13
420
 13395558
100
AcDbLine
 10
0.3263378346482312
 20
-942.1746436866958
 30
0.0712639520820616
 11
0.4877481583164895
 21
-942.2012926386799
 31
0.0712716501579948
  0
LINE
  5
300
330
661
100
AcDbEntity
  8
0
 62
    13
420
 13395558
100
AcDbLine
 10
0.4877481583164895
 20
-942.2012926386799
 30
0.0712716501579948
 11
0.6470699651841009
 21
-942.2384412733486
 31
0.0712809503972911
  0
LINE
  5
301
330
661
100
AcDbEntity
  8
0
 62
    13
420
 13395558
100
AcDbLine
 10
0.6470699651841009
 20
-942.2384412733486
 30
0.0712809503972911
 11
0.8036210148145293
 21
-942.285930514545
 31
0.0712918129748979
  0
LINE
  5
302
330
661
100
AcDbEntity
  8
0
 62
    13
420
 13395558
100
AcDbLine
 10
0.8036210148145293
 20
-942.285930514545
 30
0.0712918129748979
 11
0.9567309315791033
 21
-942.3435570060477
 31
0.0713041913755904
  0
LINE
  5
303
330
661
100
AcDbEntity
  8
0
 62
    13
420
 13395558
100
AcDbLine
 10
0.9567309315791033
 20
-942.3435570060477
 30
0.0713041913755904
 11
1.105744075308374
 21
-942.4110739823733
 31
0.0713180325931563
  0
LINE
  5
304
330
661
100
AcDbEntity
  8
0
 62
    13
420
 13395558
100
AcDbLine
 10
1.105744075308374
 20
-942.4110739823733
 30
0.0713180325931563
 11
1.25002234884398
 21
-942.4881923254634
 31
0.0713332773573771
  0
LINE
  5
305
330
661
100
AcDbEntity
  8
0
 62
    13
420
 13395558
100
AcDbLine
 10
1.25002234884398
 20
-942.4881923254634
 30
0.0713332773573771
 11
1.388947930468636
 21
-942.5745818027339
 31
0.0713498603878321
  0
LINE
  5
306
330
661
100
AcDbEntity
  8
0
 62
    13
420
 13395558
100
AcDbLine
 10
1.388947930468636
 20
-942.5745818027339
 30
0.0713498603878321
 11
1.521925919513585
 21
-942.6698724811799
 31
0.0713677106734389
  0
LINE
  5
307
330
661
100
AcDbEntity
  8
0
 62
    13
420
 13395558
100
AcDbLine
 10
1.521925919513585
 20
-942.6698724811799
 30
0.0713677106734389
 11
1.648386883814582
 21
-942.7736563114873
 31
0.0713867517765342
  0
LINE
  5
308
330
661
100
AcDbEntity
  8
0
 62
    13
420
 13395558
100
AcDbLine
 10
1.648386883814582
 20
-942.7736563114873
 30
0.0713867517765342
 11
1.76778929810785
 21
-942.8854888753617
 31
0.0714069021601911
  0
LINE
  5
309
330
661
100
AcDbEntity
  8
0
 62
    13
420
 13395558
100
AcDbLine
 10
1.76778929810785
 20
-942.8854888753617
 30
0.0714069021601911
 11
1.879621862924395
 21
-943.0048912885956
 31
0.0714280755373735
  0
LINE
  5
30A
330
661
100
AcDbEntity
  8
0
 62
    13
420
 13395558
100
AcDbLine
 10
1.879621862924395
 20
-943.0048912885956
 30
0.0714280755373735
 11
1.983405694052822
 21
-943.1313522517241
 31
0.0714501812404295
  0
LINE
  5
30B
330
661
100
AcDbEntity
  8
0
 62
    13
420
 13395558
100
AcDbLine
 10
1.983405694052822
 20
-943.1313522517241
 30
0.0714501812404295
 11
2.078696373195057
 21
-943.2643302394891
 31
0.071473124609345
  0
LINE
  5
30C
330
661
100
AcDbEntity
  8
0
 62
    13
420
 13395558
100
AcDbLine
 10
2.078696373195057
 20
-943.2643302394891
 30
0.071473124609345
 11
2.165085851033721
 21
-943.4032558197315
 31
0.071496807397092
  0
LINE
  5
30D
330
661
100
AcDbEntity
  8
0
 62
    13
420
 13395558
100
AcDbLine
 10
2.165085851033721
 20
-943.4032558197315
 30
0.071496807397092
 11
2.242204194561956
 21
-943.5475340917884
 31
0.0715211281903374
  0
LINE
  5
30E
330
661
100
AcDbEntity
  8
0
 62
    13
420
 13395558
100
AcDbLine
 10
2.242204194561956
 20
-943.5475340917884
 30
0.0715211281903374
 11
2.309721171193351
 21
-943.6965472339492
 31
0.0715459828437108
  0
LINE
  5
30F
330
661
100
AcDbEntity
  8
0
 62
    13
420
 13395558
100
AcDbLine
 10
2.309721171193351
 20
-943.6965472339492
 30
0.0715459828437108
 11
2.367347662868573
 21
-943.8496571490618
 31
0.0715712649257707
  0
LINE
  5
310
330
661
100
AcDbEntity
  8
0
 62
    13
420
 13395558
100
AcDbLine
 10
2.367347662868573
 20
-943.8496571490618
 30
0.0715712649257707
 11
2.414836904103292
 21
-944.0062081969642
 31
0.0715968661747603
  0
LINE
  5
311
330
661
100
AcDbEntity
  8
0
 62
    13
420
 13395558
100
AcDbLine
 10
2.414836904103292
 20
-944.0062081969642
 30
0.0715968661747603
 11
2.451985538675857
 21
-944.165530002035
 31
0.0716226769622011
  0
LINE
  5
312
330
661
100
AcDbEntity
  8
0
 62
    13
420
 13395558
100
AcDbLine
 10
2.451985538675857
 20
-944.165530002035
 30
0.0716226769622011
 11
2.478634490429868
 21
-944.3269403238452
 31
0.0716485867623388
  0
LINE
  5
313
330
661
100
AcDbEntity
  8
0
 62
    13
420
 13395558
100
AcDbLine
 10
2.478634490429868
 20
-944.3269403238452
 30
0.0716485867623388
 11
2.494669644462692
 21
-944.489747978617
 31
0.0716744846254313
  0
LINE
  5
314
330
661
100
AcDbEntity
  8
0
 62
    13
420
 13395558
100
AcDbLine
 10
2.494669644462692
 20
-944.489747978617
 30
0.0716744846254313
 11
2.500022335782999
 21
-944.6532557989775
 31
0.071700259652853
  0
LINE
  5
315
330
661
100
AcDbEntity
  8
0
 62
    13
420
 13395558
100
AcDbLine
 10
2.500022335782999
 20
-944.6532557989775
 30
0.071700259652853
 11
2.494669643344796
 21
-944.8167636193381
 31
0.0717258014719795
  0
LINE
  5
316
330
661
100
AcDbEntity
  8
0
 62
    13
420
 13395558
100
AcDbLine
 10
2.494669643344796
 20
-944.8167636193381
 30
0.0717258014719795
 11
2.478634488198863
 21
-944.9795712741098
 31
0.0717510007088199
  0
LINE
  5
317
330
661
100
AcDbEntity
  8
0
 62
    13
420
 13395558
100
AcDbLine
 10
2.478634488198863
 20
-944.9795712741098
 30
0.0717510007088199
 11
2.451985535341296
 21
-945.14098159592
 31
0.0717757494563736
  0
LINE
  5
318
330
661
100
AcDbEntity
  8
0
 62
    13
420
 13395558
100
AcDbLine
 10
2.451985535341296
 20
-945.14098159592
 30
0.0717757494563736
 11
2.414836899679455
 21
-945.3003034009909
 31
0.0717999417367039
  0
LINE
  5
319
330
661
100
AcDbEntity
  8
0
 62
    13
420
 13395558
100
AcDbLine
 10
2.414836899679455
 20
-945.3003034009909
 30
0.0717999417367039
 11
2.367347657374403
 21
-945.4568544488931
 31
0.0718234739547524
  0
LINE
  5
31A
330
661
100
AcDbEntity
  8
0
 62
    13
420
 13395558
100
AcDbLine
 10
2.367347657374403
 20
-945.4568544488931
 30
0.0718234739547524
 11
2.309721164652375
 21
-945.6099643640058
 31
0.0718462453419487
  0
LINE
  5
31B
330
661
100
AcDbEntity
  8
0
 62
    13
420
 13395558
100
AcDbLine
 10
2.309721164652375
 20
-945.6099643640058
 30
0.0718462453419487
 11
2.242204187002184
 21
-945.7589775061664
 31
0.0718681583877169
  0
LINE
  5
31C
330
661
100
AcDbEntity
  8
0
 62
    13
420
 13395558
100
AcDbLine
 10
2.242204187002184
 20
-945.7589775061664
 30
0.0718681583877169
 11
2.165085842487525
 21
-945.9032557782235
 31
0.0718891192570308
  0
LINE
  5
31D
330
661
100
AcDbEntity
  8
0
 62
    13
420
 13395558
100
AcDbLine
 10
2.165085842487525
 20
-945.9032557782235
 30
0.0718891192570308
 11
2.078696363699032
 21
-946.0421813584659
 31
0.0719090381922302
  0
LINE
  5
31E
330
661
100
AcDbEntity
  8
0
 62
    13
420
 13395558
100
AcDbLine
 10
2.078696363699032
 20
-946.0421813584659
 30
0.0719090381922302
 11
1.983405683647632
 21
-946.1751593462309
 31
0.0719278298973764
  0
LINE
  5
31F
330
661
100
AcDbEntity
  8
0
 62
    13
420
 13395558
100
AcDbLine
 10
1.983405683647632
 20
-946.1751593462309
 30
0.0719278298973764
 11
1.879621851654597
 21
-946.3016203093595
 31
0.0719454139035031
  0
LINE
  5
320
330
661
100
AcDbEntity
  8
0
 62
    13
420
 13395558
100
AcDbLine
 10
1.879621851654597
 20
-946.3016203093595
 30
0.0719454139035031
 11
1.767789286021704
 21
-946.4210227225933
 31
0.0719617149131965
  0
LINE
  5
321
330
661
100
AcDbEntity
  8
0
 62
    13
420
 13395558
100
AcDbLine
 10
1.767789286021704
 20
-946.4210227225933
 30
0.0719617149131965
 11
1.64838687096384
 21
-946.5328552864677
 31
0.0719766631230305
  0
LINE
  5
322
330
661
100
AcDbEntity
  8
0
 62
    13
420
 13395558
100
AcDbLine
 10
1.64838687096384
 20
-946.5328552864677
 30
0.0719766631230305
 11
1.521925905953276
 21
-946.6366391167751
 31
0.0719901945224757
  0
LINE
  5
323
330
661
100
AcDbEntity
  8
0
 62
    13
420
 13395558
100
AcDbLine
 10
1.521925905953276
 20
-946.6366391167751
 30
0.0719901945224757
 11
1.388947916256829
 21
-946.7319297952212
 31
0.0720022511680023
  0
LINE
  5
324
330
661
100
AcDbEntity
  8
0
 62
    13
420
 13395558
100
AcDbLine
 10
1.388947916256829
 20
-946.7319297952212
 30
0.0720022511680023
 11
1.25002233404153
 21
-946.8183192724916
 31
0.0720127814312031
  0
LINE
  5
325
330
661
100
AcDbEntity
  8
0
 62
    13
420
 13395558
100
AcDbLine
 10
1.25002233404153
 20
-946.8183192724916
 30
0.0720127814312031
 11
1.105744059978668
 21
-946.8954376155817
 31
0.0720217402198746
  0
LINE
  5
326
330
661
100
AcDbEntity
  8
0
 62
    13
420
 13395558
100
AcDbLine
 10
1.105744059978668
 20
-946.8954376155817
 30
0.0720217402198746
 11
0.9567309157877851
 21
-946.9629545919073
 31
0.0720290891711083
  0
LINE
  5
327
330
661
100
AcDbEntity
  8
0
 62
    13
420
 13395558
100
AcDbLine
 10
0.9567309157877851
 20
-946.9629545919073
 30
0.0720290891711083
 11
0.8036209986292204
 21
-947.02058108341
 31
0.0720347968155667
  0
LINE
  5
328
330
661
100
AcDbEntity
  8
0
 62
    13
420
 13395558
100
AcDbLine
 10
0.8036209986292204
 20
-947.02058108341
 30
0.0720347968155667
 11
0.6470699486741088
 21
-947.0680703246064
 31
0.07203883871224
  0
LINE
  5
329
330
661
100
AcDbEntity
  8
0
 62
    13
420
 13395558
100
AcDbLine
 10
0.6470699486741088
 20
-947.0680703246064
 30
0.07203883871224
 11
0.4877481415525127
 21
-947.1052189592751
 31
0.0720411975531062
  0
LINE
  5
32A
330
661
100
AcDbEntity
  8
0
 62
    13
420
 13395558
100
AcDbLine
 10
0.4877481415525127
 20
-947.1052189592751
 30
0.0720411975531062
 11
0.3263378177020553
 21
-947.1318679112592
 31
0.0720418632372464
  0
LINE
  5
32B
330
661
100
AcDbEntity
  8
0
 62
    13
420
 13395558
100
AcDbLine
 10
0.3263378177020553
 20
-947.1318679112592
 30
0.0720418632372464
 11
0.1635301609096282
 21
-947.1479030656549
 31
0.0720408329140991
  0
LINE
  5
32C
330
661
100
AcDbEntity
  8
0
 62
    13
420
 13395558
100
AcDbLine
 10
0.1635301609096282
 20
-947.1479030656549
 30
0.0720408329140991
 11
0.0000223385563028
 21
-947.1532557574695
 31
0.0720381109956661
  0
LINE
  5
32D
330
661
100
AcDbEntity
  8
0
 62
    13
420
 13395558
100
AcDbLine
 10
0.0000223385563028
 20
-947.1532557574695
 30
0.0720381109956661
 11
-0.1634854837604265
 21
-947.1479030656549
 31
0.0720337091376201
  0
LINE
  5
32E
330
661
100
AcDbEntity
  8
0
 62
    13
420
 13395558
100
AcDbLine
 10
-0.1634854837604265
 20
-947.1479030656549
 30
0.0720337091376201
 11
-0.3262931404432217
 21
-947.1318679112592
 31
0.0720276461893929
  0
LINE
  5
32F
330
661
100
AcDbEntity
  8
0
 62
    13
420
 13395558
100
AcDbLine
 10
-0.3262931404432217
 20
-947.1318679112592
 30
0.0720276461893929
 11
-0.4877034641114811
 21
-947.1052189592751
 31
0.0720199481134597
  0
LINE
  5
330
330
661
100
AcDbEntity
  8
0
 62
    13
420
 13395558
100
AcDbLine
 10
-0.4877034641114811
 20
-947.1052189592751
 30
0.0720199481134597
 11
-0.6470252709790937
 21
-947.0680703246064
 31
0.0720106478741634
  0
LINE
  5
331
330
661
100
AcDbEntity
  8
0
 62
    13
420
 13395558
100
AcDbLine
 10
-0.6470252709790937
 20
-947.0680703246064
 30
0.0720106478741634
 11
-0.8035763206095229
 21
-947.02058108341
 31
0.0719997852965566
  0
LINE
  5
332
330
661
100
AcDbEntity
  8
0
 62
    13
420
 13395558
100
AcDbLine
 10
-0.8035763206095229
 20
-947.02058108341
 30
0.0719997852965566
 11
-0.9566862373740975
 21
-946.9629545919073
 31
0.0719874068958642
  0
LINE
  5
333
330
661
100
AcDbEntity
  8
0
 62
    13
420
 13395558
100
AcDbLine
 10
-0.9566862373740975
 20
-946.9629545919073
 30
0.0719874068958642
 11
-1.105699381103369
 21
-946.8954376155817
 31
0.0719735656782982
  0
LINE
  5
334
330
661
100
AcDbEntity
  8
0
 62
    13
420
 13395558
100
AcDbLine
 10
-1.105699381103369
 20
-946.8954376155817
 30
0.0719735656782982
 11
-1.249977654638975
 21
-946.8183192724916
 31
0.0719583209140774
  0
LINE
  5
335
330
661
100
AcDbEntity
  8
0
 62
    13
420
 13395558
100
AcDbLine
 10
-1.249977654638975
 20
-946.8183192724916
 30
0.0719583209140774
 11
-1.388903236263632
 21
-946.7319297952212
 31
0.0719417378836224
  0
LINE
  5
336
330
661
100
AcDbEntity
  8
0
 62
    13
420
 13395558
100
AcDbLine
 10
-1.388903236263632
 20
-946.7319297952212
 30
0.0719417378836224
 11
-1.521881225308582
 21
-946.6366391167751
 31
0.0719238875980156
  0
LINE
  5
337
330
661
100
AcDbEntity
  8
0
 62
    13
420
 13395558
100
AcDbLine
 10
-1.521881225308582
 20
-946.6366391167751
 30
0.0719238875980156
 11
-1.648342189609579
 21
-946.5328552864677
 31
0.0719048464949204
  0
LINE
  5
338
330
661
100
AcDbEntity
  8
0
 62
    13
420
 13395558
100
AcDbLine
 10
-1.648342189609579
 20
-946.5328552864677
 30
0.0719048464949204
 11
-1.767744603902847
 21
-946.4210227225933
 31
0.0718846961112634
  0
LINE
  5
339
330
661
100
AcDbEntity
  8
0
 62
    13
420
 13395558
100
AcDbLine
 10
-1.767744603902847
 20
-946.4210227225933
 30
0.0718846961112634
 11
-1.879577168719392
 21
-946.3016203093595
 31
0.071863522734081
  0
LINE
  5
33A
330
661
100
AcDbEntity
  8
0
 62
    13
420
 13395558
100
AcDbLine
 10
-1.879577168719392
 20
-946.3016203093595
 30
0.071863522734081
 11
-1.983360999847819
 21
-946.1751593462309
 31
0.071841417031025
  0
LINE
  5
33B
330
661
100
AcDbEntity
  8
0
 62
    13
420
 13395558
100
AcDbLine
 10
-1.983360999847819
 20
-946.1751593462309
 30
0.071841417031025
 11
-2.078651678990053
 21
-946.0421813584659
 31
0.0718184736621095
  0
LINE
  5
33C
330
661
100
AcDbEntity
  8
0
 62
    13
420
 13395558
100
AcDbLine
 10
-2.078651678990053
 20
-946.0421813584659
 30
0.0718184736621095
 11
-2.165041156828717
 21
-945.9032557782235
 31
0.0717947908743626
  0
LINE
  5
33D
330
661
100
AcDbEntity
  8
0
 62
    13
420
 13395558
100
AcDbLine
 10
-2.165041156828717
 20
-945.9032557782235
 30
0.0717947908743626
 11
-2.242159500356951
 21
-945.7589775061664
 31
0.0717704700811171
  0
LINE
  5
33E
330
661
100
AcDbEntity
  8
0
 62
    13
420
 13395558
100
AcDbLine
 10
-2.242159500356951
 20
-945.7589775061664
 30
0.0717704700811171
 11
-2.309676476988345
 21
-945.6099643640058
 31
0.0717456154277437
  0
LINE
  5
33F
330
661
100
AcDbEntity
  8
0
 62
    13
420
 13395558
100
AcDbLine
 10
-2.309676476988345
 20
-945.6099643640058
 30
0.0717456154277437
 11
-2.367302968663567
 21
-945.4568544488931
 31
0.0717203333456838
  0
LINE
  5
340
330
661
100
AcDbEntity
  8
0
 62
    13
420
 13395558
100
AcDbLine
 10
-2.367302968663567
 20
-945.4568544488931
 30
0.0717203333456838
 11
-2.414792209898283
 21
-945.3003034009909
 31
0.0716947320966942
  0
LINE
  5
341
330
661
100
AcDbEntity
  8
0
 62
    13
420
 13395558
100
AcDbLine
 10
-2.414792209898283
 20
-945.3003034009909
 30
0.0716947320966942
 11
-2.451940844470847
 21
-945.14098159592
 31
0.0716689213092534
  0
LINE
  5
342
330
661
100
AcDbEntity
  8
0
 62
    13
420
 13395558
100
AcDbLine
 10
-2.451940844470847
 20
-945.14098159592
 30
0.0716689213092534
 11
-2.478589796224857
 21
-944.9795712741098
 31
0.0716430115091157
  0
LINE
  5
343
330
661
100
AcDbEntity
  8
0
 62
    13
420
 13395558
100
AcDbLine
 10
-2.478589796224857
 20
-944.9795712741098
 30
0.0716430115091157
 11
-2.494624950257679
 21
-944.8167636193381
 31
0.0716171136460232
  0
LINE
  5
344
330
661
100
AcDbEntity
  8
0
 62
    13
420
 13395558
100
AcDbLine
 10
-2.494624950257679
 20
-944.8167636193381
 30
0.0716171136460232
 11
-2.499977641577985
 21
-944.6532557989775
 31
0.0715913386186015
  0
LINE
  5
345
330
661
100
AcDbEntity
  8
0
 62
    13
420
 13395558
100
AcDbLine
 10
-2.499993303547389
 20
-129.983441799172
 30
0.0102168910585103
 11
-2.494640611412146
 21
-129.8199339773982
 31
0.0101972730714656
  0
LINE
  5
346
330
661
100
AcDbEntity
  8
0
 62
    13
420
 13395558
100
AcDbLine
 10
-2.494640611412146
 20
-129.8199339773982
 30
0.0101972730714656
 11
-2.478605456527828
 21
-129.6571263212194
 31
0.0101778674361419
  0
LINE
  5
347
330
661
100
AcDbEntity
  8
0
 62
    13
420
 13395558
100
AcDbLine
 10
-2.478605456527828
 20
-129.6571263212194
 30
0.0101778674361419
 11
-2.451956503889413
 21
-129.495715998014
 31
0.0101587572504488
  0
LINE
  5
348
330
661
100
AcDbEntity
  8
0
 62
    13
420
 13395558
100
AcDbLine
 10
-2.451956503889413
 20
-129.495715998014
 30
0.0101587572504488
 11
-2.414807868403319
 21
-129.3363941915663
 31
0.0101400243471354
  0
LINE
  5
349
330
661
100
AcDbEntity
  8
0
 62
    13
420
 13395558
100
AcDbLine
 10
-2.414807868403319
 20
-129.3363941915663
 30
0.0101400243471354
 11
-2.367318626229861
 21
-129.1798431423109
 31
0.0101217489433695
  0
LINE
  5
34A
330
661
100
AcDbEntity
  8
0
 62
    13
420
 13395558
100
AcDbLine
 10
-2.367318626229861
 20
-129.1798431423109
 30
0.0101217489433695
 11
-2.309692133594707
 21
-129.0267332258748
 31
0.0101040092972358
  0
LINE
  5
34B
330
661
100
AcDbEntity
  8
0
 62
    13
420
 13395558
100
AcDbLine
 10
-2.309692133594707
 20
-129.0267332258748
 30
0.0101040092972358
 11
-2.2421751559863
 21
-128.8777200824262
 31
0.0100868813726225
  0
LINE
  5
34C
330
661
100
AcDbEntity
  8
0
 62
    13
420
 13395558
100
AcDbLine
 10
-2.2421751559863
 20
-128.8777200824262
 30
0.0100868813726225
 11
-2.165056811468154
 21
-128.7334418091222
 31
0.0100704385139323
  0
LINE
  5
34D
330
661
100
AcDbEntity
  8
0
 62
    13
420
 13395558
100
AcDbLine
 10
-2.165056811468154
 20
-128.7334418091222
 30
0.0100704385139323
 11
-2.07866733263092
 21
-128.594516227679
 31
0.0100547511320104
  0
LINE
  5
34E
330
661
100
AcDbEntity
  8
0
 62
    13
420
 13395558
100
AcDbLine
 10
-2.07866733263092
 20
-128.594516227679
 30
0.0100547511320104
 11
-1.983376652485732
 21
-128.4615382387648
 31
0.0100398864026347
  0
LINE
  5
34F
330
661
100
AcDbEntity
  8
0
 62
    13
420
 13395558
100
AcDbLine
 10
-1.983376652485732
 20
-128.4615382387648
 30
0.0100398864026347
 11
-1.879592820354265
 21
-128.335077274543
 31
0.0100259079788583
  0
LINE
  5
350
330
661
100
AcDbEntity
  8
0
 62
    13
420
 13395558
100
AcDbLine
 10
-1.879592820354265
 20
-128.335077274543
 30
0.0100259079788583
 11
-1.767760254538888
 21
-128.2156748602773
 31
0.0100128757184379
  0
LINE
  5
351
330
661
100
AcDbEntity
  8
0
 62
    13
420
 13395558
100
AcDbLine
 10
-1.767760254538888
 20
-128.2156748602773
 30
0.0100128757184379
 11
-1.648357839255271
 21
-128.1038422954364
 31
0.0100008454275134
  0
LINE
  5
352
330
661
100
AcDbEntity
  8
0
 62
    13
420
 13395558
100
AcDbLine
 10
-1.648357839255271
 20
-128.1038422954364
 30
0.0100008454275134
 11
-1.521896873976651
 21
-128.0000584642319
 31
0.0099898686216374
  0
LINE
  5
353
330
661
100
AcDbEntity
  8
0
 62
    13
420
 13395558
100
AcDbLine
 10
-1.521896873976651
 20
-128.0000584642319
 30
0.0099898686216374
 11
-1.388918883970991
 21
-127.9047677849622
 31
0.0099799923051779
  0
LINE
  5
354
330
661
100
AcDbEntity
  8
0
 62
    13
420
 13395558
100
AcDbLine
 10
-1.388918883970991
 20
-127.9047677849622
 30
0.0099799923051779
 11
-1.249993301406647
 21
-127.8183783069451
 31
0.0099712587700381
  0
LINE
  5
355
330
661
100
AcDbEntity
  8
0
 62
    13
420
 13395558
100
AcDbLine
 10
-1.249993301406647
 20
-127.8183783069451
 30
0.0099712587700381
 11
-1.105715026956405
 21
-127.7412599631884
 31
0.0099637054145565
  0
LINE
  5
356
330
661
100
AcDbEntity
  8
0
 62
    13
420
 13395558
100
AcDbLine
 10
-1.105715026956405
 20
-127.7412599631884
 30
0.0099637054145565
 11
-0.9567018823414639
 21
-127.6737429862793
 31
0.0099573645833606
  0
LINE
  5
357
330
661
100
AcDbEntity
  8
0
 62
    13
420
 13395558
100
AcDbLine
 10
-0.9567018823414639
 20
-127.6737429862793
 30
0.0099573645833606
 11
-0.8035919647239782
 21
-127.6161164942785
 31
0.0099522634288633
  0
LINE
  5
358
330
661
100
AcDbEntity
  8
0
 62
    13
420
 13395558
100
AcDbLine
 10
-0.8035919647239782
 20
-127.6161164942785
 30
0.0099522634288633
 11
-0.6470409142770488
 21
-127.5686272526716
 31
0.0099484237949912
  0
LINE
  5
359
330
661
100
AcDbEntity
  8
0
 62
    13
420
 13395558
100
AcDbLine
 10
-0.6470409142770488
 20
-127.5686272526716
 30
0.0099484237949912
 11
-0.4877191066328435
 21
-127.5314786176819
 31
0.0099458621236459
  0
LINE
  5
35A
330
661
100
AcDbEntity
  8
0
 62
    13
420
 13395558
100
AcDbLine
 10
-0.4877191066328435
 20
-127.5314786176819
 30
0.0099458621236459
 11
-0.3263087822312242
 21
-127.5048296654676
 31
0.0099445893842975
  0
LINE
  5
35B
330
661
100
AcDbEntity
  8
0
 62
    13
420
 13395558
100
AcDbLine
 10
-0.3263087822312242
 20
-127.5048296654676
 30
0.0099445893842975
 11
-0.1635011248614421
 21
-127.4887945109332
 31
0.0099446110270113
  0
LINE
  5
35C
330
661
100
AcDbEntity
  8
0
 62
    13
420
 13395558
100
AcDbLine
 10
-0.1635011248614421
 20
-127.4887945109332
 30
0.0099446110270113
 11
0.000006698092959
 21
-127.4834418190724
 31
0.0099459269591098
  0
LINE
  5
35D
330
661
100
AcDbEntity
  8
0
 62
    13
420
 13395558
100
AcDbLine
 10
0.000006698092959
 20
-127.4834418190724
 30
0.0099459269591098
 11
0.1635145210319107
 21
-127.4887945109332
 31
0.0099485315455698
  0
LINE
  5
35E
330
661
100
AcDbEntity
  8
0
 62
    13
420
 13395558
100
AcDbLine
 10
0.1635145210319107
 20
-127.4887945109332
 30
0.0099485315455698
 11
0.3263221783554108
 21
-127.5048296654676
 31
0.0099524136331522
  0
LINE
  5
35F
330
661
100
AcDbEntity
  8
0
 62
    13
420
 13395558
100
AcDbLine
 10
0.3263221783554108
 20
-127.5048296654676
 30
0.0099524136331522
 11
0.4877325026801138
 21
-127.5314786176819
 31
0.0099575565981619
  0
LINE
  5
360
330
661
100
AcDbEntity
  8
0
 62
    13
420
 13395558
100
AcDbLine
 10
0.4877325026801138
 20
-127.5314786176819
 30
0.0099575565981619
 11
0.6470543102170973
 21
-127.5686272526716
 31
0.0099639384176333
  0
LINE
  5
361
330
661
100
AcDbEntity
  8
0
 62
    13
420
 13395558
100
AcDbLine
 10
0.6470543102170973
 20
-127.5686272526716
 30
0.0099639384176333
 11
0.8036053605269594
 21
-127.6161164942785
 31
0.0099715317636356
  0
LINE
  5
362
330
661
100
AcDbEntity
  8
0
 62
    13
420
 13395558
100
AcDbLine
 10
0.8036053605269594
 20
-127.6161164942785
 30
0.0099715317636356
 11
0.9567152779781187
 21
-127.6737429862793
 31
0.0099803041202954
  0
LINE
  5
363
330
661
100
AcDbEntity
  8
0
 62
    13
420
 13395558
100
AcDbLine
 10
0.9567152779781187
 20
-127.6737429862793
 30
0.0099803041202954
 11
1.105728422398187
 21
-127.7412599631884
 31
0.0099902179230348
  0
LINE
  5
364
330
661
100
AcDbEntity
  8
0
 62
    13
420
 13395558
100
AcDbLine
 10
1.105728422398187
 20
-127.7412599631884
 30
0.0099902179230348
 11
1.250006696625844
 21
-127.8183783069451
 31
0.0100012307194285
  0
LINE
  5
365
330
661
100
AcDbEntity
  8
0
 62
    13
420
 13395558
100
AcDbLine
 10
1.250006696625844
 20
-127.8183783069451
 30
0.0100012307194285
 11
1.388932278940842
 21
-127.9047677849622
 31
0.0100132953509915
  0
LINE
  5
366
330
661
100
AcDbEntity
  8
0
 62
    13
420
 13395558
100
AcDbLine
 10
1.388932278940842
 20
-127.9047677849622
 30
0.0100132953509915
 11
1.521910268671466
 21
-128.0000584642319
 31
0.0100263601551195
  0
LINE
  5
367
330
661
100
AcDbEntity
  8
0
 62
    13
420
 13395558
100
AcDbLine
 10
1.521910268671466
 20
-128.0000584642319
 30
0.0100263601551195
 11
1.648371233650537
 21
-128.1038422954364
 31
0.0100403691863152
  0
LINE
  5
368
330
661
100
AcDbEntity
  8
0
 62
    13
420
 13395558
100
AcDbLine
 10
1.648371233650537
 20
-128.1038422954364
 30
0.0100403691863152
 11
1.767773648611373
 21
-128.2156748602773
 31
0.0100552624557565
  0
LINE
  5
369
330
661
100
AcDbEntity
  8
0
 62
    13
420
 13395558
100
AcDbLine
 10
1.767773648611373
 20
-128.2156748602773
 30
0.0100552624557565
 11
1.87960621408212
 21
-128.335077274543
 31
0.0100709761881771
  0
LINE
  5
36A
330
661
100
AcDbEntity
  8
0
 62
    13
420
 13395558
100
AcDbLine
 10
1.87960621408212
 20
-128.335077274543
 30
0.0100709761881771
 11
1.983390045848586
 21
-128.4615382387648
 31
0.0100874430949624
  0
LINE
  5
36B
330
661
100
AcDbEntity
  8
0
 62
    13
420
 13395558
100
AcDbLine
 10
1.983390045848586
 20
-128.4615382387648
 30
0.0100874430949624
 11
2.078680725609961
 21
-128.594516227679
 31
0.0101045926622895
  0
LINE
  5
36C
330
661
100
AcDbEntity
  8
0
 62
    13
420
 13395558
100
AcDbLine
 10
2.078680725609961
 20
-128.594516227679
 30
0.0101045926622895
 11
2.165070204046216
 21
-128.7334418091222
 31
0.0101223514530782
  0
LINE
  5
36D
330
661
100
AcDbEntity
  8
0
 62
    13
420
 13395558
100
AcDbLine
 10
2.165070204046216
 20
-128.7334418091222
 30
0.0101223514530782
 11
2.242188548147934
 21
-128.8777200824262
 31
0.0101406434214601
  0
LINE
  5
36E
330
661
100
AcDbEntity
  8
0
 62
    13
420
 13395558
100
AcDbLine
 10
2.242188548147934
 20
-128.8777200824262
 30
0.0101406434214601
 11
2.309705525326248
 21
-129.0267332258748
 31
0.0101593902384182
  0
LINE
  5
36F
330
661
100
AcDbEntity
  8
0
 62
    13
420
 13395558
100
AcDbLine
 10
2.309705525326248
 20
-129.0267332258748
 30
0.0101593902384182
 11
2.367332017519483
 21
-129.1798431423109
 31
0.0101785116272043
  0
LINE
  5
370
330
661
100
AcDbEntity
  8
0
 62
    13
420
 13395558
100
AcDbLine
 10
2.367332017519483
 20
-129.1798431423109
 30
0.0101785116272043
 11
2.41482125924109
 21
-129.3363941915663
 31
0.0101979257070961
  0
LINE
  5
371
330
661
100
AcDbEntity
  8
0
 62
    13
420
 13395558
100
AcDbLine
 10
2.41482125924109
 20
-129.3363941915663
 30
0.0101979257070961
 11
2.451969894267336
 21
-129.495715998014
 31
0.0102175493440228
  0
LINE
  5
372
330
661
100
AcDbEntity
  8
0
 62
    13
420
 13395558
100
AcDbLine
 10
2.451969894267336
 20
-129.495715998014
 30
0.0102175493440228
 11
2.478618846439876
 21
-129.6571263212194
 31
0.0102372985065587
  0
LINE
  5
373
330
661
100
AcDbEntity
  8
0
 62
    13
420
 13395558
100
AcDbLine
 10
2.478618846439876
 20
-129.6571263212194
 30
0.0102372985065587
 11
2.494654000854284
 21
-129.8199339773982
 31
0.0102570886257576
  0
LINE
  5
374
330
661
100
AcDbEntity
  8
0
 62
    13
420
 13395558
100
AcDbLine
 10
2.494654000854284
 20
-129.8199339773982
 30
0.0102570886257576
 11
2.500006692517598
 21
-129.983441799172
 31
0.010276834957291
  0
LINE
  5
375
330
661
100
AcDbEntity
  8
0
 62
    13
420
 13395558
100
AcDbLine
 10
2.500006692517598
 20
-129.983441799172
 30
0.010276834957291
 11
2.494654000382355
 21
-130.1469496209458
 31
0.0102964529443357
  0
LINE
  5
376
330
661
100
AcDbEntity
  8
0
 62
    13
420
 13395558
100
AcDbLine
 10
2.494654000382355
 20
-130.1469496209458
 30
0.0102964529443357
 11
2.478618845498038
 21
-130.3097572771246
 31
0.0103158585796595
  0
LINE
  5
377
330
661
100
AcDbEntity
  8
0
 62
    13
420
 13395558
100
AcDbLine
 10
2.478618845498038
 20
-130.3097572771246
 30
0.0103158585796595
 11
2.451969892859623
 21
-130.4711676003299
 31
0.0103349687653526
  0
LINE
  5
378
330
661
100
AcDbEntity
  8
0
 62
    13
420
 13395558
100
AcDbLine
 10
2.451969892859623
 20
-130.4711676003299
 30
0.0103349687653526
 11
2.414821257373529
 21
-130.6304894067777
 31
0.010353701668666
  0
LINE
  5
379
330
661
100
AcDbEntity
  8
0
 62
    13
420
 13395558
100
AcDbLine
 10
2.414821257373529
 20
-130.6304894067777
 30
0.010353701668666
 11
2.367332015200072
 21
-130.7870404560332
 31
0.0103719770724319
  0
LINE
  5
37A
330
661
100
AcDbEntity
  8
0
 62
    13
420
 13395558
100
AcDbLine
 10
2.367332015200072
 20
-130.7870404560332
 30
0.0103719770724319
 11
2.309705522564918
 21
-130.9401503724692
 31
0.0103897167185655
  0
LINE
  5
37B
330
661
100
AcDbEntity
  8
0
 62
    13
420
 13395558
100
AcDbLine
 10
2.309705522564918
 20
-130.9401503724692
 30
0.0103897167185655
 11
2.242188544956512
 21
-131.0891635159178
 31
0.0104068446431788
  0
LINE
  5
37C
330
661
100
AcDbEntity
  8
0
 62
    13
420
 13395558
100
AcDbLine
 10
2.242188544956512
 20
-131.0891635159178
 30
0.0104068446431788
 11
2.165070200438366
 21
-131.2334417892218
 31
0.0104232875018691
  0
LINE
  5
37D
330
661
100
AcDbEntity
  8
0
 62
    13
420
 13395558
100
AcDbLine
 10
2.165070200438366
 20
-131.2334417892218
 30
0.0104232875018691
 11
2.078680721601132
 21
-131.372367370665
 31
0.0104389748837909
  0
LINE
  5
37E
330
661
100
AcDbEntity
  8
0
 62
    13
420
 13395558
100
AcDbLine
 10
2.078680721601132
 20
-131.372367370665
 30
0.0104389748837909
 11
1.983390041455946
 21
-131.5053453595793
 31
0.0104538396131667
  0
LINE
  5
37F
330
661
100
AcDbEntity
  8
0
 62
    13
420
 13395558
100
AcDbLine
 10
1.983390041455946
 20
-131.5053453595793
 30
0.0104538396131667
 11
1.879606209324479
 21
-131.631806323801
 31
0.0104678180369431
  0
LINE
  5
380
330
661
100
AcDbEntity
  8
0
 62
    13
420
 13395558
100
AcDbLine
 10
1.879606209324479
 20
-131.631806323801
 30
0.0104678180369431
 11
1.767773643509103
 21
-131.7512087380667
 31
0.0104808502973634
  0
LINE
  5
381
330
661
100
AcDbEntity
  8
0
 62
    13
420
 13395558
100
AcDbLine
 10
1.767773643509103
 20
-131.7512087380667
 30
0.0104808502973634
 11
1.648371228225486
 21
-131.8630413029076
 31
0.010492880588288
  0
LINE
  5
382
330
661
100
AcDbEntity
  8
0
 62
    13
420
 13395558
100
AcDbLine
 10
1.648371228225486
 20
-131.8630413029076
 30
0.010492880588288
 11
1.521910262946865
 21
-131.9668251341121
 31
0.010503857394164
  0
LINE
  5
383
330
661
100
AcDbEntity
  8
0
 62
    13
420
 13395558
100
AcDbLine
 10
1.521910262946865
 20
-131.9668251341121
 30
0.010503857394164
 11
1.388932272941205
 21
-132.0621158133818
 31
0.0105137337106235
  0
LINE
  5
384
330
661
100
AcDbEntity
  8
0
 62
    13
420
 13395558
100
AcDbLine
 10
1.388932272941205
 20
-132.0621158133818
 30
0.0105137337106235
 11
1.250006690376861
 21
-132.1485052913989
 31
0.0105224672457632
  0
LINE
  5
385
330
661
100
AcDbEntity
  8
0
 62
    13
420
 13395558
100
AcDbLine
 10
1.250006690376861
 20
-132.1485052913989
 30
0.0105224672457632
 11
1.105728415926618
 21
-132.2256236351557
 31
0.0105300206012449
  0
LINE
  5
386
330
661
100
AcDbEntity
  8
0
 62
    13
420
 13395558
100
AcDbLine
 10
1.105728415926618
 20
-132.2256236351557
 30
0.0105300206012449
 11
0.9567152713116757
 21
-132.2931406120647
 31
0.0105363614324407
  0
LINE
  5
387
330
661
100
AcDbEntity
  8
0
 62
    13
420
 13395558
100
AcDbLine
 10
0.9567152713116757
 20
-132.2931406120647
 30
0.0105363614324407
 11
0.803605353694189
 21
-132.3507671040655
 31
0.010541462586938
  0
LINE
  5
388
330
661
100
AcDbEntity
  8
0
 62
    13
420
 13395558
100
AcDbLine
 10
0.803605353694189
 20
-132.3507671040655
 30
0.010541462586938
 11
0.6470543032472584
 21
-132.3982563456724
 31
0.0105453022208102
  0
LINE
  5
389
330
661
100
AcDbEntity
  8
0
 62
    13
420
 13395558
100
AcDbLine
 10
0.6470543032472584
 20
-132.3982563456724
 30
0.0105453022208102
 11
0.4877324956030523
 21
-132.4354049806621
 31
0.0105478638921554
  0
LINE
  5
38A
330
661
100
AcDbEntity
  8
0
 62
    13
420
 13395558
100
AcDbLine
 10
0.4877324956030523
 20
-132.4354049806621
 30
0.0105478638921554
 11
0.3263221712014319
 21
-132.4620539328764
 31
0.0105491366315038
  0
LINE
  5
38B
330
661
100
AcDbEntity
  8
0
 62
    13
420
 13395558
100
AcDbLine
 10
0.3263221712014319
 20
-132.4620539328764
 30
0.0105491366315038
 11
0.1635145138316486
 21
-132.4780890874108
 31
0.01054911498879
  0
LINE
  5
38C
330
661
100
AcDbEntity
  8
0
 62
    13
420
 13395558
100
AcDbLine
 10
0.1635145138316486
 20
-132.4780890874108
 30
0.01054911498879
 11
0.0000066908772464
 21
-132.4834417792717
 31
0.0105477990566915
  0
LINE
  5
38D
330
661
100
AcDbEntity
  8
0
 62
    13
420
 13395558
100
AcDbLine
 10
0.0000066908772464
 20
-132.4834417792717
 30
0.0105477990566915
 11
-0.1635011320617064
 21
-132.4780890874108
 31
0.0105451944702315
  0
LINE
  5
38E
330
661
100
AcDbEntity
  8
0
 62
    13
420
 13395558
100
AcDbLine
 10
-0.1635011320617064
 20
-132.4780890874108
 30
0.0105451944702315
 11
-0.3263087893852075
 21
-132.4620539328764
 31
0.0105413123826491
  0
LINE
  5
38F
330
661
100
AcDbEntity
  8
0
 62
    13
420
 13395558
100
AcDbLine
 10
-0.3263087893852075
 20
-132.4620539328764
 30
0.0105413123826491
 11
-0.4877191137099115
 21
-132.4354049806621
 31
0.0105361694176394
  0
LINE
  5
390
330
661
100
AcDbEntity
  8
0
 62
    13
420
 13395558
100
AcDbLine
 10
-0.4877191137099115
 20
-132.4354049806621
 30
0.0105361694176394
 11
-0.6470409212468962
 21
-132.3982563456724
 31
0.0105297875981681
  0
LINE
  5
391
330
661
100
AcDbEntity
  8
0
 62
    13
420
 13395558
100
AcDbLine
 10
-0.6470409212468962
 20
-132.3982563456724
 30
0.0105297875981681
 11
-0.8035919715567593
 21
-132.3507671040655
 31
0.0105221942521658
  0
LINE
  5
392
330
661
100
AcDbEntity
  8
0
 62
    13
420
 13395558
100
AcDbLine
 10
-0.8035919715567593
 20
-132.3507671040655
 30
0.0105221942521658
 11
-0.9567018890079193
 21
-132.2931406120647
 31
0.010513421895506
  0
LINE
  5
393
330
661
100
AcDbEntity
  8
0
 62
    13
420
 13395558
100
AcDbLine
 10
-0.9567018890079193
 20
-132.2931406120647
 30
0.010513421895506
 11
-1.105715033427988
 21
-132.2256236351557
 31
0.0105035080927666
  0
LINE
  5
394
330
661
100
AcDbEntity
  8
0
 62
    13
420
 13395558
100
AcDbLine
 10
-1.105715033427988
 20
-132.2256236351557
 30
0.0105035080927666
 11
-1.249993307655645
 21
-132.1485052913989
 31
0.0104924952963729
  0
LINE
  5
395
330
661
100
AcDbEntity
  8
0
 62
    13
420
 13395558
100
AcDbLine
 10
-1.249993307655645
 20
-132.1485052913989
 30
0.0104924952963729
 11
-1.388918889970644
 21
-132.0621158133818
 31
0.0104804306648098
  0
LINE
  5
396
330
661
100
AcDbEntity
  8
0
 62
    13
420
 13395558
100
AcDbLine
 10
-1.388918889970644
 20
-132.0621158133818
 30
0.0104804306648098
 11
-1.521896879701269
 21
-131.9668251341121
 31
0.0104673658606819
  0
LINE
  5
397
330
661
100
AcDbEntity
  8
0
 62
    13
420
 13395558
100
AcDbLine
 10
-1.521896879701269
 20
-131.9668251341121
 30
0.0104673658606819
 11
-1.648357844680339
 21
-131.8630413029076
 31
0.0104533568294861
  0
LINE
  5
398
330
661
100
AcDbEntity
  8
0
 62
    13
420
 13395558
100
AcDbLine
 10
-1.648357844680339
 20
-131.8630413029076
 30
0.0104533568294861
 11
-1.767760259641176
 21
-131.7512087380667
 31
0.0104384635600449
  0
LINE
  5
399
330
661
100
AcDbEntity
  8
0
 62
    13
420
 13395558
100
AcDbLine
 10
-1.767760259641176
 20
-131.7512087380667
 30
0.0104384635600449
 11
-1.879592825111924
 21
-131.631806323801
 31
0.0104227498276243
  0
LINE
  5
39A
330
661
100
AcDbEntity
  8
0
 62
    13
420
 13395558
100
AcDbLine
 10
-1.879592825111924
 20
-131.631806323801
 30
0.0104227498276243
 11
-1.983376656878388
 21
-131.5053453595793
 31
0.010406282920839
  0
LINE
  5
39B
330
661
100
AcDbEntity
  8
0
 62
    13
420
 13395558
100
AcDbLine
 10
-1.983376656878388
 20
-131.5053453595793
 30
0.010406282920839
 11
-2.078667336639763
 21
-131.372367370665
 31
0.0103891333535119
  0
LINE
  5
39C
330
661
100
AcDbEntity
  8
0
 62
    13
420
 13395558
100
AcDbLine
 10
-2.078667336639763
 20
-131.372367370665
 30
0.0103891333535119
 11
-2.165056815076018
 21
-131.2334417892218
 31
0.0103713745627231
  0
LINE
  5
39D
330
661
100
AcDbEntity
  8
0
 62
    13
420
 13395558
100
AcDbLine
 10
-2.165056815076018
 20
-131.2334417892218
 30
0.0103713745627231
 11
-2.242175159177735
 21
-131.0891635159178
 31
0.0103530825943413
  0
LINE
  5
39E
330
661
100
AcDbEntity
  8
0
 62
    13
420
 13395558
100
AcDbLine
 10
-2.242175159177735
 20
-131.0891635159178
 30
0.0103530825943413
 11
-2.309692136356047
 21
-130.9401503724692
 31
0.0103343357773831
  0
LINE
  5
39F
330
661
100
AcDbEntity
  8
0
 62
    13
420
 13395558
100
AcDbLine
 10
-2.309692136356047
 20
-130.9401503724692
 30
0.0103343357773831
 11
-2.367318628549282
 21
-130.7870404560331
 31
0.010315214388597
  0
LINE
  5
3A0
330
661
100
AcDbEntity
  8
0
 62
    13
420
 13395558
100
AcDbLine
 10
-2.367318628549282
 20
-130.7870404560331
 30
0.010315214388597
 11
-2.414807870270888
 21
-130.6304894067777
 31
0.0102958003087053
  0
LINE
  5
3A1
330
661
100
AcDbEntity
  8
0
 62
    13
420
 13395558
100
AcDbLine
 10
-2.414807870270888
 20
-130.6304894067777
 30
0.0102958003087053
 11
-2.451956505297133
 21
-130.4711676003299
 31
0.0102761766717785
  0
LINE
  5
3A2
330
661
100
AcDbEntity
  8
0
 62
    13
420
 13395558
100
AcDbLine
 10
-2.451956505297133
 20
-130.4711676003299
 30
0.0102761766717785
 11
-2.478605457469671
 21
-130.3097572771246
 31
0.0102564275092427
  0
LINE
  5
3A3
330
661
100
AcDbEntity
  8
0
 62
    13
420
 13395558
100
AcDbLine
 10
-2.478605457469671
 20
-130.3097572771246
 30
0.0102564275092427
 11
-2.494640611884078
 21
-130.1469496209458
 31
0.0102366373900437
  0
LINE
  5
3A4
330
661
100
AcDbEntity
  8
0
 62
    13
420
 13395558
100
AcDbLine
 10
-2.494640611884078
 20
-130.1469496209458
 30
0.0102366373900437
 11
-2.499993303547389
 21
-129.983441799172
 31
0.0102168910585103
  0
LINE
  5
3A5
330
661
100
AcDbEntity
  8
0
 62
    13
420
 13395558
100
AcDbLine
 10
397.5000066964525
 20
-129.983441799172
 30
0.0102168910585102
 11
397.5053593885877
 21
-129.8199339773982
 31
0.0101972730714655
  0
LINE
  5
3A6
330
661
100
AcDbEntity
  8
0
 62
    13
420
 13395558
100
AcDbLine
 10
397.5053593885877
 20
-129.8199339773982
 30
0.0101972730714655
 11
397.5213945434721
 21
-129.6571263212194
 31
0.0101778674361417
  0
LINE
  5
3A7
330
661
100
AcDbEntity
  8
0
 62
    13
420
 13395558
100
AcDbLine
 10
397.5213945434721
 20
-129.6571263212194
 30
0.0101778674361417
 11
397.5480434961105
 21
-129.4957159980141
 31
0.0101587572504487
  0
LINE
  5
3A8
330
661
100
AcDbEntity
  8
0
 62
    13
420
 13395558
100
AcDbLine
 10
397.5480434961105
 20
-129.4957159980141
 30
0.0101587572504487
 11
397.5851921315966
 21
-129.3363941915663
 31
0.0101400243471352
  0
LINE
  5
3A9
330
661
100
AcDbEntity
  8
0
 62
    13
420
 13395558
100
AcDbLine
 10
397.5851921315966
 20
-129.3363941915663
 30
0.0101400243471352
 11
397.63268137377
 21
-129.1798431423109
 31
0.0101217489433694
  0
LINE
  5
3AA
330
661
100
AcDbEntity
  8
0
 62
    13
420
 13395558
100
AcDbLine
 10
397.63268137377
 20
-129.1798431423109
 30
0.0101217489433694
 11
397.6903078664052
 21
-129.0267332258749
 31
0.0101040092972357
  0
LINE
  5
3AB
330
661
100
AcDbEntity
  8
0
 62
    13
420
 13395558
100
AcDbLine
 10
397.6903078664052
 20
-129.0267332258749
 30
0.0101040092972357
 11
397.7578248440136
 21
-128.8777200824262
 31
0.0100868813726224
  0
LINE
  5
3AC
330
661
100
AcDbEntity
  8
0
 62
    13
420
 13395558
100
AcDbLine
 10
397.7578248440136
 20
-128.8777200824262
 30
0.0100868813726224
 11
397.8349431885318
 21
-128.7334418091222
 31
0.0100704385139322
  0
LINE
  5
3AD
330
661
100
AcDbEntity
  8
0
 62
    13
420
 13395558
100
AcDbLine
 10
397.8349431885318
 20
-128.7334418091222
 30
0.0100704385139322
 11
397.921332667369
 21
-128.5945162276791
 31
0.0100547511320103
  0
LINE
  5
3AE
330
661
100
AcDbEntity
  8
0
 62
    13
420
 13395558
100
AcDbLine
 10
397.921332667369
 20
-128.5945162276791
 30
0.0100547511320103
 11
398.0166233475142
 21
-128.4615382387648
 31
0.0100398864026346
  0
LINE
  5
3AF
330
661
100
AcDbEntity
  8
0
 62
    13
420
 13395558
100
AcDbLine
 10
398.0166233475142
 20
-128.4615382387648
 30
0.0100398864026346
 11
398.1204071796456
 21
-128.3350772745431
 31
0.0100259079788582
  0
LINE
  5
3B0
330
661
100
AcDbEntity
  8
0
 62
    13
420
 13395558
100
AcDbLine
 10
398.1204071796456
 20
-128.3350772745431
 30
0.0100259079788582
 11
398.232239745461
 21
-128.2156748602774
 31
0.0100128757184378
  0
LINE
  5
3B1
330
661
100
AcDbEntity
  8
0
 62
    13
420
 13395558
100
AcDbLine
 10
398.232239745461
 20
-128.2156748602774
 30
0.0100128757184378
 11
398.3516421607446
 21
-128.1038422954365
 31
0.0100008454275133
  0
LINE
  5
3B2
330
661
100
AcDbEntity
  8
0
 62
    13
420
 13395558
100
AcDbLine
 10
398.3516421607446
 20
-128.1038422954365
 30
0.0100008454275133
 11
398.4781031260233
 21
-128.000058464232
 31
0.0099898686216373
  0
LINE
  5
3B3
330
661
100
AcDbEntity
  8
0
 62
    13
420
 13395558
100
AcDbLine
 10
398.4781031260233
 20
-128.000058464232
 30
0.0099898686216373
 11
398.6110811160289
 21
-127.9047677849623
 31
0.0099799923051778
  0
LINE
  5
3B4
330
661
100
AcDbEntity
  8
0
 62
    13
420
 13395558
100
AcDbLine
 10
398.6110811160289
 20
-127.9047677849623
 30
0.0099799923051778
 11
398.7500066985932
 21
-127.8183783069452
 31
0.009971258770038
  0
LINE
  5
3B5
330
661
100
AcDbEntity
  8
0
 62
    13
420
 13395558
100
AcDbLine
 10
398.7500066985932
 20
-127.8183783069452
 30
0.009971258770038
 11
398.8942849730434
 21
-127.7412599631885
 31
0.0099637054145564
  0
LINE
  5
3B6
330
661
100
AcDbEntity
  8
0
 62
    13
420
 13395558
100
AcDbLine
 10
398.8942849730434
 20
-127.7412599631885
 30
0.0099637054145564
 11
399.0432981176584
 21
-127.6737429862794
 31
0.0099573645833605
  0
LINE
  5
3B7
330
661
100
AcDbEntity
  8
0
 62
    13
420
 13395558
100
AcDbLine
 10
399.0432981176584
 20
-127.6737429862794
 30
0.0099573645833605
 11
399.1964080352759
 21
-127.6161164942786
 31
0.0099522634288632
  0
LINE
  5
3B8
330
661
100
AcDbEntity
  8
0
 62
    13
420
 13395558
100
AcDbLine
 10
399.1964080352759
 20
-127.6161164942786
 30
0.0099522634288632
 11
399.3529590857228
 21
-127.5686272526717
 31
0.0099484237949911
  0
LINE
  5
3B9
330
661
100
AcDbEntity
  8
0
 62
    13
420
 13395558
100
AcDbLine
 10
399.3529590857228
 20
-127.5686272526717
 30
0.0099484237949911
 11
399.512280893367
 21
-127.531478617682
 31
0.0099458621236458
  0
LINE
  5
3BA
330
661
100
AcDbEntity
  8
0
 62
    13
420
 13395558
100
AcDbLine
 10
399.512280893367
 20
-127.531478617682
 30
0.0099458621236458
 11
399.6736912177686
 21
-127.5048296654677
 31
0.0099445893842974
  0
LINE
  5
3BB
330
661
100
AcDbEntity
  8
0
 62
    13
420
 13395558
100
AcDbLine
 10
399.6736912177686
 20
-127.5048296654677
 30
0.0099445893842974
 11
399.8364988751384
 21
-127.4887945109333
 31
0.0099446110270112
  0
LINE
  5
3BC
330
661
100
AcDbEntity
  8
0
 62
    13
420
 13395558
100
AcDbLine
 10
399.8364988751384
 20
-127.4887945109333
 30
0.0099446110270112
 11
400.0000066980928
 21
-127.4834418190725
 31
0.0099459269591097
  0
LINE
  5
3BD
330
661
100
AcDbEntity
  8
0
 62
    13
420
 13395558
100
AcDbLine
 10
400.0000066980928
 20
-127.4834418190725
 30
0.0099459269591097
 11
400.1635145210317
 21
-127.4887945109333
 31
0.0099485315455697
  0
LINE
  5
3BE
330
661
100
AcDbEntity
  8
0
 62
    13
420
 13395558
100
AcDbLine
 10
400.1635145210317
 20
-127.4887945109333
 30
0.0099485315455697
 11
400.3263221783552
 21
-127.5048296654677
 31
0.0099524136331521
  0
LINE
  5
3BF
330
661
100
AcDbEntity
  8
0
 62
    13
420
 13395558
100
AcDbLine
 10
400.3263221783552
 20
-127.5048296654677
 30
0.0099524136331521
 11
400.4877325026799
 21
-127.531478617682
 31
0.0099575565981618
  0
LINE
  5
3C0
330
661
100
AcDbEntity
  8
0
 62
    13
420
 13395558
100
AcDbLine
 10
400.4877325026799
 20
-127.531478617682
 30
0.0099575565981618
 11
400.6470543102169
 21
-127.5686272526717
 31
0.0099639384176332
  0
LINE
  5
3C1
330
661
100
AcDbEntity
  8
0
 62
    13
420
 13395558
100
AcDbLine
 10
400.6470543102169
 20
-127.5686272526717
 30
0.0099639384176332
 11
400.8036053605267
 21
-127.6161164942786
 31
0.0099715317636354
  0
LINE
  5
3C2
330
661
100
AcDbEntity
  8
0
 62
    13
420
 13395558
100
AcDbLine
 10
400.8036053605267
 20
-127.6161164942786
 30
0.0099715317636354
 11
400.9567152779779
 21
-127.6737429862794
 31
0.0099803041202953
  0
LINE
  5
3C3
330
661
100
AcDbEntity
  8
0
 62
    13
420
 13395558
100
AcDbLine
 10
400.9567152779779
 20
-127.6737429862794
 30
0.0099803041202953
 11
401.105728422398
 21
-127.7412599631885
 31
0.0099902179230347
  0
LINE
  5
3C4
330
661
100
AcDbEntity
  8
0
 62
    13
420
 13395558
100
AcDbLine
 10
401.105728422398
 20
-127.7412599631885
 30
0.0099902179230347
 11
401.2500066966256
 21
-127.8183783069452
 31
0.0100012307194284
  0
LINE
  5
3C5
330
661
100
AcDbEntity
  8
0
 62
    13
420
 13395558
100
AcDbLine
 10
401.2500066966256
 20
-127.8183783069452
 30
0.0100012307194284
 11
401.3889322789406
 21
-127.9047677849623
 31
0.0100132953509914
  0
LINE
  5
3C6
330
661
100
AcDbEntity
  8
0
 62
    13
420
 13395558
100
AcDbLine
 10
401.3889322789406
 20
-127.9047677849623
 30
0.0100132953509914
 11
401.5219102686712
 21
-128.000058464232
 31
0.0100263601551194
  0
LINE
  5
3C7
330
661
100
AcDbEntity
  8
0
 62
    13
420
 13395558
100
AcDbLine
 10
401.5219102686712
 20
-128.000058464232
 30
0.0100263601551194
 11
401.6483712336503
 21
-128.1038422954365
 31
0.0100403691863151
  0
LINE
  5
3C8
330
661
100
AcDbEntity
  8
0
 62
    13
420
 13395558
100
AcDbLine
 10
401.6483712336503
 20
-128.1038422954365
 30
0.0100403691863151
 11
401.7677736486111
 21
-128.2156748602774
 31
0.0100552624557564
  0
LINE
  5
3C9
330
661
100
AcDbEntity
  8
0
 62
    13
420
 13395558
100
AcDbLine
 10
401.7677736486111
 20
-128.2156748602774
 30
0.0100552624557564
 11
401.8796062140819
 21
-128.3350772745431
 31
0.010070976188177
  0
LINE
  5
3CA
330
661
100
AcDbEntity
  8
0
 62
    13
420
 13395558
100
AcDbLine
 10
401.8796062140819
 20
-128.3350772745431
 30
0.010070976188177
 11
401.9833900458483
 21
-128.4615382387648
 31
0.0100874430949623
  0
LINE
  5
3CB
330
661
100
AcDbEntity
  8
0
 62
    13
420
 13395558
100
AcDbLine
 10
401.9833900458483
 20
-128.4615382387648
 30
0.0100874430949623
 11
402.0786807256097
 21
-128.5945162276791
 31
0.0101045926622894
  0
LINE
  5
3CC
330
661
100
AcDbEntity
  8
0
 62
    13
420
 13395558
100
AcDbLine
 10
402.0786807256097
 20
-128.5945162276791
 30
0.0101045926622894
 11
402.1650702040459
 21
-128.7334418091222
 31
0.0101223514530781
  0
LINE
  5
3CD
330
661
100
AcDbEntity
  8
0
 62
    13
420
 13395558
100
AcDbLine
 10
402.1650702040459
 20
-128.7334418091222
 30
0.0101223514530781
 11
402.2421885481477
 21
-128.8777200824262
 31
0.01014064342146
  0
LINE
  5
3CE
330
661
100
AcDbEntity
  8
0
 62
    13
420
 13395558
100
AcDbLine
 10
402.2421885481477
 20
-128.8777200824262
 30
0.01014064342146
 11
402.309705525326
 21
-129.0267332258748
 31
0.0101593902384181
  0
LINE
  5
3CF
330
661
100
AcDbEntity
  8
0
 62
    13
420
 13395558
100
AcDbLine
 10
402.309705525326
 20
-129.0267332258748
 30
0.0101593902384181
 11
402.3673320175192
 21
-129.1798431423109
 31
0.0101785116272042
  0
LINE
  5
3D0
330
661
100
AcDbEntity
  8
0
 62
    13
420
 13395558
100
AcDbLine
 10
402.3673320175192
 20
-129.1798431423109
 30
0.0101785116272042
 11
402.4148212592408
 21
-129.3363941915663
 31
0.0101979257070959
  0
LINE
  5
3D1
330
661
100
AcDbEntity
  8
0
 62
    13
420
 13395558
100
AcDbLine
 10
402.4148212592408
 20
-129.3363941915663
 30
0.0101979257070959
 11
402.4519698942671
 21
-129.4957159980141
 31
0.0102175493440227
  0
LINE
  5
3D2
330
661
100
AcDbEntity
  8
0
 62
    13
420
 13395558
100
AcDbLine
 10
402.4519698942671
 20
-129.4957159980141
 30
0.0102175493440227
 11
402.4786188464396
 21
-129.6571263212194
 31
0.0102372985065586
  0
LINE
  5
3D3
330
661
100
AcDbEntity
  8
0
 62
    13
420
 13395558
100
AcDbLine
 10
402.4786188464396
 20
-129.6571263212194
 30
0.0102372985065586
 11
402.494654000854
 21
-129.8199339773982
 31
0.0102570886257575
  0
LINE
  5
3D4
330
661
100
AcDbEntity
  8
0
 62
    13
420
 13395558
100
AcDbLine
 10
402.494654000854
 20
-129.8199339773982
 30
0.0102570886257575
 11
402.5000066925173
 21
-129.983441799172
 31
0.0102768349572909
  0
LINE
  5
3D5
330
661
100
AcDbEntity
  8
0
 62
    13
420
 13395558
100
AcDbLine
 10
402.5000066925173
 20
-129.983441799172
 30
0.0102768349572909
 11
402.4946540003821
 21
-130.1469496209458
 31
0.0102964529443356
  0
LINE
  5
3D6
330
661
100
AcDbEntity
  8
0
 62
    13
420
 13395558
100
AcDbLine
 10
402.4946540003821
 20
-130.1469496209458
 30
0.0102964529443356
 11
402.4786188454977
 21
-130.3097572771246
 31
0.0103158585796594
  0
LINE
  5
3D7
330
661
100
AcDbEntity
  8
0
 62
    13
420
 13395558
100
AcDbLine
 10
402.4786188454977
 20
-130.3097572771246
 30
0.0103158585796594
 11
402.4519698928593
 21
-130.4711676003299
 31
0.0103349687653525
  0
LINE
  5
3D8
330
661
100
AcDbEntity
  8
0
 62
    13
420
 13395558
100
AcDbLine
 10
402.4519698928593
 20
-130.4711676003299
 30
0.0103349687653525
 11
402.4148212573733
 21
-130.6304894067777
 31
0.0103537016686659
  0
LINE
  5
3D9
330
661
100
AcDbEntity
  8
0
 62
    13
420
 13395558
100
AcDbLine
 10
402.4148212573733
 20
-130.6304894067777
 30
0.0103537016686659
 11
402.3673320151998
 21
-130.7870404560331
 31
0.0103719770724317
  0
LINE
  5
3DA
330
661
100
AcDbEntity
  8
0
 62
    13
420
 13395558
100
AcDbLine
 10
402.3673320151998
 20
-130.7870404560331
 30
0.0103719770724317
 11
402.3097055225646
 21
-130.9401503724692
 31
0.0103897167185654
  0
LINE
  5
3DB
330
661
100
AcDbEntity
  8
0
 62
    13
420
 13395558
100
AcDbLine
 10
402.3097055225646
 20
-130.9401503724692
 30
0.0103897167185654
 11
402.2421885449563
 21
-131.0891635159178
 31
0.0104068446431787
  0
LINE
  5
3DC
330
661
100
AcDbEntity
  8
0
 62
    13
420
 13395558
100
AcDbLine
 10
402.2421885449563
 20
-131.0891635159178
 30
0.0104068446431787
 11
402.1650702004381
 21
-131.2334417892218
 31
0.0104232875018689
  0
LINE
  5
3DD
330
661
100
AcDbEntity
  8
0
 62
    13
420
 13395558
100
AcDbLine
 10
402.1650702004381
 20
-131.2334417892218
 30
0.0104232875018689
 11
402.0786807216008
 21
-131.3723673706649
 31
0.0104389748837908
  0
LINE
  5
3DE
330
661
100
AcDbEntity
  8
0
 62
    13
420
 13395558
100
AcDbLine
 10
402.0786807216008
 20
-131.3723673706649
 30
0.0104389748837908
 11
401.9833900414557
 21
-131.5053453595792
 31
0.0104538396131666
  0
LINE
  5
3DF
330
661
100
AcDbEntity
  8
0
 62
    13
420
 13395558
100
AcDbLine
 10
401.9833900414557
 20
-131.5053453595792
 30
0.0104538396131666
 11
401.8796062093242
 21
-131.6318063238009
 31
0.0104678180369429
  0
LINE
  5
3E0
330
661
100
AcDbEntity
  8
0
 62
    13
420
 13395558
100
AcDbLine
 10
401.8796062093242
 20
-131.6318063238009
 30
0.0104678180369429
 11
401.7677736435089
 21
-131.7512087380667
 31
0.0104808502973633
  0
LINE
  5
3E1
330
661
100
AcDbEntity
  8
0
 62
    13
420
 13395558
100
AcDbLine
 10
401.7677736435089
 20
-131.7512087380667
 30
0.0104808502973633
 11
401.6483712282252
 21
-131.8630413029075
 31
0.0104928805882878
  0
LINE
  5
3E2
330
661
100
AcDbEntity
  8
0
 62
    13
420
 13395558
100
AcDbLine
 10
401.6483712282252
 20
-131.8630413029075
 30
0.0104928805882878
 11
401.5219102629466
 21
-131.966825134112
 31
0.0105038573941638
  0
LINE
  5
3E3
330
661
100
AcDbEntity
  8
0
 62
    13
420
 13395558
100
AcDbLine
 10
401.5219102629466
 20
-131.966825134112
 30
0.0105038573941638
 11
401.388932272941
 21
-132.0621158133818
 31
0.0105137337106234
  0
LINE
  5
3E4
330
661
100
AcDbEntity
  8
0
 62
    13
420
 13395558
100
AcDbLine
 10
401.388932272941
 20
-132.0621158133818
 30
0.0105137337106234
 11
401.2500066903766
 21
-132.1485052913988
 31
0.0105224672457631
  0
LINE
  5
3E5
330
661
100
AcDbEntity
  8
0
 62
    13
420
 13395558
100
AcDbLine
 10
401.2500066903766
 20
-132.1485052913988
 30
0.0105224672457631
 11
401.1057284159264
 21
-132.2256236351556
 31
0.0105300206012448
  0
LINE
  5
3E6
330
661
100
AcDbEntity
  8
0
 62
    13
420
 13395558
100
AcDbLine
 10
401.1057284159264
 20
-132.2256236351556
 30
0.0105300206012448
 11
400.9567152713115
 21
-132.2931406120646
 31
0.0105363614324406
  0
LINE
  5
3E7
330
661
100
AcDbEntity
  8
0
 62
    13
420
 13395558
100
AcDbLine
 10
400.9567152713115
 20
-132.2931406120646
 30
0.0105363614324406
 11
400.803605353694
 21
-132.3507671040655
 31
0.0105414625869379
  0
LINE
  5
3E8
330
661
100
AcDbEntity
  8
0
 62
    13
420
 13395558
100
AcDbLine
 10
400.803605353694
 20
-132.3507671040655
 30
0.0105414625869379
 11
400.647054303247
 21
-132.3982563456723
 31
0.0105453022208101
  0
LINE
  5
3E9
330
661
100
AcDbEntity
  8
0
 62
    13
420
 13395558
100
AcDbLine
 10
400.647054303247
 20
-132.3982563456723
 30
0.0105453022208101
 11
400.4877324956028
 21
-132.435404980662
 31
0.0105478638921553
  0
LINE
  5
3EA
330
661
100
AcDbEntity
  8
0
 62
    13
420
 13395558
100
AcDbLine
 10
400.4877324956028
 20
-132.435404980662
 30
0.0105478638921553
 11
400.3263221712012
 21
-132.4620539328764
 31
0.0105491366315037
  0
LINE
  5
3EB
330
661
100
AcDbEntity
  8
0
 62
    13
420
 13395558
100
AcDbLine
 10
400.3263221712012
 20
-132.4620539328764
 30
0.0105491366315037
 11
400.1635145138314
 21
-132.4780890874107
 31
0.0105491149887899
  0
LINE
  5
3EC
330
661
100
AcDbEntity
  8
0
 62
    13
420
 13395558
100
AcDbLine
 10
400.1635145138314
 20
-132.4780890874107
 30
0.0105491149887899
 11
400.0000066908771
 21
-132.4834417792716
 31
0.0105477990566914
  0
LINE
  5
3ED
330
661
100
AcDbEntity
  8
0
 62
    13
420
 13395558
100
AcDbLine
 10
400.0000066908771
 20
-132.4834417792716
 30
0.0105477990566914
 11
399.8364988679381
 21
-132.4780890874107
 31
0.0105451944702314
  0
LINE
  5
3EE
330
661
100
AcDbEntity
  8
0
 62
    13
420
 13395558
100
AcDbLine
 10
399.8364988679381
 20
-132.4780890874107
 30
0.0105451944702314
 11
399.6736912106146
 21
-132.4620539328764
 31
0.010541312382649
  0
LINE
  5
3EF
330
661
100
AcDbEntity
  8
0
 62
    13
420
 13395558
100
AcDbLine
 10
399.6736912106146
 20
-132.4620539328764
 30
0.010541312382649
 11
399.5122808862899
 21
-132.435404980662
 31
0.0105361694176393
  0
LINE
  5
3F0
330
661
100
AcDbEntity
  8
0
 62
    13
420
 13395558
100
AcDbLine
 10
399.5122808862899
 20
-132.435404980662
 30
0.0105361694176393
 11
399.352959078753
 21
-132.3982563456723
 31
0.0105297875981679
  0
LINE
  5
3F1
330
661
100
AcDbEntity
  8
0
 62
    13
420
 13395558
100
AcDbLine
 10
399.352959078753
 20
-132.3982563456723
 30
0.0105297875981679
 11
399.196408028443
 21
-132.3507671040655
 31
0.0105221942521657
  0
LINE
  5
3F2
330
661
100
AcDbEntity
  8
0
 62
    13
420
 13395558
100
AcDbLine
 10
399.196408028443
 20
-132.3507671040655
 30
0.0105221942521657
 11
399.0432981109919
 21
-132.2931406120646
 31
0.0105134218955059
  0
LINE
  5
3F3
330
661
100
AcDbEntity
  8
0
 62
    13
420
 13395558
100
AcDbLine
 10
399.0432981109919
 20
-132.2931406120646
 30
0.0105134218955059
 11
398.8942849665718
 21
-132.2256236351556
 31
0.0105035080927664
  0
LINE
  5
3F4
330
661
100
AcDbEntity
  8
0
 62
    13
420
 13395558
100
AcDbLine
 10
398.8942849665718
 20
-132.2256236351556
 30
0.0105035080927664
 11
398.7500066923442
 21
-132.1485052913988
 31
0.0104924952963728
  0
LINE
  5
3F5
330
661
100
AcDbEntity
  8
0
 62
    13
420
 13395558
100
AcDbLine
 10
398.7500066923442
 20
-132.1485052913988
 30
0.0104924952963728
 11
398.6110811100292
 21
-132.0621158133818
 31
0.0104804306648097
  0
LINE
  5
3F6
330
661
100
AcDbEntity
  8
0
 62
    13
420
 13395558
100
AcDbLine
 10
398.6110811100292
 20
-132.0621158133818
 30
0.0104804306648097
 11
398.4781031202986
 21
-131.966825134112
 31
0.0104673658606818
  0
LINE
  5
3F7
330
661
100
AcDbEntity
  8
0
 62
    13
420
 13395558
100
AcDbLine
 10
398.4781031202986
 20
-131.966825134112
 30
0.0104673658606818
 11
398.3516421553196
 21
-131.8630413029075
 31
0.010453356829486
  0
LINE
  5
3F8
330
661
100
AcDbEntity
  8
0
 62
    13
420
 13395558
100
AcDbLine
 10
398.3516421553196
 20
-131.8630413029075
 30
0.010453356829486
 11
398.2322397403587
 21
-131.7512087380667
 31
0.0104384635600448
  0
LINE
  5
3F9
330
661
100
AcDbEntity
  8
0
 62
    13
420
 13395558
100
AcDbLine
 10
398.2322397403587
 20
-131.7512087380667
 30
0.0104384635600448
 11
398.1204071748879
 21
-131.6318063238009
 31
0.0104227498276241
  0
LINE
  5
3FA
330
661
100
AcDbEntity
  8
0
 62
    13
420
 13395558
100
AcDbLine
 10
398.1204071748879
 20
-131.6318063238009
 30
0.0104227498276241
 11
398.0166233431215
 21
-131.5053453595792
 31
0.0104062829208388
  0
LINE
  5
3FB
330
661
100
AcDbEntity
  8
0
 62
    13
420
 13395558
100
AcDbLine
 10
398.0166233431215
 20
-131.5053453595792
 30
0.0104062829208388
 11
397.9213326633601
 21
-131.3723673706649
 31
0.0103891333535117
  0
LINE
  5
3FC
330
661
100
AcDbEntity
  8
0
 62
    13
420
 13395558
100
AcDbLine
 10
397.9213326633601
 20
-131.3723673706649
 30
0.0103891333535117
 11
397.8349431849239
 21
-131.2334417892218
 31
0.010371374562723
  0
LINE
  5
3FD
330
661
100
AcDbEntity
  8
0
 62
    13
420
 13395558
100
AcDbLine
 10
397.8349431849239
 20
-131.2334417892218
 30
0.010371374562723
 11
397.7578248408221
 21
-131.0891635159178
 31
0.0103530825943411
  0
LINE
  5
3FE
330
661
100
AcDbEntity
  8
0
 62
    13
420
 13395558
100
AcDbLine
 10
397.7578248408221
 20
-131.0891635159178
 30
0.0103530825943411
 11
397.6903078636439
 21
-130.9401503724692
 31
0.010334335777383
  0
LINE
  5
3FF
330
661
100
AcDbEntity
  8
0
 62
    13
420
 13395558
100
AcDbLine
 10
397.6903078636439
 20
-130.9401503724692
 30
0.010334335777383
 11
397.6326813714506
 21
-130.7870404560331
 31
0.0103152143885969
  0
LINE
  5
400
330
661
100
AcDbEntity
  8
0
 62
    13
420
 13395558
100
AcDbLine
 10
397.6326813714506
 20
-130.7870404560331
 30
0.0103152143885969
 11
397.585192129729
 21
-130.6304894067777
 31
0.0102958003087052
  0
LINE
  5
401
330
661
100
AcDbEntity
  8
0
 62
    13
420
 13395558
100
AcDbLine
 10
397.585192129729
 20
-130.6304894067777
 30
0.0102958003087052
 11
397.5480434947028
 21
-130.4711676003299
 31
0.0102761766717784
  0
LINE
  5
402
330
661
100
AcDbEntity
  8
0
 62
    13
420
 13395558
100
AcDbLine
 10
397.5480434947028
 20
-130.4711676003299
 30
0.0102761766717784
 11
397.5213945425302
 21
-130.3097572771246
 31
0.0102564275092426
  0
LINE
  5
403
330
661
100
AcDbEntity
  8
0
 62
    13
420
 13395558
100
AcDbLine
 10
397.5213945425302
 20
-130.3097572771246
 30
0.0102564275092426
 11
397.5053593881158
 21
-130.1469496209458
 31
0.0102366373900436
  0
LINE
  5
404
330
661
100
AcDbEntity
  8
0
 62
    13
420
 13395558
100
AcDbLine
 10
397.5053593881158
 20
-130.1469496209458
 30
0.0102366373900436
 11
397.5000066964525
 21
-129.983441799172
 31
0.0102168910585102
  0
LINE
  5
406
330
661
100
AcDbEntity
  8
0
 62
    13
420
 13395558
100
AcDbLine
 10
397.5000145207925
 20
-537.3176865106396
 30
0.041026083734094
 11
397.5851999363647
 21
-536.670638900973
 31
0.0409771444669032
  0
LINE
  5
407
330
661
100
AcDbEntity
  8
0
 62
    13
420
 13395558
100
AcDbLine
 10
397.5851999363647
 20
-536.670638900973
 30
0.0409771444669032
 11
397.8349509751955
 21
-536.0676865116827
 31
0.0409315406316102
  0
LINE
  5
408
330
661
100
AcDbEntity
  8
0
 62
    13
420
 13395558
100
AcDbLine
 10
397.8349509751955
 20
-536.0676865116827
 30
0.0409315406316102
 11
398.2322475167222
 21
-535.5499195516746
 31
0.040892380054226
  0
LINE
  5
409
330
661
100
AcDbEntity
  8
0
 62
    13
420
 13395558
100
AcDbLine
 10
398.2322475167222
 20
-535.5499195516746
 30
0.040892380054226
 11
398.7500144582034
 21
-535.1526229836215
 31
0.0408623314633838
  0
LINE
  5
40A
330
661
100
AcDbEntity
  8
0
 62
    13
420
 13395558
100
AcDbLine
 10
398.7500144582034
 20
-535.1526229836215
 30
0.0408623314633838
 11
399.352966838227
 21
-534.9028719120718
 31
0.0408434426208915
  0
LINE
  5
40B
330
661
100
AcDbEntity
  8
0
 62
    13
420
 13395558
100
AcDbLine
 10
399.352966838227
 20
-534.9028719120718
 30
0.0408434426208915
 11
400.000014448521
 21
-534.8176864598192
 31
0.0408370007701496
  0
LINE
  5
40C
330
661
100
AcDbEntity
  8
0
 62
    13
420
 13395558
100
AcDbLine
 10
400.000014448521
 20
-534.8176864598192
 30
0.0408370007701496
 11
400.6470620637399
 21
-534.9028718746608
 31
0.0408434449126409
  0
LINE
  5
40D
330
661
100
AcDbEntity
  8
0
 62
    13
420
 13395558
100
AcDbLine
 10
400.6470620637399
 20
-534.9028718746608
 30
0.0408434449126409
 11
401.250014458203
 21
-535.1526229113495
 31
0.0408623358907039
  0
LINE
  5
40E
330
661
100
AcDbEntity
  8
0
 62
    13
420
 13395558
100
AcDbLine
 10
401.250014458203
 20
-535.1526229113495
 30
0.0408623358907039
 11
401.7677814226549
 21
-535.5499194494662
 31
0.0408923863154023
  0
LINE
  5
40F
330
661
100
AcDbEntity
  8
0
 62
    13
420
 13395558
100
AcDbLine
 10
401.7677814226549
 20
-535.5499194494662
 30
0.0408923863154023
 11
402.165077994118
 21
-536.0676863865042
 31
0.0409315482999536
  0
LINE
  5
410
330
661
100
AcDbEntity
  8
0
 62
    13
420
 13395558
100
AcDbLine
 10
402.165077994118
 20
-536.0676863865042
 30
0.0409315482999536
 11
402.41482906781
 21
-536.670638761353
 31
0.0409771530198291
  0
LINE
  5
411
330
661
100
AcDbEntity
  8
0
 62
    13
420
 13395558
100
AcDbLine
 10
402.41482906781
 20
-536.670638761353
 30
0.0409771530198291
 11
402.500014520793
 21
-537.317686366095
 31
0.0410260925887343
  0
LINE
  5
412
330
661
100
AcDbEntity
  8
0
 62
    13
420
 13395558
100
AcDbLine
 10
402.500014520793
 20
-537.317686366095
 30
0.0410260925887343
 11
402.4148291052209
 21
-537.964733975761
 31
0.0410750318559249
  0
LINE
  5
413
330
661
100
AcDbEntity
  8
0
 62
    13
420
 13395558
100
AcDbLine
 10
402.4148291052209
 20
-537.964733975761
 30
0.0410750318559249
 11
402.16507806639
 21
-538.5676863650507
 31
0.0411206356912181
  0
LINE
  5
414
330
661
100
AcDbEntity
  8
0
 62
    13
420
 13395558
100
AcDbLine
 10
402.16507806639
 20
-538.5676863650507
 30
0.0411206356912181
 11
401.767781524863
 21
-539.0854533250593
 31
0.0411597962686021
  0
LINE
  5
415
330
661
100
AcDbEntity
  8
0
 62
    13
420
 13395558
100
AcDbLine
 10
401.767781524863
 20
-539.0854533250593
 30
0.0411597962686021
 11
401.2500145833819
 21
-539.4827498931155
 31
0.0411898448594445
  0
LINE
  5
416
330
661
100
AcDbEntity
  8
0
 62
    13
420
 13395558
100
AcDbLine
 10
401.2500145833819
 20
-539.4827498931155
 30
0.0411898448594445
 11
400.6470622033579
 21
-539.7325009646618
 31
0.0412087337019367
  0
LINE
  5
417
330
661
100
AcDbEntity
  8
0
 62
    13
420
 13395558
100
AcDbLine
 10
400.6470622033579
 20
-539.7325009646618
 30
0.0412087337019367
 11
400.0000145930649
 21
-539.8176864169138
 31
0.0412151755526785
  0
LINE
  5
418
330
661
100
AcDbEntity
  8
0
 62
    13
420
 13395558
100
AcDbLine
 10
400.0000145930649
 20
-539.8176864169138
 30
0.0412151755526785
 11
399.3529669778454
 21
-539.7325010020729
 31
0.0412087314101872
  0
LINE
  5
419
330
661
100
AcDbEntity
  8
0
 62
    13
420
 13395558
100
AcDbLine
 10
399.3529669778454
 20
-539.7325010020729
 30
0.0412087314101872
 11
398.7500145833819
 21
-539.4827499653868
 31
0.0411898404321244
  0
LINE
  5
41A
330
661
100
AcDbEntity
  8
0
 62
    13
420
 13395558
100
AcDbLine
 10
398.7500145833819
 20
-539.4827499653868
 30
0.0411898404321244
 11
398.23224761893
 21
-539.0854534272685
 31
0.0411597900074259
  0
LINE
  5
41B
330
661
100
AcDbEntity
  8
0
 62
    13
420
 13395558
100
AcDbLine
 10
398.23224761893
 20
-539.0854534272685
 30
0.0411597900074259
 11
397.8349510474675
 21
-538.5676864902306
 31
0.0411206280228747
  0
LINE
  5
41C
330
661
100
AcDbEntity
  8
0
 62
    13
420
 13395558
100
AcDbLine
 10
397.8349510474675
 20
-538.5676864902306
 30
0.0411206280228747
 11
397.5851999737753
 21
-537.9647341153808
 31
0.0410750233029993
  0
LINE
  5
41D
330
661
100
AcDbEntity
  8
0
 62
     0
100
AcDbLine
 10
397.5851999737753
 20
-537.9647341153808
 30
0.0410750233029993
 11
397.5000223471025
 21
-944.6532558953407
 31
0.0716457927629618
  0
LINE
  5
41E
330
661
100
AcDbEntity
  8
0
 62
    13
420
 13395558
100
AcDbLine
 10
397.5000223471025
 20
-944.6532558953407
 30
0.0716457927629618
 11
397.5852077564393
 21
-944.0062082867042
 31
0.0715968538480386
  0
LINE
  5
41F
330
661
100
AcDbEntity
  8
0
 62
    13
420
 13395558
100
AcDbLine
 10
397.5852077564393
 20
-944.0062082867042
 30
0.0715968538480386
 11
397.8349587894602
 21
-943.4032558967316
 31
0.0715512504735855
  0
LINE
  5
420
330
661
100
AcDbEntity
  8
0
 62
    13
420
 13395558
100
AcDbLine
 10
397.8349587894602
 20
-943.4032558967316
 30
0.0715512504735855
 11
398.2322553259977
 21
-942.8854889343763
 31
0.0715120904342084
  0
LINE
  5
421
330
661
100
AcDbEntity
  8
0
 62
    13
420
 13395558
100
AcDbLine
 10
398.2322553259977
 20
-942.8854889343763
 30
0.0715120904342084
 11
398.7500222636503
 21
-942.48819236247
 31
0.0714820424218758
  0
LINE
  5
422
330
661
100
AcDbEntity
  8
0
 62
    13
420
 13395558
100
AcDbLine
 10
398.7500222636503
 20
-942.48819236247
 30
0.0714820424218758
 11
399.3529746412669
 21
-942.2384412858243
 31
0.0714631541589713
  0
LINE
  5
423
330
661
100
AcDbEntity
  8
0
 62
    13
420
 13395558
100
AcDbLine
 10
399.3529746412669
 20
-942.2384412858243
 30
0.0714631541589713
 11
400.0000222507401
 21
-942.1532558275802
 31
0.0714567128493976
  0
LINE
  5
424
330
661
100
AcDbEntity
  8
0
 62
    13
420
 13395558
100
AcDbLine
 10
400.0000222507401
 20
-942.1532558275802
 30
0.0714567128493976
 11
400.6470698667799
 21
-942.2384412359429
 31
0.0714631574577574
  0
LINE
  5
425
330
661
100
AcDbEntity
  8
0
 62
    13
420
 13395558
100
AcDbLine
 10
400.6470698667799
 20
-942.2384412359429
 30
0.0714631574577574
 11
401.2500222636501
 21
-942.4881922661068
 31
0.0714820487946412
  0
LINE
  5
426
330
661
100
AcDbEntity
  8
0
 62
    13
420
 13395558
100
AcDbLine
 10
401.2500222636501
 20
-942.4881922661068
 30
0.0714820487946412
 11
401.76778923193
 21
-942.8854887980976
 31
0.0715120994466598
  0
LINE
  5
427
330
661
100
AcDbEntity
  8
0
 62
    13
420
 13395558
100
AcDbLine
 10
401.76778923193
 20
-942.8854887980976
 30
0.0715120994466598
 11
402.1650858083819
 21
-943.4032557298262
 31
0.0715512615115393
  0
LINE
  5
428
330
661
100
AcDbEntity
  8
0
 62
    13
420
 13395558
100
AcDbLine
 10
402.1650858083819
 20
-943.4032557298262
 30
0.0715512615115393
 11
402.414836887885
 21
-944.0062081005437
 31
0.0715968661592762
  0
LINE
  5
429
330
661
100
AcDbEntity
  8
0
 62
    13
420
 13395558
100
AcDbLine
 10
402.414836887885
 20
-944.0062081005437
 30
0.0715968661592762
 11
402.500022347102
 21
-944.6532557026139
 31
0.0716458055084928
  0
LINE
  5
42A
330
661
100
AcDbEntity
  8
0
 62
    13
420
 13395558
100
AcDbLine
 10
402.500022347102
 20
-944.6532557026139
 30
0.0716458055084928
 11
402.414836937766
 21
-945.3003033112502
 31
0.0716947444234158
  0
LINE
  5
42B
330
661
100
AcDbEntity
  8
0
 62
    13
420
 13395558
100
AcDbLine
 10
402.414836937766
 20
-945.3003033112502
 30
0.0716947444234158
 11
402.1650859047448
 21
-945.903255701222
 31
0.0717403477978689
  0
LINE
  5
42C
330
661
100
AcDbEntity
  8
0
 62
    13
420
 13395558
100
AcDbLine
 10
402.1650859047448
 20
-945.903255701222
 30
0.0717403477978689
 11
401.7677893682069
 21
-946.4210226635781
 31
0.0717795078372459
  0
LINE
  5
42D
330
661
100
AcDbEntity
  8
0
 62
    13
420
 13395558
100
AcDbLine
 10
401.7677893682069
 20
-946.4210226635781
 30
0.0717795078372459
 11
401.2500224305549
 21
-946.8183192354875
 31
0.0718095558495788
  0
LINE
  5
42E
330
661
100
AcDbEntity
  8
0
 62
    13
420
 13395558
100
AcDbLine
 10
401.2500224305549
 20
-946.8183192354875
 30
0.0718095558495788
 11
400.6470700529379
 21
-947.0680703121296
 31
0.071828444112483
  0
LINE
  5
42F
330
661
100
AcDbEntity
  8
0
 62
    13
420
 13395558
100
AcDbLine
 10
400.6470700529379
 20
-947.0680703121296
 30
0.071828444112483
 11
400.000022443465
 21
-947.1532557703732
 31
0.0718348854220568
  0
LINE
  5
430
330
661
100
AcDbEntity
  8
0
 62
    13
420
 13395558
100
AcDbLine
 10
400.000022443465
 20
-947.1532557703732
 30
0.0718348854220568
 11
399.3529748274251
 21
-947.0680703620112
 31
0.0718284408136969
  0
LINE
  5
431
330
661
100
AcDbEntity
  8
0
 62
    13
420
 13395558
100
AcDbLine
 10
399.3529748274251
 20
-947.0680703620112
 30
0.0718284408136969
 11
398.7500224305547
 21
-946.8183193318499
 31
0.0718095494768131
  0
LINE
  5
432
330
661
100
AcDbEntity
  8
0
 62
    13
420
 13395558
100
AcDbLine
 10
398.7500224305547
 20
-946.8183193318499
 30
0.0718095494768131
 11
398.2322554622745
 21
-946.4210227998574
 31
0.0717794988247946
  0
LINE
  5
433
330
661
100
AcDbEntity
  8
0
 62
    13
420
 13395558
100
AcDbLine
 10
398.2322554622745
 20
-946.4210227998574
 30
0.0717794988247946
 11
397.8349588858225
 21
-945.9032558681288
 31
0.0717403367599151
  0
LINE
  5
434
330
661
100
AcDbEntity
  8
0
 62
    13
420
 13395558
100
AcDbLine
 10
397.8349588858225
 20
-945.9032558681288
 30
0.0717403367599151
 11
397.5852078063203
 21
-945.3003034974106
 31
0.0716947321121782
  0
LINE
  5
435
330
661
100
AcDbEntity
  8
0
 62
     0
100
AcDbLine
 10
397.5852078063203
 20
-945.3003034974106
 30
0.0716947321121782
 11
2.500022335782999
 21
-944.6532557989775
 31
0.071700259652853
  0
LINE
  5
436
330
661
100
AcDbEntity
  8
0
 62
     0
100
AcDbLine
 10
2.500022335782999
 20
-944.6532557989775
 30
0.071700259652853
 11
2.414836899679455
 21
-945.3003034009909
 31
0.0717999417367039
  0
LINE
  5
437
330
661
100
AcDbEntity
  8
0
 62
     0
100
AcDbLine
 10
2.414836899679455
 20
-945.3003034009909
 30
0.0717999417367039
 11
2.165085842487525
 21
-945.9032557782235
 31
0.0718891192570308
  0
LINE
  5
438
330
661
100
AcDbEntity
  8
0
 62
     0
100
AcDbLine
 10
2.165085842487525
 20
-945.9032557782235
 30
0.0718891192570308
 11
1.767789286021704
 21
-946.4210227225933
 31
0.0719617149131965
  0
LINE
  5
439
330
661
100
AcDbEntity
  8
0
 62
     0
100
AcDbLine
 10
1.767789286021704
 20
-946.4210227225933
 30
0.0719617149131965
 11
1.25002233404153
 21
-946.8183192724916
 31
0.0720127814312031
  0
LINE
  5
43A
330
661
100
AcDbEntity
  8
0
 62
     0
100
AcDbLine
 10
1.25002233404153
 20
-946.8183192724916
 30
0.0720127814312031
 11
0.6470699486741088
 21
-947.0680703246064
 31
0.07203883871224
  0
LINE
  5
43B
330
661
100
AcDbEntity
  8
0
 62
     0
100
AcDbLine
 10
0.6470699486741088
 20
-947.0680703246064
 30
0.07203883871224
 11
0.0000223385563028
 21
-947.1532557574695
 31
0.0720381109956661
  0
LINE
  5
43C
330
661
100
AcDbEntity
  8
0
 62
     0
100
AcDbLine
 10
0.0000223385563028
 20
-947.1532557574695
 30
0.0720381109956661
 11
-0.6470252709790937
 21
-947.0680703246064
 31
0.0720106478741634
  0
LINE
  5
43D
330
661
100
AcDbEntity
  8
0
 62
     0
100
AcDbLine
 10
-0.6470252709790937
 20
-947.0680703246064
 30
0.0720106478741634
 11
-1.249977654638975
 21
-946.8183192724916
 31
0.0719583209140774
  0
LINE
  5
43E
330
661
100
AcDbEntity
  8
0
 62
     0
100
AcDbLine
 10
-1.249977654638975
 20
-946.8183192724916
 30
0.0719583209140774
 11
-1.767744603902847
 21
-946.4210227225933
 31
0.0718846961112634
  0
LINE
  5
43F
330
661
100
AcDbEntity
  8
0
 62
     0
100
AcDbLine
 10
-1.767744603902847
 20
-946.4210227225933
 30
0.0718846961112634
 11
-2.165041156828717
 21
-945.9032557782235
 31
0.0717947908743626
  0
LINE
  5
440
330
661
100
AcDbEntity
  8
0
 62
     0
100
AcDbLine
 10
-2.165041156828717
 20
-945.9032557782235
 30
0.0717947908743626
 11
-2.414792209898283
 21
-945.3003034009909
 31
0.0716947320966942
  0
LINE
  5
441
330
661
100
AcDbEntity
  8
0
 62
     0
100
AcDbLine
 10
-2.414792209898283
 20
-945.3003034009909
 30
0.0716947320966942
 11
-2.499977641577985
 21
-944.6532557989775
 31
0.0715913386186015
  0
LINE
  5
442
330
661
100
AcDbEntity
  8
0
 62
     0
100
AcDbLine
 10
-2.499977641577985
 20
-944.6532557989775
 30
0.0715913386186015
 11
-2.499993303547389
 21
-129.983441799172
 31
0.0102168910585103
  0
LINE
  5
443
330
661
100
AcDbEntity
  8
0
 62
     0
100
AcDbLine
 10
-2.499993303547389
 20
-129.983441799172
 30
0.0102168910585103
 11
-2.414807868403319
 21
-129.3363941915663
 31
0.0101400243471354
  0
LINE
  5
444
330
661
100
AcDbEntity
  8
0
 62
     0
100
AcDbLine
 10
-2.414807868403319
 20
-129.3363941915663
 30
0.0101400243471354
 11
-2.165056811468154
 21
-128.7334418091222
 31
0.0100704385139323
  0
LINE
  5
445
330
661
100
AcDbEntity
  8
0
 62
     0
100
AcDbLine
 10
-2.165056811468154
 20
-128.7334418091222
 30
0.0100704385139323
 11
-397.4999815299372
 21
-537.3176846425625
 31
0.0410259075158496
  0
LINE
  5
446
330
661
100
AcDbEntity
  8
0
 62
    13
420
 13395558
100
AcDbLine
 10
-397.4999815299372
 20
-537.3176846425625
 30
0.0410259075158496
 11
-397.5851669517443
 21
-537.9647322532584
 31
0.0410748471353079
  0
LINE
  5
447
330
661
100
AcDbEntity
  8
0
 62
    13
420
 13395558
100
AcDbLine
 10
-397.5851669517443
 20
-537.9647322532584
 30
0.0410748471353079
 11
-397.8349179963856
 21
-538.5676846418661
 31
0.041120451431441
  0
LINE
  5
448
330
661
100
AcDbEntity
  8
0
 62
    13
420
 13395558
100
AcDbLine
 10
-397.8349179963856
 20
-538.5676846418661
 30
0.041120451431441
 11
-398.2322145429017
 21
-539.0854515995273
 31
0.041159612546832
  0
LINE
  5
449
330
661
100
AcDbEntity
  8
0
 62
    13
420
 13395558
100
AcDbLine
 10
-398.2322145429017
 20
-539.0854515995273
 30
0.041159612546832
 11
-398.749981488211
 21
-539.4827481637303
 31
0.0411896617161842
  0
LINE
  5
44A
330
661
100
AcDbEntity
  8
0
 62
    13
420
 13395558
100
AcDbLine
 10
-398.749981488211
 20
-539.4827481637303
 30
0.0411896617161842
 11
-399.3529338706415
 21
-539.7324992301808
 31
0.0412085511382643
  0
LINE
  5
44B
330
661
100
AcDbEntity
  8
0
 62
    13
420
 13395558
100
AcDbLine
 10
-399.3529338706415
 20
-539.7324992301808
 30
0.0412085511382643
 11
-399.999981481756
 21
-539.8176846764412
 31
0.041214993530174
  0
LINE
  5
44C
330
661
100
AcDbEntity
  8
0
 62
    13
420
 13395558
100
AcDbLine
 10
-399.999981481756
 20
-539.8176846764412
 30
0.041214993530174
 11
-400.6470290961541
 21
-539.7324992551213
 31
0.0412085498535513
  0
LINE
  5
44D
330
661
100
AcDbEntity
  8
0
 62
    13
420
 13395558
100
AcDbLine
 10
-400.6470290961541
 20
-539.7324992551213
 30
0.0412085498535513
 11
-401.2499814882111
 21
-539.4827482119107
 31
0.0411896592343094
  0
LINE
  5
44E
330
661
100
AcDbEntity
  8
0
 62
    13
420
 13395558
100
AcDbLine
 10
-401.2499814882111
 20
-539.4827482119107
 30
0.0411896592343094
 11
-401.7677484488343
 21
-539.0854516676667
 31
0.0411596090369312
  0
LINE
  5
44F
330
661
100
AcDbEntity
  8
0
 62
    13
420
 13395558
100
AcDbLine
 10
-401.7677484488343
 20
-539.0854516676667
 30
0.0411596090369312
 11
-402.1650450153078
 21
-538.5676847253193
 31
0.0411204471327077
  0
LINE
  5
450
330
661
100
AcDbEntity
  8
0
 62
    13
420
 13395558
100
AcDbLine
 10
-402.1650450153078
 20
-538.5676847253193
 30
0.0411204471327077
 11
-402.4147960831896
 21
-537.9647323463382
 31
0.041074842340694
  0
LINE
  5
451
330
661
100
AcDbEntity
  8
0
 62
    13
420
 13395558
100
AcDbLine
 10
-402.4147960831896
 20
-537.9647323463382
 30
0.041074842340694
 11
-402.4999815299371
 21
-537.3176847389252
 31
0.0410259025521001
  0
LINE
  5
452
330
661
100
AcDbEntity
  8
0
 62
     0
100
AcDbLine
 10
-402.4999815299371
 20
-537.3176847389252
 30
0.0410259025521001
 11
-402.4999776204687
 21
-944.6532552021632
 31
0.0715685498062884
  0
LINE
  5
453
330
661
100
AcDbEntity
  8
0
 62
     0
100
AcDbLine
 10
-402.4999776204687
 20
-944.6532552021632
 30
0.0715685498062884
 11
-402.4147921843458
 21
-944.0062075949294
 31
0.0715022508420637
  0
LINE
  5
454
330
661
100
AcDbEntity
  8
0
 62
     0
100
AcDbLine
 10
-402.4147921843458
 20
-944.0062075949294
 30
0.0715022508420637
 11
-402.1650411269331
 21
-943.4032552128319
 31
0.0714457342457851
  0
LINE
  5
455
330
661
100
AcDbEntity
  8
0
 62
     0
100
AcDbLine
 10
-402.1650411269331
 20
-943.4032552128319
 30
0.0714457342457851
 11
-401.7677445700601
 21
-942.8854882642846
 31
0.0714028515300908
  0
LINE
  5
456
330
661
100
AcDbEntity
  8
0
 62
     0
100
AcDbLine
 10
-401.7677445700601
 20
-942.8854882642846
 30
0.0714028515300908
 11
-401.2499776175142
 21
-942.4881917111807
 31
0.0713765250811883
  0
LINE
  5
457
330
661
100
AcDbEntity
  8
0
 62
     0
100
AcDbLine
 10
-401.2499776175142
 20
-942.4881917111807
 30
0.0713765250811883
 11
-400.6470252314609
 21
-942.2384406570508
 31
0.0713685490030639
  0
LINE
  5
458
330
661
100
AcDbEntity
  8
0
 62
     0
100
AcDbLine
 10
-400.6470252314609
 20
-942.2384406570508
 30
0.0713685490030639
 11
-399.9999776205839
 21
-942.1532552235004
 31
0.0713794668522607
  0
LINE
  5
459
330
661
100
AcDbEntity
  8
0
 62
     0
100
AcDbLine
 10
-399.9999776205839
 20
-942.1532552235004
 30
0.0713794668522607
 11
-399.3529300102677
 21
-942.2384406570508
 31
0.0714085345953984
  0
LINE
  5
45A
330
661
100
AcDbEntity
  8
0
 62
     0
100
AcDbLine
 10
-399.3529300102677
 20
-942.2384406570508
 30
0.0714085345953984
 11
-398.7499776258586
 21
-942.4881917111807
 31
0.071453771313819
  0
LINE
  5
45B
330
661
100
AcDbEntity
  8
0
 62
     0
100
AcDbLine
 10
-398.7499776258586
 20
-942.4881917111807
 30
0.071453771313819
 11
-398.2322106759282
 21
-942.8854882642846
 31
0.0715120941999193
  0
LINE
  5
45C
330
661
100
AcDbEntity
  8
0
 62
     0
100
AcDbLine
 10
-398.2322106759282
 20
-942.8854882642846
 30
0.0715120941999193
 11
-397.8349141224638
 21
-943.4032552128319
 31
0.0715795286453947
  0
LINE
  5
45D
330
661
100
AcDbEntity
  8
0
 62
     0
100
AcDbLine
 10
-397.8349141224638
 20
-943.4032552128319
 30
0.0715795286453947
 11
-397.5851630690206
 21
-944.0062075949294
 31
0.0716514791042267
  0
LINE
  5
45E
330
661
100
AcDbEntity
  8
0
 62
     0
100
AcDbLine
 10
-397.5851630690206
 20
-944.0062075949294
 30
0.0716514791042267
 11
-397.4999776371575
 21
-944.6532552021632
 31
0.0717230422715498
  0
LINE
  5
45F
330
661
100
AcDbEntity
  8
0
 62
     0
100
AcDbLine
 10
-397.4999776371575
 20
-944.6532552021632
 30
0.0717230422715498
 11
-397.5851630732803
 21
-945.3003028093971
 31
0.0717893412357745
  0
LINE
  5
460
330
661
100
AcDbEntity
  8
0
 62
     0
100
AcDbLine
 10
-397.5851630732803
 20
-945.3003028093971
 30
0.0717893412357745
 11
-397.8349141306931
 21
-945.9032551914945
 31
0.0718458578320531
  0
LINE
  5
461
330
661
100
AcDbEntity
  8
0
 62
     0
100
AcDbLine
 10
-397.8349141306931
 20
-945.9032551914945
 30
0.0718458578320531
 11
-398.232210687566
 21
-946.4210221400418
 31
0.0718887405477474
  0
LINE
  5
462
330
661
100
AcDbEntity
  8
0
 62
     0
100
AcDbLine
 10
-398.232210687566
 20
-946.4210221400418
 30
0.0718887405477474
 11
-398.7499776401119
 21
-946.8183186931457
 31
0.0719150669966499
  0
LINE
  5
463
330
661
100
AcDbEntity
  8
0
 62
     0
100
AcDbLine
 10
-398.7499776401119
 20
-946.8183186931457
 30
0.0719150669966499
 11
-399.3529300261652
 21
-947.0680697472757
 31
0.0719230430747743
  0
LINE
  5
464
330
661
100
AcDbEntity
  8
0
 62
     0
100
AcDbLine
 10
-399.3529300261652
 20
-947.0680697472757
 30
0.0719230430747743
 11
-399.9999776370422
 21
-947.153255180826
 31
0.0719121252255775
  0
LINE
  5
465
330
661
100
AcDbEntity
  8
0
 62
     0
100
AcDbLine
 10
-399.9999776370422
 20
-947.153255180826
 30
0.0719121252255775
 11
-400.6470252473584
 21
-947.0680697472757
 31
0.0718830574824398
  0
LINE
  5
466
330
661
100
AcDbEntity
  8
0
 62
     0
100
AcDbLine
 10
-400.6470252473584
 20
-947.0680697472757
 30
0.0718830574824398
 11
-401.2499776317675
 21
-946.8183186931457
 31
0.0718378207640192
  0
LINE
  5
467
330
661
100
AcDbEntity
  8
0
 62
     0
100
AcDbLine
 10
-401.2499776317675
 20
-946.8183186931457
 30
0.0718378207640192
 11
-401.7677445816979
 21
-946.4210221400418
 31
0.0717794978779189
  0
LINE
  5
468
330
661
100
AcDbEntity
  8
0
 62
     0
100
AcDbLine
 10
-401.7677445816979
 20
-946.4210221400418
 30
0.0717794978779189
 11
-402.1650411351623
 21
-945.9032551914945
 31
0.0717120634324435
  0
LINE
  5
469
330
661
100
AcDbEntity
  8
0
 62
     0
100
AcDbLine
 10
-402.1650411351623
 20
-945.9032551914945
 30
0.0717120634324435
 11
-402.4147921886055
 21
-945.3003028093971
 31
0.0716401129736114
  0
LINE
  5
46A
330
661
100
AcDbEntity
  8
0
 62
     0
100
AcDbLine
 10
-402.4147921886055
 20
-945.3003028093971
 30
0.0716401129736114
 11
-599.9999764977238
 21
-1057.040562609316
 31
0.0799495353068604
  0
LINE
  5
46B
330
661
100
AcDbEntity
  8
0
 62
    13
420
 13395558
100
AcDbLine
 10
-599.9999764977238
 20
-1057.040562609316
 30
0.0799495353068604
 11
599.999979963433
 21
-1057.040561317429
 31
0.0799505130998276
  0
LINE
  5
46C
330
661
100
AcDbEntity
  8
0
 62
    13
420
 13395558
100
AcDbLine
 10
599.999996869523
 20
1057.04056216321
 30
-0.0799505130998276
 11
599.999979963433
 21
-1057.040561317429
 31
0.0799505130998276
  0
LINE
  5
46D
330
661
100
AcDbEntity
  8
0
 62
     0
100
AcDbLine
 10
599.999996869523
 20
1057.04056216321
 30
-0.0799505130998276
 11
397.5851921315966
 21
-129.3363941915663
 31
0.0101400243471352
  0
LINE
  5
46E
330
661
100
AcDbEntity
  8
0
 62
     0
100
AcDbLine
 10
397.5851921315966
 20
-129.3363941915663
 30
0.0101400243471352
 11
397.8349431885318
 21
-128.7334418091222
 31
0.0100704385139322
  0
LINE
  5
46F
330
661
100
AcDbEntity
  8
0
 62
     0
100
AcDbLine
 10
397.8349431885318
 20
-128.7334418091222
 30
0.0100704385139322
 11
398.232239745461
 21
-128.2156748602774
 31
0.0100128757184378
  0
LINE
  5
470
330
661
100
AcDbEntity
  8
0
 62
     0
100
AcDbLine
 10
398.232239745461
 20
-128.2156748602774
 30
0.0100128757184378
 11
398.7500066985932
 21
-127.8183783069452
 31
0.009971258770038
  0
LINE
  5
471
330
661
100
AcDbEntity
  8
0
 62
     0
100
AcDbLine
 10
398.7500066985932
 20
-127.8183783069452
 30
0.009971258770038
 11
399.3529590857228
 21
-127.5686272526717
 31
0.0099484237949911
  0
LINE
  5
472
330
661
100
AcDbEntity
  8
0
 62
     0
100
AcDbLine
 10
399.3529590857228
 20
-127.5686272526717
 30
0.0099484237949911
 11
400.0000066980928
 21
-127.4834418190725
 31
0.0099459269591097
  0
LINE
  5
473
330
661
100
AcDbEntity
  8
0
 62
     0
100
AcDbLine
 10
400.0000066980928
 20
-127.4834418190725
 30
0.0099459269591097
 11
400.6470543102169
 21
-127.5686272526717
 31
0.0099639384176332
  0
LINE
  5
474
330
661
100
AcDbEntity
  8
0
 62
     0
100
AcDbLine
 10
400.6470543102169
 20
-127.5686272526717
 30
0.0099639384176332
 11
401.2500066966256
 21
-127.8183783069452
 31
0.0100012307194284
  0
LINE
  5
475
330
661
100
AcDbEntity
  8
0
 62
     0
100
AcDbLine
 10
401.2500066966256
 20
-127.8183783069452
 30
0.0100012307194284
 11
401.7677736486111
 21
-128.2156748602774
 31
0.0100552624557564
  0
LINE
  5
476
330
661
100
AcDbEntity
  8
0
 62
     0
100
AcDbLine
 10
401.7677736486111
 20
-128.2156748602774
 30
0.0100552624557564
 11
402.1650702040459
 21
-128.7334418091222
 31
0.0101223514530781
  0
LINE
  5
477
330
661
100
AcDbEntity
  8
0
 62
     0
100
AcDbLine
 10
402.1650702040459
 20
-128.7334418091222
 30
0.0101223514530781
 11
402.4148212592408
 21
-129.3363941915663
 31
0.0101979257070959
  0
LINE
  5
478
330
661
100
AcDbEntity
  8
0
 62
     0
100
AcDbLine
 10
402.4148212592408
 20
-129.3363941915663
 30
0.0101979257070959
 11
402.5000066925173
 21
-129.983441799172
 31
0.0102768349572909
  0
LINE
  5
479
330
661
100
AcDbEntity
  8
0
 62
     0
100
AcDbLine
 10
402.5000066925173
 20
-129.983441799172
 30
0.0102768349572909
 11
402.4148212573733
 21
-130.6304894067777
 31
0.0103537016686659
  0
LINE
  5
47A
330
661
100
AcDbEntity
  8
0
 62
     0
100
AcDbLine
 10
402.4148212573733
 20
-130.6304894067777
 30
0.0103537016686659
 11
402.1650702004381
 21
-131.2334417892218
 31
0.0104232875018689
  0
LINE
  5
47B
330
661
100
AcDbEntity
  8
0
 62
     0
100
AcDbLine
 10
402.1650702004381
 20
-131.2334417892218
 30
0.0104232875018689
 11
401.7677736435089
 21
-131.7512087380667
 31
0.0104808502973633
  0
LINE
  5
47C
330
661
100
AcDbEntity
  8
0
 62
     0
100
AcDbLine
 10
401.7677736435089
 20
-131.7512087380667
 30
0.0104808502973633
 11
401.2500066903766
 21
-132.1485052913988
 31
0.0105224672457631
  0
LINE
  5
47D
330
661
100
AcDbEntity
  8
0
 62
     0
100
AcDbLine
 10
401.2500066903766
 20
-132.1485052913988
 30
0.0105224672457631
 11
400.647054303247
 21
-132.3982563456723
 31
0.0105453022208101
  0
LINE
  5
47E
330
661
100
AcDbEntity
  8
0
 62
     0
100
AcDbLine
 10
400.647054303247
 20
-132.3982563456723
 30
0.0105453022208101
 11
400.0000066908771
 21
-132.4834417792716
 31
0.0105477990566914
  0
LINE
  5
47F
330
661
100
AcDbEntity
  8
0
 62
     0
100
AcDbLine
 10
400.0000066908771
 20
-132.4834417792716
 30
0.0105477990566914
 11
399.352959078753
 21
-132.3982563456723
 31
0.0105297875981679
  0
LINE
  5
480
330
661
100
AcDbEntity
  8
0
 62
     0
100
AcDbLine
 10
399.352959078753
 20
-132.3982563456723
 30
0.0105297875981679
 11
398.7500066923442
 21
-132.1485052913988
 31
0.0104924952963728
  0
LINE
  5
481
330
661
100
AcDbEntity
  8
0
 62
     0
100
AcDbLine
 10
398.7500066923442
 20
-132.1485052913988
 30
0.0104924952963728
 11
398.2322397403587
 21
-131.7512087380667
 31
0.0104384635600448
  0
LINE
  5
482
330
661
100
AcDbEntity
  8
0
 62
     0
100
AcDbLine
 10
398.2322397403587
 20
-131.7512087380667
 30
0.0104384635600448
 11
397.8349431849239
 21
-131.2334417892218
 31
0.010371374562723
  0
LINE
  5
483
330
661
100
AcDbEntity
  8
0
 62
     0
100
AcDbLine
 10
397.8349431849239
 20
-131.2334417892218
 30
0.010371374562723
 11
397.585192129729
 21
-130.6304894067777
 31
0.0102958003087052
  0
LINE
  5
484
330
661
100
AcDbEntity
  8
0
 62
     0
100
AcDbLine
 10
397.585192129729
 20
-130.6304894067777
 30
0.0102958003087052
 11
397.5000066964525
 21
-129.983441799172
 31
0.0102168910585102
  0
LINE
  5
485
330
661
100
AcDbEntity
  8
0
 62
     0
100
AcDbLine
 10
397.5000066964525
 20
-129.983441799172
 30
0.0102168910585102
 11
397.5000145207925
 21
-537.3176865106396
 31
0.041026083734094
  0
LINE
  5
486
330
661
100
AcDbEntity
  8
0
 62
     0
100
AcDbLine
 10
397.5851999737753
 20
-537.9647341153808
 30
0.0410750233029993
 11
397.5000223471025
 21
-944.6532558953407
 31
0.0716457927629618
  0
LINE
  5
487
330
661
100
AcDbEntity
  8
0
 62
    13
420
 13395558
100
AcDbLine
 10
397.5851999737753
 20
-537.9647341153808
 30
0.0410750233029993
 11
397.5000145207925
 21
-537.3176865106396
 31
0.041026083734094
  0
LINE
  5
488
330
661
100
AcDbEntity
  8
0
 62
     0
100
AcDbLine
 10
397.5000145207925
 20
-537.3176865106396
 30
0.041026083734094
 11
397.5000223471025
 21
-944.6532558953407
 31
0.0716457927629618
  0
LINE
  5
489
330
661
100
AcDbEntity
  8
0
 62
     0
100
AcDbLine
 10
-402.4147921886055
 20
-945.3003028093971
 30
0.0716401129736114
 11
-599.9999764977238
 21
-1057.040562609316
 31
0.0799495353068604
  0
LINE
  5
48A
330
661
100
AcDbEntity
  8
0
 62
     0
100
AcDbLine
 10
-402.4147921886055
 20
-945.3003028093971
 30
0.0716401129736114
 11
-402.4999776204687
 21
-944.6532552021632
 31
0.0715685498062884
  0
LINE
  5
48B
330
661
100
AcDbEntity
  8
0
 62
     0
100
AcDbLine
 10
-402.4999776204687
 20
-944.6532552021632
 30
0.0715685498062884
 11
-402.4999854310718
 21
-129.9834389127615
 31
0.0102464993130731
  0
LINE
  5
48C
330
661
100
AcDbEntity
  8
0
 62
    13
420
 13395558
100
AcDbLine
 10
-402.4999854310718
 20
-129.9834389127615
 30
0.0102464993130731
 11
-402.4148000030296
 21
-129.3363913010351
 31
0.010197559341347
  0
LINE
  5
48D
330
661
100
AcDbEntity
  8
0
 62
    13
420
 13395558
100
AcDbLine
 10
-402.4148000030296
 20
-129.3363913010351
 30
0.010197559341347
 11
-402.1650489525783
 21
-128.7334389131085
 31
0.0101519545843737
  0
LINE
  5
48E
330
661
100
AcDbEntity
  8
0
 62
    13
420
 13395558
100
AcDbLine
 10
-402.1650489525783
 20
-128.7334389131085
 30
0.0101519545843737
 11
-401.7677524010727
 21
-128.2156719577958
 31
0.0101127929309756
  0
LINE
  5
48F
330
661
100
AcDbEntity
  8
0
 62
    13
420
 13395558
100
AcDbLine
 10
-401.7677524010727
 20
-128.2156719577958
 30
0.0101127929309756
 11
-401.2499854519347
 21
-127.8183753974491
 31
0.010082743183114
  0
LINE
  5
490
330
661
100
AcDbEntity
  8
0
 62
    13
420
 13395558
100
AcDbLine
 10
-401.2499854519347
 20
-127.8183753974491
 30
0.010082743183114
 11
-400.6470330670979
 21
-127.5686243360907
 31
0.0100638531814459
  0
LINE
  5
491
330
661
100
AcDbEntity
  8
0
 62
    13
420
 13395558
100
AcDbLine
 10
-400.6470330670979
 20
-127.5686243360907
 30
0.0100638531814459
 11
-399.9999854551625
 21
-127.4834388958212
 31
0.0100574102483681
  0
LINE
  5
492
330
661
100
AcDbEntity
  8
0
 62
    13
420
 13395558
100
AcDbLine
 10
-399.9999854551625
 20
-127.4834388958212
 30
0.0100574102483681
 11
-399.3529378415853
 21
-127.5686243236204
 31
0.0100638534591222
  0
LINE
  5
493
330
661
100
AcDbEntity
  8
0
 62
    13
420
 13395558
100
AcDbLine
 10
-399.3529378415853
 20
-127.5686243236204
 30
0.0100638534591222
 11
-398.7499854519348
 21
-127.8183753733587
 31
0.0100827437195432
  0
LINE
  5
494
330
661
100
AcDbEntity
  8
0
 62
    13
420
 13395558
100
AcDbLine
 10
-398.7499854519348
 20
-127.8183753733587
 30
0.0100827437195432
 11
-398.23221849514
 21
-128.2156719237265
 31
0.0101127936896014
  0
LINE
  5
495
330
661
100
AcDbEntity
  8
0
 62
    13
420
 13395558
100
AcDbLine
 10
-398.23221849514
 20
-128.2156719237265
 30
0.0101127936896014
 11
-397.8349219336561
 21
-128.7334388713835
 31
0.0101519555134966
  0
LINE
  5
496
330
661
100
AcDbEntity
  8
0
 62
    13
420
 13395558
100
AcDbLine
 10
-397.8349219336561
 20
-128.7334388713835
 30
0.0101519555134966
 11
-397.5851708715842
 21
-129.3363912544947
 31
0.010197560377649
  0
LINE
  5
497
330
661
100
AcDbEntity
  8
0
 62
    13
420
 13395558
100
AcDbLine
 10
-397.5851708715842
 20
-129.3363912544947
 30
0.010197560377649
 11
-397.4999854310718
 21
-129.9834388645803
 31
0.0102465003859317
  0
LINE
  5
498
330
661
100
AcDbEntity
  8
0
 62
    13
420
 13395558
100
AcDbLine
 10
-397.4999854310718
 20
-129.9834388645803
 30
0.0102465003859317
 11
-397.585170859114
 21
-130.6304864763058
 31
0.0102954403576577
  0
LINE
  5
499
330
661
100
AcDbEntity
  8
0
 62
    13
420
 13395558
100
AcDbLine
 10
-397.585170859114
 20
-130.6304864763058
 30
0.0102954403576577
 11
-397.8349219095655
 21
-131.2334388642315
 31
0.0103410451146308
  0
LINE
  5
49A
330
661
100
AcDbEntity
  8
0
 62
    13
420
 13395558
100
AcDbLine
 10
-397.8349219095655
 20
-131.2334388642315
 30
0.0103410451146308
 11
-398.2322184610708
 21
-131.7512058195454
 31
0.0103802067680289
  0
LINE
  5
49B
330
661
100
AcDbEntity
  8
0
 62
    13
420
 13395558
100
AcDbLine
 10
-398.2322184610708
 20
-131.7512058195454
 30
0.0103802067680289
 11
-398.7499854102087
 21
-132.1485023798959
 31
0.0104102565158907
  0
LINE
  5
49C
330
661
100
AcDbEntity
  8
0
 62
    13
420
 13395558
100
AcDbLine
 10
-398.7499854102087
 20
-132.1485023798959
 30
0.0104102565158907
 11
-399.3529377950459
 21
-132.3982534412501
 31
0.0104291465175585
  0
LINE
  5
49D
330
661
100
AcDbEntity
  8
0
 62
    13
420
 13395558
100
AcDbLine
 10
-399.3529377950459
 20
-132.3982534412501
 30
0.0104291465175585
 11
-399.9999854069812
 21
-132.4834388815192
 31
0.0104355894506365
  0
LINE
  5
49E
330
661
100
AcDbEntity
  8
0
 62
    13
420
 13395558
100
AcDbLine
 10
-399.9999854069812
 20
-132.4834388815192
 30
0.0104355894506365
 11
-400.6470330205585
 21
-132.3982534537204
 31
0.0104291462398824
  0
LINE
  5
49F
330
661
100
AcDbEntity
  8
0
 62
    13
420
 13395558
100
AcDbLine
 10
-400.6470330205585
 20
-132.3982534537204
 30
0.0104291462398824
 11
-401.2499854102088
 21
-132.1485024039856
 31
0.0104102559794614
  0
LINE
  5
4A0
330
661
100
AcDbEntity
  8
0
 62
    13
420
 13395558
100
AcDbLine
 10
-401.2499854102088
 20
-132.1485024039856
 30
0.0104102559794614
 11
-401.7677523670036
 21
-131.7512058536155
 31
0.0103802060094033
  0
LINE
  5
4A1
330
661
100
AcDbEntity
  8
0
 62
    13
420
 13395558
100
AcDbLine
 10
-401.7677523670036
 20
-131.7512058536155
 30
0.0103802060094033
 11
-402.1650489284877
 21
-131.2334389059585
 31
0.0103410441855079
  0
LINE
  5
4A2
330
661
100
AcDbEntity
  8
0
 62
    13
420
 13395558
100
AcDbLine
 10
-402.1650489284877
 20
-131.2334389059585
 30
0.0103410441855079
 11
-402.4147999905594
 21
-130.6304865228462
 31
0.0102954393213557
  0
LINE
  5
4A3
330
661
100
AcDbEntity
  8
0
 62
     0
100
AcDbLine
 10
-402.4147999905594
 20
-130.6304865228462
 30
0.0102954393213557
 11
-402.4999815299371
 21
-537.3176847389252
 31
0.0410259025521001
  0
LINE
  5
4A4
330
661
100
AcDbEntity
  8
0
 62
    13
420
 13395558
100
AcDbLine
 10
-402.4999815299371
 20
-537.3176847389252
 30
0.0410259025521001
 11
-402.41479610813
 21
-536.6706371282289
 31
0.0409769629326418
  0
LINE
  5
4A5
330
661
100
AcDbEntity
  8
0
 62
    13
420
 13395558
100
AcDbLine
 10
-402.41479610813
 20
-536.6706371282289
 30
0.0409769629326418
 11
-402.1650450634889
 21
-536.0676847396205
 31
0.0409313586365085
  0
LINE
  5
4A6
330
661
100
AcDbEntity
  8
0
 62
    13
420
 13395558
100
AcDbLine
 10
-402.1650450634889
 20
-536.0676847396205
 30
0.0409313586365085
 11
-401.7677485169728
 21
-535.5499177819601
 31
0.0408921975211175
  0
LINE
  5
4A7
330
661
100
AcDbEntity
  8
0
 62
    13
420
 13395558
100
AcDbLine
 10
-401.7677485169728
 20
-535.5499177819601
 30
0.0408921975211175
 11
-401.2499815716633
 21
-535.15262121776
 31
0.0408621483517654
  0
LINE
  5
4A8
330
661
100
AcDbEntity
  8
0
 62
    13
420
 13395558
100
AcDbLine
 10
-401.2499815716633
 20
-535.15262121776
 30
0.0408621483517654
 11
-400.647029189233
 21
-534.9028701513062
 31
0.0408432589296853
  0
LINE
  5
4A9
330
661
100
AcDbEntity
  8
0
 62
    13
420
 13395558
100
AcDbLine
 10
-400.647029189233
 20
-534.9028701513062
 30
0.0408432589296853
 11
-399.9999815781184
 21
-534.8176847050449
 31
0.0408368165377754
  0
LINE
  5
4AA
330
661
100
AcDbEntity
  8
0
 62
    13
420
 13395558
100
AcDbLine
 10
-399.9999815781184
 20
-534.8176847050449
 30
0.0408368165377754
 11
-399.3529339637204
 21
-534.9028701263655
 31
0.0408432602143982
  0
LINE
  5
4AB
330
661
100
AcDbEntity
  8
0
 62
    13
420
 13395558
100
AcDbLine
 10
-399.3529339637204
 20
-534.9028701263655
 30
0.0408432602143982
 11
-398.7499815716632
 21
-535.1526211695788
 31
0.0408621508336401
  0
LINE
  5
4AC
330
661
100
AcDbEntity
  8
0
 62
    13
420
 13395558
100
AcDbLine
 10
-398.7499815716632
 20
-535.1526211695788
 30
0.0408621508336401
 11
-398.23221461104
 21
-535.5499177138212
 31
0.0408922010310184
  0
LINE
  5
4AD
330
661
100
AcDbEntity
  8
0
 62
    13
420
 13395558
100
AcDbLine
 10
-398.23221461104
 20
-535.5499177138212
 30
0.0408922010310184
 11
-397.8349180445667
 21
-536.0676846561688
 31
0.0409313629352416
  0
LINE
  5
4AE
330
661
100
AcDbEntity
  8
0
 62
    13
420
 13395558
100
AcDbLine
 10
-397.8349180445667
 20
-536.0676846561688
 30
0.0409313629352416
 11
-397.5851669766847
 21
-536.6706370351488
 31
0.0409769677272556
  0
LINE
  5
4AF
330
661
100
AcDbEntity
  8
0
 62
    13
420
 13395558
100
AcDbLine
 10
-397.5851669766847
 20
-536.6706370351488
 30
0.0409769677272556
 11
-397.4999815299372
 21
-537.3176846425625
 31
0.0410259075158496
  0
LINE
  5
4B0
330
661
100
AcDbEntity
  8
0
 62
     0
100
AcDbLine
 10
-2.165056811468154
 20
-128.7334418091222
 30
0.0100704385139323
 11
-397.4999815299372
 21
-537.3176846425625
 31
0.0410259075158496
  0
LINE
  5
4B1
330
661
100
AcDbEntity
  8
0
 62
     0
100
AcDbLine
 10
-2.165056811468154
 20
-128.7334418091222
 30
0.0100704385139323
 11
-1.767760254538888
 21
-128.2156748602773
 31
0.0100128757184379
  0
LINE
  5
4B2
330
661
100
AcDbEntity
  8
0
 62
     0
100
AcDbLine
 10
-1.767760254538888
 20
-128.2156748602773
 30
0.0100128757184379
 11
-1.249993301406647
 21
-127.8183783069451
 31
0.0099712587700381
  0
LINE
  5
4B3
330
661
100
AcDbEntity
  8
0
 62
     0
100
AcDbLine
 10
-1.249993301406647
 20
-127.8183783069451
 30
0.0099712587700381
 11
-0.6470409142770488
 21
-127.5686272526716
 31
0.0099484237949912
  0
LINE
  5
4B4
330
661
100
AcDbEntity
  8
0
 62
     0
100
AcDbLine
 10
-0.6470409142770488
 20
-127.5686272526716
 30
0.0099484237949912
 11
0.000006698092959
 21
-127.4834418190724
 31
0.0099459269591098
  0
LINE
  5
4B5
330
661
100
AcDbEntity
  8
0
 62
     0
100
AcDbLine
 10
0.000006698092959
 20
-127.4834418190724
 30
0.0099459269591098
 11
0.6470543102170973
 21
-127.5686272526716
 31
0.0099639384176333
  0
LINE
  5
4B6
330
661
100
AcDbEntity
  8
0
 62
     0
100
AcDbLine
 10
0.6470543102170973
 20
-127.5686272526716
 30
0.0099639384176333
 11
1.250006696625844
 21
-127.8183783069451
 31
0.0100012307194285
  0
LINE
  5
4B7
330
661
100
AcDbEntity
  8
0
 62
     0
100
AcDbLine
 10
1.250006696625844
 20
-127.8183783069451
 30
0.0100012307194285
 11
1.767773648611373
 21
-128.2156748602773
 31
0.0100552624557565
  0
LINE
  5
4B8
330
661
100
AcDbEntity
  8
0
 62
     0
100
AcDbLine
 10
1.767773648611373
 20
-128.2156748602773
 30
0.0100552624557565
 11
2.165070204046216
 21
-128.7334418091222
 31
0.0101223514530782
  0
LINE
  5
4B9
330
661
100
AcDbEntity
  8
0
 62
     0
100
AcDbLine
 10
2.165070204046216
 20
-128.7334418091222
 30
0.0101223514530782
 11
2.41482125924109
 21
-129.3363941915663
 31
0.0101979257070961
  0
LINE
  5
4BA
330
661
100
AcDbEntity
  8
0
 62
     0
100
AcDbLine
 10
2.41482125924109
 20
-129.3363941915663
 30
0.0101979257070961
 11
2.500006692517598
 21
-129.983441799172
 31
0.010276834957291
  0
LINE
  5
4BB
330
661
100
AcDbEntity
  8
0
 62
     0
100
AcDbLine
 10
2.500006692517598
 20
-129.983441799172
 30
0.010276834957291
 11
2.414821257373529
 21
-130.6304894067777
 31
0.010353701668666
  0
LINE
  5
4BC
330
661
100
AcDbEntity
  8
0
 62
     0
100
AcDbLine
 10
2.414821257373529
 20
-130.6304894067777
 30
0.010353701668666
 11
2.165070200438366
 21
-131.2334417892218
 31
0.0104232875018691
  0
LINE
  5
4BD
330
661
100
AcDbEntity
  8
0
 62
     0
100
AcDbLine
 10
2.165070200438366
 20
-131.2334417892218
 30
0.0104232875018691
 11
1.767773643509103
 21
-131.7512087380667
 31
0.0104808502973634
  0
LINE
  5
4BE
330
661
100
AcDbEntity
  8
0
 62
     0
100
AcDbLine
 10
1.767773643509103
 20
-131.7512087380667
 30
0.0104808502973634
 11
1.250006690376861
 21
-132.1485052913989
 31
0.0105224672457632
  0
LINE
  5
4BF
330
661
100
AcDbEntity
  8
0
 62
     0
100
AcDbLine
 10
1.250006690376861
 20
-132.1485052913989
 30
0.0105224672457632
 11
0.6470543032472584
 21
-132.3982563456724
 31
0.0105453022208102
  0
LINE
  5
4C0
330
661
100
AcDbEntity
  8
0
 62
     0
100
AcDbLine
 10
0.6470543032472584
 20
-132.3982563456724
 30
0.0105453022208102
 11
0.0000066908772464
 21
-132.4834417792717
 31
0.0105477990566915
  0
LINE
  5
4C1
330
661
100
AcDbEntity
  8
0
 62
     0
100
AcDbLine
 10
0.0000066908772464
 20
-132.4834417792717
 30
0.0105477990566915
 11
-0.6470409212468962
 21
-132.3982563456724
 31
0.0105297875981681
  0
LINE
  5
4C2
330
661
100
AcDbEntity
  8
0
 62
     0
100
AcDbLine
 10
-0.6470409212468962
 20
-132.3982563456724
 30
0.0105297875981681
 11
-1.249993307655645
 21
-132.1485052913989
 31
0.0104924952963729
  0
LINE
  5
4C3
330
661
100
AcDbEntity
  8
0
 62
     0
100
AcDbLine
 10
-1.249993307655645
 20
-132.1485052913989
 30
0.0104924952963729
 11
-1.767760259641176
 21
-131.7512087380667
 31
0.0104384635600449
  0
LINE
  5
4C4
330
661
100
AcDbEntity
  8
0
 62
     0
100
AcDbLine
 10
-1.767760259641176
 20
-131.7512087380667
 30
0.0104384635600449
 11
-2.165056815076018
 21
-131.2334417892218
 31
0.0103713745627231
  0
LINE
  5
4C5
330
661
100
AcDbEntity
  8
0
 62
     0
100
AcDbLine
 10
-2.165056815076018
 20
-131.2334417892218
 30
0.0103713745627231
 11
-2.414807870270888
 21
-130.6304894067777
 31
0.0102958003087053
  0
LINE
  5
4C6
330
661
100
AcDbEntity
  8
0
 62
     0
100
AcDbLine
 10
-2.414807870270888
 20
-130.6304894067777
 30
0.0102958003087053
 11
-2.499993303547389
 21
-129.983441799172
 31
0.0102168910585103
  0
LINE
  5
4C7
330
661
100
AcDbEntity
  8
0
 62
     0
100
AcDbLine
 10
-2.499993303547389
 20
-129.983441799172
 30
0.0102168910585103
 11
-2.499985479207295
 21
-537.3176865106398
 31
0.041026083734094
  0
LINE
  5
4C8
330
661
100
AcDbEntity
  8
0
 62
    13
420
 13395558
100
AcDbLine
 10
-2.499985479207295
 20
-537.3176865106398
 30
0.041026083734094
 11
-2.414800063635229
 21
-536.6706389009734
 31
0.0409771444669034
  0
LINE
  5
4C9
330
661
100
AcDbEntity
  8
0
 62
    13
420
 13395558
100
AcDbLine
 10
-2.414800063635229
 20
-536.6706389009734
 30
0.0409771444669034
 11
-2.165049024804291
 21
-536.0676865116828
 31
0.0409315406316102
  0
LINE
  5
4CA
330
661
100
AcDbEntity
  8
0
 62
    13
420
 13395558
100
AcDbLine
 10
-2.165049024804291
 20
-536.0676865116828
 30
0.0409315406316102
 11
-1.767752483277376
 21
-535.549919551675
 31
0.0408923800542262
  0
LINE
  5
4CB
330
661
100
AcDbEntity
  8
0
 62
    13
420
 13395558
100
AcDbLine
 10
-1.767752483277376
 20
-535.549919551675
 30
0.0408923800542262
 11
-1.249985541796397
 21
-535.1526229836218
 31
0.0408623314633838
  0
LINE
  5
4CC
330
661
100
AcDbEntity
  8
0
 62
    13
420
 13395558
100
AcDbLine
 10
-1.249985541796397
 20
-535.1526229836218
 30
0.0408623314633838
 11
-0.6470331617728525
 21
-534.9028719120719
 31
0.0408434426208915
  0
LINE
  5
4CD
330
661
100
AcDbEntity
  8
0
 62
    13
420
 13395558
100
AcDbLine
 10
-0.6470331617728525
 20
-534.9028719120719
 30
0.0408434426208915
 11
0.0000144485210427
 21
-534.8176864598194
 31
0.0408370007701496
  0
LINE
  5
4CE
330
661
100
AcDbEntity
  8
0
 62
    13
420
 13395558
100
AcDbLine
 10
0.0000144485210427
 20
-534.8176864598194
 30
0.0408370007701496
 11
0.6470620637397274
 21
-534.902871874661
 31
0.0408434449126409
  0
LINE
  5
4CF
330
661
100
AcDbEntity
  8
0
 62
    13
420
 13395558
100
AcDbLine
 10
0.6470620637397274
 20
-534.902871874661
 30
0.0408434449126409
 11
1.250014458203576
 21
-535.1526229113497
 31
0.0408623358907039
  0
LINE
  5
4D0
330
661
100
AcDbEntity
  8
0
 62
    13
420
 13395558
100
AcDbLine
 10
1.250014458203576
 20
-535.1526229113497
 30
0.0408623358907039
 11
1.767781422655235
 21
-535.5499194494663
 31
0.0408923863154024
  0
LINE
  5
4D1
330
661
100
AcDbEntity
  8
0
 62
    13
420
 13395558
100
AcDbLine
 10
1.767781422655235
 20
-535.5499194494663
 30
0.0408923863154024
 11
2.165077994117921
 21
-536.0676863865043
 31
0.0409315482999536
  0
LINE
  5
4D2
330
661
100
AcDbEntity
  8
0
 62
    13
420
 13395558
100
AcDbLine
 10
2.165077994117921
 20
-536.0676863865043
 30
0.0409315482999536
 11
2.414829067810143
 21
-536.6706387613531
 31
0.0409771530198291
  0
LINE
  5
4D3
330
661
100
AcDbEntity
  8
0
 62
    13
420
 13395558
100
AcDbLine
 10
2.414829067810143
 20
-536.6706387613531
 30
0.0409771530198291
 11
2.500014520792741
 21
-537.317686366095
 31
0.0410260925887343
  0
LINE
  5
4D4
330
661
100
AcDbEntity
  8
0
 62
    13
420
 13395558
100
AcDbLine
 10
2.500014520792741
 20
-537.317686366095
 30
0.0410260925887343
 11
2.414829105220855
 21
-537.964733975761
 31
0.0410750318559249
  0
LINE
  5
4D5
330
661
100
AcDbEntity
  8
0
 62
    13
420
 13395558
100
AcDbLine
 10
2.414829105220855
 20
-537.964733975761
 30
0.0410750318559249
 11
2.165078066389647
 21
-538.5676863650509
 31
0.0411206356912181
  0
LINE
  5
4D6
330
661
100
AcDbEntity
  8
0
 62
    13
420
 13395558
100
AcDbLine
 10
2.165078066389647
 20
-538.5676863650509
 30
0.0411206356912181
 11
1.767781524863002
 21
-539.0854533250593
 31
0.0411597962686021
  0
LINE
  5
4D7
330
661
100
AcDbEntity
  8
0
 62
    13
420
 13395558
100
AcDbLine
 10
1.767781524863002
 20
-539.0854533250593
 30
0.0411597962686021
 11
1.250014583382023
 21
-539.4827498931157
 31
0.0411898448594445
  0
LINE
  5
4D8
330
661
100
AcDbEntity
  8
0
 62
    13
420
 13395558
100
AcDbLine
 10
1.250014583382023
 20
-539.4827498931157
 30
0.0411898448594445
 11
0.6470622033582081
 21
-539.7325009646618
 31
0.0412087337019367
  0
LINE
  5
4D9
330
661
100
AcDbEntity
  8
0
 62
    13
420
 13395558
100
AcDbLine
 10
0.6470622033582081
 20
-539.7325009646618
 30
0.0412087337019367
 11
0.0000145930644933
 21
-539.817686416914
 31
0.0412151755526785
  0
LINE
  5
4DA
330
661
100
AcDbEntity
  8
0
 62
    13
420
 13395558
100
AcDbLine
 10
0.0000145930644933
 20
-539.817686416914
 30
0.0412151755526785
 11
-0.6470330221543719
 21
-539.7325010020729
 31
0.0412087314101872
  0
LINE
  5
4DB
330
661
100
AcDbEntity
  8
0
 62
    13
420
 13395558
100
AcDbLine
 10
-0.6470330221543719
 20
-539.7325010020729
 30
0.0412087314101872
 11
-1.24998541661795
 21
-539.482749965387
 31
0.0411898404321244
  0
LINE
  5
4DC
330
661
100
AcDbEntity
  8
0
 62
    13
420
 13395558
100
AcDbLine
 10
-1.24998541661795
 20
-539.482749965387
 30
0.0411898404321244
 11
-1.767752381069789
 21
-539.0854534272687
 31
0.0411597900074259
  0
LINE
  5
4DD
330
661
100
AcDbEntity
  8
0
 62
    13
420
 13395558
100
AcDbLine
 10
-1.767752381069789
 20
-539.0854534272687
 30
0.0411597900074259
 11
-2.165048952532566
 21
-538.5676864902306
 31
0.0411206280228747
  0
LINE
  5
4DE
330
661
100
AcDbEntity
  8
0
 62
    13
420
 13395558
100
AcDbLine
 10
-2.165048952532566
 20
-538.5676864902306
 30
0.0411206280228747
 11
-2.414800026224516
 21
-537.964734115381
 31
0.0410750233029993
  0
LINE
  5
4DF
330
661
100
AcDbEntity
  8
0
 62
     0
100
AcDbLine
 10
-2.414800026224516
 20
-537.964734115381
 30
0.0410750233029993
 11
-2.499977641577985
 21
-944.6532557989775
 31
0.0715913386186015
  0
LINE
  5
4E0
330
661
100
AcDbEntity
  8
0
 62
     0
100
AcDbLine
 10
-2.499977641577985
 20
-944.6532557989775
 30
0.0715913386186015
 11
-2.414792205474438
 21
-944.0062081969642
 31
0.0714916565347506
  0
LINE
  5
4E1
330
661
100
AcDbEntity
  8
0
 62
     0
100
AcDbLine
 10
-2.414792205474438
 20
-944.0062081969642
 30
0.0714916565347506
 11
-2.165041148282507
 21
-943.4032558197315
 31
0.0714024790144237
  0
LINE
  5
4E2
330
661
100
AcDbEntity
  8
0
 62
     0
100
AcDbLine
 10
-2.165041148282507
 20
-943.4032558197315
 30
0.0714024790144237
 11
-1.767744591816683
 21
-942.8854888753617
 31
0.071329883358258
  0
LINE
  5
4E3
330
661
100
AcDbEntity
  8
0
 62
     0
100
AcDbLine
 10
-1.767744591816683
 20
-942.8854888753617
 30
0.071329883358258
 11
-1.24997763983651
 21
-942.4881923254634
 31
0.0712788168402514
  0
LINE
  5
4E4
330
661
100
AcDbEntity
  8
0
 62
     0
100
AcDbLine
 10
-1.24997763983651
 20
-942.4881923254634
 30
0.0712788168402514
 11
-0.6470252544690929
 21
-942.2384412733486
 31
0.0712527595592145
  0
LINE
  5
4E5
330
661
100
AcDbEntity
  8
0
 62
     0
100
AcDbLine
 10
-0.6470252544690929
 20
-942.2384412733486
 30
0.0712527595592145
 11
0.0000223556487088
 21
-942.1532558404855
 31
0.0712534872757884
  0
LINE
  5
4E6
330
661
100
AcDbEntity
  8
0
 62
     0
100
AcDbLine
 10
0.0000223556487088
 20
-942.1532558404855
 30
0.0712534872757884
 11
0.6470699651841009
 21
-942.2384412733486
 31
0.0712809503972911
  0
LINE
  5
4E7
330
661
100
AcDbEntity
  8
0
 62
     0
100
AcDbLine
 10
0.6470699651841009
 20
-942.2384412733486
 30
0.0712809503972911
 11
1.25002234884398
 21
-942.4881923254634
 31
0.0713332773573771
  0
LINE
  5
4E8
330
661
100
AcDbEntity
  8
0
 62
     0
100
AcDbLine
 10
1.25002234884398
 20
-942.4881923254634
 30
0.0713332773573771
 11
1.76778929810785
 21
-942.8854888753617
 31
0.0714069021601911
  0
LINE
  5
4E9
330
661
100
AcDbEntity
  8
0
 62
     0
100
AcDbLine
 10
1.76778929810785
 20
-942.8854888753617
 30
0.0714069021601911
 11
2.165085851033721
 21
-943.4032558197315
 31
0.071496807397092
  0
LINE
  5
4EA
330
661
100
AcDbEntity
  8
0
 62
     0
100
AcDbLine
 10
2.165085851033721
 20
-943.4032558197315
 30
0.071496807397092
 11
2.414836904103292
 21
-944.0062081969642
 31
0.0715968661747603
  0
LINE
  5
4EB
330
661
100
AcDbEntity
  8
0
 62
     0
100
AcDbLine
 10
2.414836904103292
 20
-944.0062081969642
 30
0.0715968661747603
 11
2.500022335782999
 21
-944.6532557989775
 31
0.071700259652853
  0
LINE
  5
4EC
330
661
100
AcDbEntity
  8
0
 62
     0
100
AcDbLine
 10
397.5852078063203
 20
-945.3003034974106
 30
0.0716947321121782
 11
2.500022335782999
 21
-944.6532557989775
 31
0.071700259652853
  0
LINE
  5
4ED
330
661
100
AcDbEntity
  8
0
 62
    13
420
 13395558
100
AcDbLine
 10
397.5852078063203
 20
-945.3003034974106
 30
0.0716947321121782
 11
397.5000223471025
 21
-944.6532558953407
 31
0.0716457927629618
  0
LINE
  5
4EE
330
661
100
AcDbEntity
  8
0
 62
     0
100
AcDbLine
 10
397.5000223471025
 20
-944.6532558953407
 30
0.0716457927629618
 11
397.5000066964525
 21
-129.983441799172
 31
0.0102168910585102
  0
LINE
  5
4EF
330
661
100
AcDbEntity
  8
0
 62
     0
100
AcDbLine
 10
397.5000066964525
 20
-129.983441799172
 30
0.0102168910585102
 11
397.5851921315966
 21
-129.3363941915663
 31
0.0101400243471352
  0
LINE
  5
4F0
330
661
100
AcDbEntity
  8
0
 62
     0
100
AcDbLine
 10
599.999996869523
 20
1057.04056216321
 30
-0.0799505130998276
 11
397.5851921315966
 21
-129.3363941915663
 31
0.0101400243471352
  0
LINE
  5
4F1
330
661
100
AcDbEntity
  8
0
 62
    13
420
 13395558
100
AcDbLine
 10
599.999996869523
 20
1057.04056216321
 30
-0.0799505130998276
 11
-599.999996869523
 21
1057.040562609316
 31
-0.0799496232013524
  0
LINE
  5
4F2
330
661
100
AcDbEntity
  8
0
 62
    13
420
 13395558
100
AcDbLine
 10
-599.9999764977238
 20
-1057.040562609316
 30
0.0799495353068604
 11
-599.999996869523
 21
1057.040562609316
 31
-0.0799496232013524
  0
LINE
  5
4F3
330
661
100
AcDbEntity
  8
0
 62
     0
100
AcDbLine
 10
-402.4999776204687
 20
-944.6532552021632
 30
0.0715685498062884
 11
-402.4999854310718
 21
-129.9834389127615
 31
0.0102464993130731
  0
LINE
  5
4F4
330
661
100
AcDbEntity
  8
0
 62
     0
100
AcDbLine
 10
-402.4999815299371
 20
-537.3176847389252
 30
0.0410259025521001
 11
-402.4999776204687
 21
-944.6532552021632
 31
0.0715685498062884
  0
LINE
  5
4F5
330
661
100
AcDbEntity
  8
0
 62
     0
100
AcDbLine
 10
-402.4999815299371
 20
-537.3176847389252
 30
0.0410259025521001
 11
-402.4999854310718
 21
-129.9834389127615
 31
0.0102464993130731
  0
LINE
  5
4F6
330
661
100
AcDbEntity
  8
0
 62
     0
100
AcDbLine
 10
-2.499977641577985
 20
-944.6532557989775
 30
0.0715913386186015
 11
-2.499993303547389
 21
-129.983441799172
 31
0.0102168910585103
  0
LINE
  5
4F7
330
661
100
AcDbEntity
  8
0
 62
     0
100
AcDbLine
 10
-2.499977641577985
 20
-944.6532557989775
 30
0.0715913386186015
 11
-2.499985479207295
 21
-537.3176865106398
 31
0.041026083734094
  0
LINE
  5
4F8
330
661
100
AcDbEntity
  8
0
 62
     0
100
AcDbLine
 10
-2.499993303547389
 20
-129.983441799172
 30
0.0102168910585103
 11
-2.499985479207295
 21
-537.3176865106398
 31
0.041026083734094
  0
LINE
  5
4F9
330
661
100
AcDbEntity
  8
0
 62
     0
100
AcDbLine
 10
397.5000223471025
 20
-944.6532558953407
 30
0.0716457927629618
 11
397.5000066964525
 21
-129.983441799172
 31
0.0102168910585102
  0
LINE
  5
4FA
330
661
100
AcDbEntity
  8
0
 62
     0
100
AcDbLine
 10
397.5000145207925
 20
-537.3176865106396
 30
0.041026083734094
 11
397.5000223471025
 21
-944.6532558953407
 31
0.0716457927629618
  0
LINE
  5
4FB
330
661
100
AcDbEntity
  8
0
 62
     0
100
AcDbLine
 10
397.5000066964525
 20
-129.983441799172
 30
0.0102168910585102
 11
397.5000145207925
 21
-537.3176865106396
 31
0.041026083734094
  0
LINE
  5
4FC
330
661
100
AcDbEntity
  8
0
 62
     0
100
AcDbLine
 10
-2.414800026224516
 20
-537.964734115381
 30
0.0410750233029993
 11
-2.499977641577985
 21
-944.6532557989775
 31
0.0715913386186015
  0
LINE
  5
4FD
330
661
100
AcDbEntity
  8
0
 62
    13
420
 13395558
100
AcDbLine
 10
-2.414800026224516
 20
-537.964734115381
 30
0.0410750233029993
 11
-2.499985479207295
 21
-537.3176865106398
 31
0.041026083734094
  0
LINE
  5
4FE
330
661
100
AcDbEntity
  8
0
 62
     0
100
AcDbLine
 10
-2.499977641577985
 20
-944.6532557989775
 30
0.0715913386186015
 11
-2.499985479207295
 21
-537.3176865106398
 31
0.041026083734094
  0
LINE
  5
4FF
330
661
100
AcDbEntity
  8
0
 62
     0
100
AcDbLine
 10
-402.4147999905594
 20
-130.6304865228462
 30
0.0102954393213557
 11
-402.4999815299371
 21
-537.3176847389252
 31
0.0410259025521001
  0
LINE
  5
500
330
661
100
AcDbEntity
  8
0
 62
    13
420
 13395558
100
AcDbLine
 10
-402.4147999905594
 20
-130.6304865228462
 30
0.0102954393213557
 11
-402.4999854310718
 21
-129.9834389127615
 31
0.0102464993130731
  0
LINE
  5
501
330
661
100
AcDbEntity
  8
0
 62
     0
100
AcDbLine
 10
-402.4999815299371
 20
-537.3176847389252
 30
0.0410259025521001
 11
-402.4999854310718
 21
-129.9834389127615
 31
0.0102464993130731
  0
ENDBLK
  5
663
330
661
100
AcDbEntity
  8
0
100
AcDbBlockEnd
  0
BLOCK
  5
665
330
664
100
AcDbEntity
  8
0
100
AcDbBlockBegin
  2
MDF_6_STANDAARD
 70
     0
 10
0.0
 20
0.0
 30
0.0
  3
MDF_6_STANDAARD
  1

  0
LINE
  5
83
330
664
100
AcDbEntity
  8
0
 62
    13
420
 13395558
100
AcDbLine
 10
-723.1800766283525
 20
72.79693486590038
 30
0.0
 11
-723.1800766283525
 21
19.15708812260529
 31
0.0
  0
LINE
  5
84
330
664
100
AcDbEntity
  8
0
 62
    13
420
 13395558
100
AcDbLine
 10
-723.1800766283525
 20
-3.320561941251628
 30
0.0
 11
-723.1800766283525
 21
-94.89144316730527
 31
0.0
  0
LINE
  5
85
330
664
100
AcDbEntity
  8
0
 62
    13
420
 13395558
100
AcDbLine
 10
840.4214559386974
 20
-19.28480204342276
 30
0.0
 11
840.4214559386974
 21
-94.89144316730527
 31
0.0
  0
LINE
  5
86
330
664
100
AcDbEntity
  8
0
 62
    13
420
 13395558
100
AcDbLine
 10
840.4214559386974
 20
73.56321839080461
 30
0.0
 11
840.4214559386974
 21
1.787994891443088
 31
0.0
  0
LINE
  5
87
330
664
100
AcDbEntity
  8
0
 62
     0
100
AcDbLine
 10
-723.1800766283525
 20
19.15708812260529
 30
0.0
 11
-723.1800766283525
 21
-94.89144316730527
 31
0.0
  0
LINE
  5
88
330
664
100
AcDbEntity
  8
0
 62
     0
100
AcDbLine
 10
840.4214559386974
 20
1.787994891443088
 30
0.0
 11
840.4214559386974
 21
-94.89144316730527
 31
0.0
  0
LINE
  5
89
330
664
100
AcDbEntity
  8
0
 62
    13
420
 13395558
100
AcDbLine
 10
-1127.394636015326
 20
95.27458492975728
 30
0.0
 11
-1092.911877394636
 21
95.27458492975728
 31
0.0
  0
LINE
  5
8A
330
664
100
AcDbEntity
  8
0
 62
    13
420
 13395558
100
AcDbLine
 10
-1092.911877394636
 20
95.27458492975728
 30
0.0
 11
-1045.402298850575
 21
-10.60025542784166
 31
0.0
  0
LINE
  5
8B
330
664
100
AcDbEntity
  8
0
 62
    13
420
 13395558
100
AcDbLine
 10
-1045.402298850575
 20
-10.60025542784166
 30
0.0
 11
-999.5530012771392
 21
95.27458492975728
 31
0.0
  0
LINE
  5
8C
330
664
100
AcDbEntity
  8
0
 62
    13
420
 13395558
100
AcDbLine
 10
-999.5530012771392
 20
95.27458492975728
 30
0.0
 11
-964.4316730523626
 21
95.27458492975728
 31
0.0
  0
LINE
  5
8D
330
664
100
AcDbEntity
  8
0
 62
    13
420
 13395558
100
AcDbLine
 10
-964.4316730523626
 20
95.27458492975728
 30
0.0
 11
-964.4316730523626
 21
-94.89144316730525
 31
0.0
  0
LINE
  5
8E
330
664
100
AcDbEntity
  8
0
 62
    13
420
 13395558
100
AcDbLine
 10
-964.4316730523626
 20
-94.89144316730525
 30
0.0
 11
-989.7190293742018
 21
-94.89144316730525
 31
0.0
  0
LINE
  5
8F
330
664
100
AcDbEntity
  8
0
 62
    13
420
 13395558
100
AcDbLine
 10
-989.7190293742018
 20
-94.89144316730525
 30
0.0
 11
-989.7190293742018
 21
68.96551724137929
 31
0.0
  0
LINE
  5
90
330
664
100
AcDbEntity
  8
0
 62
    13
420
 13395558
100
AcDbLine
 10
-989.7190293742018
 20
68.96551724137929
 30
0.0
 11
-1039.272030651341
 21
-42.52873563218394
 31
0.0
  0
LINE
  5
91
330
664
100
AcDbEntity
  8
0
 62
    13
420
 13395558
100
AcDbLine
 10
-1039.272030651341
 20
-42.52873563218394
 30
0.0
 11
-1054.597701149425
 21
-42.52873563218394
 31
0.0
  0
LINE
  5
92
330
664
100
AcDbEntity
  8
0
 62
    13
420
 13395558
100
AcDbLine
 10
-1054.597701149425
 20
-42.52873563218394
 30
0.0
 11
-1103.767560664112
 21
68.96551724137929
 31
0.0
  0
LINE
  5
93
330
664
100
AcDbEntity
  8
0
 62
    13
420
 13395558
100
AcDbLine
 10
-1103.767560664112
 20
68.96551724137929
 30
0.0
 11
-1103.767560664112
 21
-94.89144316730527
 31
0.0
  0
LINE
  5
94
330
664
100
AcDbEntity
  8
0
 62
    13
420
 13395558
100
AcDbLine
 10
-1103.767560664112
 20
-94.89144316730527
 30
0.0
 11
-1127.394636015326
 21
-94.89144316730525
 31
0.0
  0
LINE
  5
95
330
664
100
AcDbEntity
  8
0
 62
    13
420
 13395558
100
AcDbLine
 10
-1127.394636015326
 20
-94.89144316730525
 30
0.0
 11
-1127.394636015326
 21
95.27458492975728
 31
0.0
  0
LINE
  5
96
330
664
100
AcDbEntity
  8
0
 62
    13
420
 13395558
100
AcDbLine
 10
-925.8620689655173
 20
95.27458492975728
 30
0.0
 11
-882.567049808429
 21
95.27458492975728
 31
0.0
  0
LINE
  5
97
330
664
100
AcDbEntity
  8
0
 62
    13
420
 13395558
100
AcDbLine
 10
-882.567049808429
 20
95.27458492975728
 30
0.0
 11
-858.6366538952745
 21
94.2688378033206
 31
0.0
  0
LINE
  5
98
330
664
100
AcDbEntity
  8
0
 62
    13
420
 13395558
100
AcDbLine
 10
-858.6366538952745
 20
94.2688378033206
 30
0.0
 11
-840.485312899106
 21
91.25159642401019
 31
0.0
  0
LINE
  5
99
330
664
100
AcDbEntity
  8
0
 62
    13
420
 13395558
100
AcDbLine
 10
-840.485312899106
 20
91.25159642401019
 30
0.0
 11
-826.3569604086847
 21
86.47828863346098
 31
0.0
  0
LINE
  5
9A
330
664
100
AcDbEntity
  8
0
 62
    13
420
 13395558
100
AcDbLine
 10
-826.3569604086847
 20
86.47828863346098
 30
0.0
 11
-814.4955300127715
 21
80.20434227330779
 31
0.0
  0
LINE
  5
9B
330
664
100
AcDbEntity
  8
0
 62
    13
420
 13395558
100
AcDbLine
 10
-814.4955300127715
 20
80.20434227330779
 30
0.0
 11
-798.1800766283525
 21
66.07598978288628
 31
0.0
  0
LINE
  5
9C
330
664
100
AcDbEntity
  8
0
 62
    13
420
 13395558
100
AcDbLine
 10
-798.1800766283525
 20
66.07598978288628
 30
0.0
 11
-786.0153256704981
 21
47.95657726692207
 31
0.0
  0
LINE
  5
9D
330
664
100
AcDbEntity
  8
0
 62
    13
420
 13395558
100
AcDbLine
 10
-786.0153256704981
 20
47.95657726692207
 30
0.0
 11
-781.6012132822477
 21
37.41618773946357
 31
0.0
  0
LINE
  5
9E
330
664
100
AcDbEntity
  8
0
 62
    13
420
 13395558
100
AcDbLine
 10
-781.6012132822477
 20
37.41618773946357
 30
0.0
 11
-778.448275862069
 21
25.90996168582378
 31
0.0
  0
LINE
  5
9F
330
664
100
AcDbEntity
  8
0
 62
    13
420
 13395558
100
AcDbLine
 10
-778.448275862069
 20
25.90996168582378
 30
0.0
 11
-775.9259259259259
 21
-0.0000000000000338
 31
0.0
  0
LINE
  5
A0
330
664
100
AcDbEntity
  8
0
 62
    13
420
 13395558
100
AcDbLine
 10
-775.9259259259259
 20
-0.0000000000000338
 30
0.0
 11
-778.560025542784
 21
-24.77650063856963
 31
0.0
  0
LINE
  5
A1
330
664
100
AcDbEntity
  8
0
 62
    13
420
 13395558
100
AcDbLine
 10
-778.560025542784
 20
-24.77650063856963
 30
0.0
 11
-786.462324393359
 21
-46.99872286079187
 31
0.0
  0
LINE
  5
A2
330
664
100
AcDbEntity
  8
0
 62
    13
420
 13395558
100
AcDbLine
 10
-786.462324393359
 20
-46.99872286079187
 30
0.0
 11
-798.8026819923373
 21
-65.64495530012775
 31
0.0
  0
LINE
  5
A3
330
664
100
AcDbEntity
  8
0
 62
    13
420
 13395558
100
AcDbLine
 10
-798.8026819923373
 20
-65.64495530012775
 30
0.0
 11
-814.7509578544061
 21
-79.69348659003833
 31
0.0
  0
LINE
  5
A4
330
664
100
AcDbEntity
  8
0
 62
    13
420
 13395558
100
AcDbLine
 10
-814.7509578544061
 20
-79.69348659003833
 30
0.0
 11
-829.2943805874842
 21
-87.26053639846747
 31
0.0
  0
LINE
  5
A5
330
664
100
AcDbEntity
  8
0
 62
    13
420
 13395558
100
AcDbLine
 10
-829.2943805874842
 20
-87.26053639846747
 30
0.0
 11
-844.0613026819923
 21
-91.8263090676884
 31
0.0
  0
LINE
  5
A6
330
664
100
AcDbEntity
  8
0
 62
    13
420
 13395558
100
AcDbLine
 10
-844.0613026819923
 20
-91.8263090676884
 30
0.0
 11
-860.999361430396
 21
-94.12515964240104
 31
0.0
  0
LINE
  5
A7
330
664
100
AcDbEntity
  8
0
 62
    13
420
 13395558
100
AcDbLine
 10
-860.999361430396
 20
-94.12515964240104
 30
0.0
 11
-882.0561941251597
 21
-94.89144316730525
 31
0.0
  0
LINE
  5
A8
330
664
100
AcDbEntity
  8
0
 62
     0
100
AcDbLine
 10
-882.0561941251597
 20
-94.89144316730525
 30
0.0
 11
-900.5747126436781
 21
-73.18007662835252
 31
0.0
  0
LINE
  5
A9
330
664
100
AcDbEntity
  8
0
 62
    13
420
 13395558
100
AcDbLine
 10
-900.5747126436781
 20
-73.18007662835252
 30
0.0
 11
-881.2899106002554
 21
-73.18007662835252
 31
0.0
  0
LINE
  5
AA
330
664
100
AcDbEntity
  8
0
 62
    13
420
 13395558
100
AcDbLine
 10
-881.2899106002554
 20
-73.18007662835252
 30
0.0
 11
-865.4853128991059
 21
-72.50957854406131
 31
0.0
  0
LINE
  5
AB
330
664
100
AcDbEntity
  8
0
 62
    13
420
 13395558
100
AcDbLine
 10
-865.4853128991059
 20
-72.50957854406131
 30
0.0
 11
-851.7879948914432
 21
-70.49808429118777
 31
0.0
  0
LINE
  5
AC
330
664
100
AcDbEntity
  8
0
 62
    13
420
 13395558
100
AcDbLine
 10
-851.7879948914432
 20
-70.49808429118777
 30
0.0
 11
-839.6871008939976
 21
-66.66666666666669
 31
0.0
  0
LINE
  5
AD
330
664
100
AcDbEntity
  8
0
 62
    13
420
 13395558
100
AcDbLine
 10
-839.6871008939976
 20
-66.66666666666669
 30
0.0
 11
-828.6717752234993
 21
-60.53639846743298
 31
0.0
  0
LINE
  5
AE
330
664
100
AcDbEntity
  8
0
 62
    13
420
 13395558
100
AcDbLine
 10
-828.6717752234993
 20
-60.53639846743298
 30
0.0
 11
-817.1455938697319
 21
-50.11174968071523
 31
0.0
  0
LINE
  5
AF
330
664
100
AcDbEntity
  8
0
 62
    13
420
 13395558
100
AcDbLine
 10
-817.1455938697319
 20
-50.11174968071523
 30
0.0
 11
-808.8761174968073
 21
-36.71775223499363
 31
0.0
  0
LINE
  5
B0
330
664
100
AcDbEntity
  8
0
 62
    13
420
 13395558
100
AcDbLine
 10
-808.8761174968073
 20
-36.71775223499363
 30
0.0
 11
-803.8952745849299
 21
-20.00319284802046
 31
0.0
  0
LINE
  5
B1
330
664
100
AcDbEntity
  8
0
 62
    13
420
 13395558
100
AcDbLine
 10
-803.8952745849299
 20
-20.00319284802046
 30
0.0
 11
-802.234993614304
 21
0.3831417624520758
 31
0.0
  0
LINE
  5
B2
330
664
100
AcDbEntity
  8
0
 62
    13
420
 13395558
100
AcDbLine
 10
-802.234993614304
 20
0.3831417624520758
 30
0.0
 11
-804.0549169859515
 21
20.73754789272029
 31
0.0
  0
LINE
  5
B3
330
664
100
AcDbEntity
  8
0
 62
    13
420
 13395558
100
AcDbLine
 10
-804.0549169859515
 20
20.73754789272029
 30
0.0
 11
-809.514687100894
 21
37.8671775223499
 31
0.0
  0
LINE
  5
B4
330
664
100
AcDbEntity
  8
0
 62
    13
420
 13395558
100
AcDbLine
 10
-809.514687100894
 20
37.8671775223499
 30
0.0
 11
-818.5504469987228
 21
51.676245210728
 31
0.0
  0
LINE
  5
B5
330
664
100
AcDbEntity
  8
0
 62
    13
420
 13395558
100
AcDbLine
 10
-818.5504469987228
 20
51.676245210728
 30
0.0
 11
-831.0983397190295
 21
62.06896551724138
 31
0.0
  0
LINE
  5
B6
330
664
100
AcDbEntity
  8
0
 62
    13
420
 13395558
100
AcDbLine
 10
-831.0983397190295
 20
62.06896551724138
 30
0.0
 11
-841.5389527458493
 21
67.3371647509578
 31
0.0
  0
LINE
  5
B7
330
664
100
AcDbEntity
  8
0
 62
    13
420
 13395558
100
AcDbLine
 10
-841.5389527458493
 20
67.3371647509578
 30
0.0
 11
-852.6819923371647
 21
70.88122605363979
 31
0.0
  0
LINE
  5
B8
330
664
100
AcDbEntity
  8
0
 62
    13
420
 13395558
100
AcDbLine
 10
-852.6819923371647
 20
70.88122605363979
 30
0.0
 11
-865.581098339719
 21
72.8927203065134
 31
0.0
  0
LINE
  5
B9
330
664
100
AcDbEntity
  8
0
 62
    13
420
 13395558
100
AcDbLine
 10
-865.581098339719
 20
72.8927203065134
 30
0.0
 11
-881.2899106002554
 21
73.56321839080461
 31
0.0
  0
LINE
  5
BA
330
664
100
AcDbEntity
  8
0
 62
    13
420
 13395558
100
AcDbLine
 10
-881.2899106002554
 20
73.56321839080461
 30
0.0
 11
-900.5747126436781
 21
73.56321839080461
 31
0.0
  0
LINE
  5
BB
330
664
100
AcDbEntity
  8
0
 62
     0
100
AcDbLine
 10
-900.5747126436781
 20
73.56321839080461
 30
0.0
 11
-925.8620689655173
 21
-94.89144316730525
 31
0.0
  0
LINE
  5
BC
330
664
100
AcDbEntity
  8
0
 62
    13
420
 13395558
100
AcDbLine
 10
-925.8620689655173
 20
-94.89144316730525
 30
0.0
 11
-925.8620689655173
 21
95.27458492975728
 31
0.0
  0
LINE
  5
BD
330
664
100
AcDbEntity
  8
0
 62
     0
100
AcDbLine
 10
-900.5747126436781
 20
73.56321839080461
 30
0.0
 11
-925.8620689655173
 21
-94.89144316730525
 31
0.0
  0
LINE
  5
BE
330
664
100
AcDbEntity
  8
0
 62
    13
420
 13395558
100
AcDbLine
 10
-900.5747126436781
 20
73.56321839080461
 30
0.0
 11
-900.5747126436781
 21
-73.18007662835252
 31
0.0
  0
LINE
  5
BF
330
664
100
AcDbEntity
  8
0
 62
     0
100
AcDbLine
 10
-882.0561941251597
 20
-94.89144316730525
 30
0.0
 11
-900.5747126436781
 21
-73.18007662835252
 31
0.0
  0
LINE
  5
C0
330
664
100
AcDbEntity
  8
0
 62
    13
420
 13395558
100
AcDbLine
 10
-882.0561941251597
 20
-94.89144316730525
 30
0.0
 11
-925.8620689655173
 21
-94.89144316730525
 31
0.0
  0
LINE
  5
C1
330
664
100
AcDbEntity
  8
0
 62
    13
420
 13395558
100
AcDbLine
 10
-748.4674329501914
 20
95.27458492975728
 30
0.0
 11
-634.6743295019157
 21
95.27458492975728
 31
0.0
  0
LINE
  5
C2
330
664
100
AcDbEntity
  8
0
 62
    13
420
 13395558
100
AcDbLine
 10
-634.6743295019157
 20
95.27458492975728
 30
0.0
 11
-634.6743295019157
 21
72.79693486590038
 31
0.0
  0
LINE
  5
C3
330
664
100
AcDbEntity
  8
0
 62
    13
420
 13395558
100
AcDbLine
 10
-634.6743295019157
 20
72.79693486590038
 30
0.0
 11
-723.1800766283525
 21
72.79693486590038
 31
0.0
  0
LINE
  5
C4
330
664
100
AcDbEntity
  8
0
 62
     0
100
AcDbLine
 10
-723.1800766283525
 20
72.79693486590038
 30
0.0
 11
-723.1800766283525
 21
-94.89144316730527
 31
0.0
  0
LINE
  5
C5
330
664
100
AcDbEntity
  8
0
 62
    13
420
 13395558
100
AcDbLine
 10
-723.1800766283525
 20
-94.89144316730527
 30
0.0
 11
-748.4674329501914
 21
-94.89144316730525
 31
0.0
  0
LINE
  5
C6
330
664
100
AcDbEntity
  8
0
 62
    13
420
 13395558
100
AcDbLine
 10
-748.4674329501914
 20
-94.89144316730525
 30
0.0
 11
-748.4674329501914
 21
95.27458492975728
 31
0.0
  0
LINE
  5
C7
330
664
100
AcDbEntity
  8
0
 62
    13
420
 13395558
100
AcDbLine
 10
-638.3780332056194
 20
19.15708812260529
 30
0.0
 11
-638.3780332056194
 21
-3.320561941251628
 31
0.0
  0
LINE
  5
C8
330
664
100
AcDbEntity
  8
0
 62
    13
420
 13395558
100
AcDbLine
 10
-638.3780332056194
 20
-3.320561941251628
 30
0.0
 11
-723.1800766283525
 21
-3.320561941251628
 31
0.0
  0
LINE
  5
C9
330
664
100
AcDbEntity
  8
0
 62
     0
100
AcDbLine
 10
-723.1800766283525
 20
-3.320561941251628
 30
0.0
 11
-723.1800766283525
 21
19.15708812260529
 31
0.0
  0
LINE
  5
CA
330
664
100
AcDbEntity
  8
0
 62
    13
420
 13395558
100
AcDbLine
 10
-723.1800766283525
 20
19.15708812260529
 30
0.0
 11
-638.3780332056194
 21
19.15708812260529
 31
0.0
  0
LINE
  5
CB
330
664
100
AcDbEntity
  8
0
 62
    13
420
 13395558
100
AcDbLine
 10
-537.4840357598979
 20
12.21264367816089
 30
0.0
 11
-533.6526181353768
 21
33.39719029374197
 31
0.0
  0
LINE
  5
CC
330
664
100
AcDbEntity
  8
0
 62
    13
420
 13395558
100
AcDbLine
 10
-533.6526181353768
 20
33.39719029374197
 30
0.0
 11
-527.1711366538954
 21
52.09131545338438
 31
0.0
  0
LINE
  5
CD
330
664
100
AcDbEntity
  8
0
 62
    13
420
 13395558
100
AcDbLine
 10
-527.1711366538954
 20
52.09131545338438
 30
0.0
 11
-517.9438058748403
 21
68.19923371647509
 31
0.0
  0
LINE
  5
CE
330
664
100
AcDbEntity
  8
0
 62
    13
420
 13395558
100
AcDbLine
 10
-517.9438058748403
 20
68.19923371647509
 30
0.0
 11
-506.0983397190294
 21
81.05044699872289
 31
0.0
  0
LINE
  5
CF
330
664
100
AcDbEntity
  8
0
 62
    13
420
 13395558
100
AcDbLine
 10
-506.0983397190294
 20
81.05044699872289
 30
0.0
 11
-491.2515964240102
 21
90.74074074074068
 31
0.0
  0
LINE
  5
D0
330
664
100
AcDbEntity
  8
0
 62
    13
420
 13395558
100
AcDbLine
 10
-491.2515964240102
 20
90.74074074074068
 30
0.0
 11
-473.6270753512134
 21
96.82311621966788
 31
0.0
  0
LINE
  5
D1
330
664
100
AcDbEntity
  8
0
 62
    13
420
 13395558
100
AcDbLine
 10
-473.6270753512134
 20
96.82311621966788
 30
0.0
 11
-453.4482758620689
 21
98.8505747126437
 31
0.0
  0
LINE
  5
D2
330
664
100
AcDbEntity
  8
0
 62
    13
420
 13395558
100
AcDbLine
 10
-453.4482758620689
 20
98.8505747126437
 30
0.0
 11
-441.5708812260536
 21
98.21200510855678
 31
0.0
  0
LINE
  5
D3
330
664
100
AcDbEntity
  8
0
 62
    13
420
 13395558
100
AcDbLine
 10
-441.5708812260536
 20
98.21200510855678
 30
0.0
 11
-431.8646232439337
 21
96.16858237547889
 31
0.0
  0
LINE
  5
D4
330
664
100
AcDbEntity
  8
0
 62
    13
420
 13395558
100
AcDbLine
 10
-431.8646232439337
 20
96.16858237547889
 30
0.0
 11
-431.8646232439337
 21
71.77522349936137
 31
0.0
  0
LINE
  5
D5
330
664
100
AcDbEntity
  8
0
 62
    13
420
 13395558
100
AcDbLine
 10
-431.8646232439337
 20
71.77522349936137
 30
0.0
 11
-433.0140485312899
 21
71.77522349936137
 31
0.0
  0
LINE
  5
D6
330
664
100
AcDbEntity
  8
0
 62
    13
420
 13395558
100
AcDbLine
 10
-433.0140485312899
 20
71.77522349936137
 30
0.0
 11
-442.9757343550447
 21
75.28735632183908
 31
0.0
  0
LINE
  5
D7
330
664
100
AcDbEntity
  8
0
 62
    13
420
 13395558
100
AcDbLine
 10
-442.9757343550447
 20
75.28735632183908
 30
0.0
 11
-456.896551724138
 21
76.88378033205618
 31
0.0
  0
LINE
  5
D8
330
664
100
AcDbEntity
  8
0
 62
    13
420
 13395558
100
AcDbLine
 10
-456.896551724138
 20
76.88378033205618
 30
0.0
 11
-468.2032247765007
 21
75.88202426564487
 31
0.0
  0
LINE
  5
D9
330
664
100
AcDbEntity
  8
0
 62
    13
420
 13395558
100
AcDbLine
 10
-468.2032247765007
 20
75.88202426564487
 30
0.0
 11
-478.3684546615581
 21
72.87675606641119
 31
0.0
  0
LINE
  5
DA
330
664
100
AcDbEntity
  8
0
 62
    13
420
 13395558
100
AcDbLine
 10
-478.3684546615581
 20
72.87675606641119
 30
0.0
 11
-487.3922413793104
 21
67.867975734355
 31
0.0
  0
LINE
  5
DB
330
664
100
AcDbEntity
  8
0
 62
    13
420
 13395558
100
AcDbLine
 10
-487.3922413793104
 20
67.867975734355
 30
0.0
 11
-495.2745849297574
 21
60.85568326947638
 31
0.0
  0
LINE
  5
DC
330
664
100
AcDbEntity
  8
0
 62
    13
420
 13395558
100
AcDbLine
 10
-495.2745849297574
 20
60.85568326947638
 30
0.0
 11
-501.8398786717752
 21
51.87180715197958
 31
0.0
  0
LINE
  5
DD
330
664
100
AcDbEntity
  8
0
 62
    13
420
 13395558
100
AcDbLine
 10
-501.8398786717752
 20
51.87180715197958
 30
0.0
 11
-506.9125159642401
 21
40.94827586206888
 31
0.0
  0
LINE
  5
DE
330
664
100
AcDbEntity
  8
0
 62
    13
420
 13395558
100
AcDbLine
 10
-506.9125159642401
 20
40.94827586206888
 30
0.0
 11
-510.492496807152
 21
28.08508939974458
 31
0.0
  0
LINE
  5
DF
330
664
100
AcDbEntity
  8
0
 62
    13
420
 13395558
100
AcDbLine
 10
-510.492496807152
 20
28.08508939974458
 30
0.0
 11
-512.5798212005108
 21
13.28224776500639
 31
0.0
  0
LINE
  5
E0
330
664
100
AcDbEntity
  8
0
 62
    13
420
 13395558
100
AcDbLine
 10
-512.5798212005108
 20
13.28224776500639
 30
0.0
 11
-493.933588761175
 21
23.1162196679438
 31
0.0
  0
LINE
  5
E1
330
664
100
AcDbEntity
  8
0
 62
    13
420
 13395558
100
AcDbLine
 10
-493.933588761175
 20
23.1162196679438
 30
0.0
 11
-483.9080459770115
 21
25.70242656449549
 31
0.0
  0
LINE
  5
E2
330
664
100
AcDbEntity
  8
0
 62
    13
420
 13395558
100
AcDbLine
 10
-483.9080459770115
 20
25.70242656449549
 30
0.0
 11
-472.9885057471265
 21
26.5644955300127
 31
0.0
  0
LINE
  5
E3
330
664
100
AcDbEntity
  8
0
 62
    13
420
 13395558
100
AcDbLine
 10
-472.9885057471265
 20
26.5644955300127
 30
0.0
 11
-453.5121328224777
 21
24.32950191570878
 31
0.0
  0
LINE
  5
E4
330
664
100
AcDbEntity
  8
0
 62
    13
420
 13395558
100
AcDbLine
 10
-453.5121328224777
 20
24.32950191570878
 30
0.0
 11
-444.9712643678162
 21
20.96104725415069
 31
0.0
  0
LINE
  5
E5
330
664
100
AcDbEntity
  8
0
 62
    13
420
 13395558
100
AcDbLine
 10
-444.9712643678162
 20
20.96104725415069
 30
0.0
 11
-436.0791826309069
 21
15.32567049808428
 31
0.0
  0
LINE
  5
E6
330
664
100
AcDbEntity
  8
0
 62
    13
420
 13395558
100
AcDbLine
 10
-436.0791826309069
 20
15.32567049808428
 30
0.0
 11
-426.9476372924649
 21
6.3537675606641
 31
0.0
  0
LINE
  5
E7
330
664
100
AcDbEntity
  8
0
 62
    13
420
 13395558
100
AcDbLine
 10
-426.9476372924649
 20
6.3537675606641
 30
0.0
 11
-420.4980842911877
 21
-4.725415070242674
 31
0.0
  0
LINE
  5
E8
330
664
100
AcDbEntity
  8
0
 62
    13
420
 13395558
100
AcDbLine
 10
-420.4980842911877
 20
-4.725415070242674
 30
0.0
 11
-416.6666666666667
 21
-17.91187739463604
 31
0.0
  0
LINE
  5
E9
330
664
100
AcDbEntity
  8
0
 62
    13
420
 13395558
100
AcDbLine
 10
-416.6666666666667
 20
-17.91187739463604
 30
0.0
 11
-415.389527458493
 21
-33.20561941251599
 31
0.0
  0
LINE
  5
EA
330
664
100
AcDbEntity
  8
0
 62
    13
420
 13395558
100
AcDbLine
 10
-415.389527458493
 20
-33.20561941251599
 30
0.0
 11
-416.6028097062579
 21
-47.31800766283528
 31
0.0
  0
LINE
  5
EB
330
664
100
AcDbEntity
  8
0
 62
    13
420
 13395558
100
AcDbLine
 10
-416.6028097062579
 20
-47.31800766283528
 30
0.0
 11
-420.2426564495531
 21
-60.28097062579824
 31
0.0
  0
LINE
  5
EC
330
664
100
AcDbEntity
  8
0
 62
    13
420
 13395558
100
AcDbLine
 10
-420.2426564495531
 20
-60.28097062579824
 30
0.0
 11
-425.9259259259259
 21
-71.64750957854409
 31
0.0
  0
LINE
  5
ED
330
664
100
AcDbEntity
  8
0
 62
    13
420
 13395558
100
AcDbLine
 10
-425.9259259259259
 20
-71.64750957854409
 30
0.0
 11
-433.2694763729247
 21
-80.97062579821203
 31
0.0
  0
LINE
  5
EE
330
664
100
AcDbEntity
  8
0
 62
    13
420
 13395558
100
AcDbLine
 10
-433.2694763729247
 20
-80.97062579821203
 30
0.0
 11
-442.337164750958
 21
-88.71328224776504
 31
0.0
  0
LINE
  5
EF
330
664
100
AcDbEntity
  8
0
 62
    13
420
 13395558
100
AcDbLine
 10
-442.337164750958
 20
-88.71328224776504
 30
0.0
 11
-452.4265644955299
 21
-94.3167305236271
 31
0.0
  0
LINE
  5
F0
330
664
100
AcDbEntity
  8
0
 62
    13
420
 13395558
100
AcDbLine
 10
-452.4265644955299
 20
-94.3167305236271
 30
0.0
 11
-463.5696040868453
 21
-97.71711366538955
 31
0.0
  0
LINE
  5
F1
330
664
100
AcDbEntity
  8
0
 62
    13
420
 13395558
100
AcDbLine
 10
-463.5696040868453
 20
-97.71711366538955
 30
0.0
 11
-475.7982120051087
 21
-98.8505747126437
 31
0.0
  0
LINE
  5
F2
330
664
100
AcDbEntity
  8
0
 62
    13
420
 13395558
100
AcDbLine
 10
-475.7982120051087
 20
-98.8505747126437
 30
0.0
 11
-488.1066411238825
 21
-97.76500638569607
 31
0.0
  0
LINE
  5
F3
330
664
100
AcDbEntity
  8
0
 62
    13
420
 13395558
100
AcDbLine
 10
-488.1066411238825
 20
-97.76500638569607
 30
0.0
 11
-499.2337164750957
 21
-94.50830140485314
 31
0.0
  0
LINE
  5
F4
330
664
100
AcDbEntity
  8
0
 62
    13
420
 13395558
100
AcDbLine
 10
-499.2337164750957
 20
-94.50830140485314
 30
0.0
 11
-509.147509578544
 21
-89.11238825031931
 31
0.0
  0
LINE
  5
F5
330
664
100
AcDbEntity
  8
0
 62
     0
100
AcDbLine
 10
-509.147509578544
 20
-89.11238825031931
 30
0.0
 11
-512.1168582375478
 21
-34.73818646232442
 31
0.0
  0
LINE
  5
F6
330
664
100
AcDbEntity
  8
0
 62
    13
420
 13395558
100
AcDbLine
 10
-512.1168582375478
 20
-34.73818646232442
 30
0.0
 11
-509.1954022988505
 21
-48.78671775223501
 31
0.0
  0
LINE
  5
F7
330
664
100
AcDbEntity
  8
0
 62
    13
420
 13395558
100
AcDbLine
 10
-509.1954022988505
 20
-48.78671775223501
 30
0.0
 11
-504.8371647509579
 21
-59.45083014048534
 31
0.0
  0
LINE
  5
F8
330
664
100
AcDbEntity
  8
0
 62
    13
420
 13395558
100
AcDbLine
 10
-504.8371647509579
 20
-59.45083014048534
 30
0.0
 11
-499.5530012771392
 21
-67.17752234993617
 31
0.0
  0
LINE
  5
F9
330
664
100
AcDbEntity
  8
0
 62
    13
420
 13395558
100
AcDbLine
 10
-499.5530012771392
 20
-67.17752234993617
 30
0.0
 11
-493.9814814814816
 21
-72.28607918263094
 31
0.0
  0
LINE
  5
FA
330
664
100
AcDbEntity
  8
0
 62
    13
420
 13395558
100
AcDbLine
 10
-493.9814814814816
 20
-72.28607918263094
 30
0.0
 11
-488.2503192848021
 21
-75.60664112388254
 31
0.0
  0
LINE
  5
FB
330
664
100
AcDbEntity
  8
0
 62
    13
420
 13395558
100
AcDbLine
 10
-488.2503192848021
 20
-75.60664112388254
 30
0.0
 11
-475.6704980842912
 21
-78.03320561941254
 31
0.0
  0
LINE
  5
FC
330
664
100
AcDbEntity
  8
0
 62
    13
420
 13395558
100
AcDbLine
 10
-475.6704980842912
 20
-78.03320561941254
 30
0.0
 11
-461.7975734355044
 21
-75.2873563218391
 31
0.0
  0
LINE
  5
FD
330
664
100
AcDbEntity
  8
0
 62
    13
420
 13395558
100
AcDbLine
 10
-461.7975734355044
 20
-75.2873563218391
 30
0.0
 11
-455.9506704980843
 21
-71.85504469987231
 31
0.0
  0
LINE
  5
FE
330
664
100
AcDbEntity
  8
0
 62
    13
420
 13395558
100
AcDbLine
 10
-455.9506704980843
 20
-71.85504469987231
 30
0.0
 11
-450.830140485313
 21
-67.0498084291188
 31
0.0
  0
LINE
  5
FF
330
664
100
AcDbEntity
  8
0
 62
    13
420
 13395558
100
AcDbLine
 10
-450.830140485313
 20
-67.0498084291188
 30
0.0
 11
-446.6674648786718
 21
-60.87962962962968
 31
0.0
  0
LINE
  5
100
330
664
100
AcDbEntity
  8
0
 62
    13
420
 13395558
100
AcDbLine
 10
-446.6674648786718
 20
-60.87962962962968
 30
0.0
 11
-443.6941251596424
 21
-53.35249042145598
 31
0.0
  0
LINE
  5
101
330
664
100
AcDbEntity
  8
0
 62
    13
420
 13395558
100
AcDbLine
 10
-443.6941251596424
 20
-53.35249042145598
 30
0.0
 11
-441.3154533844188
 21
-34.22733077905495
 31
0.0
  0
LINE
  5
102
330
664
100
AcDbEntity
  8
0
 62
    13
420
 13395558
100
AcDbLine
 10
-441.3154533844188
 20
-34.22733077905495
 30
0.0
 11
-442.0817369093231
 21
-23.43550446998727
 31
0.0
  0
LINE
  5
103
330
664
100
AcDbEntity
  8
0
 62
    13
420
 13395558
100
AcDbLine
 10
-442.0817369093231
 20
-23.43550446998727
 30
0.0
 11
-444.3805874840358
 21
-14.5593869731801
 31
0.0
  0
LINE
  5
104
330
664
100
AcDbEntity
  8
0
 62
    13
420
 13395558
100
AcDbLine
 10
-444.3805874840358
 20
-14.5593869731801
 30
0.0
 11
-448.4035759897828
 21
-7.215836526181375
 31
0.0
  0
LINE
  5
105
330
664
100
AcDbEntity
  8
0
 62
    13
420
 13395558
100
AcDbLine
 10
-448.4035759897828
 20
-7.215836526181375
 30
0.0
 11
-454.3422733077906
 21
-1.021711366538981
 31
0.0
  0
LINE
  5
106
330
664
100
AcDbEntity
  8
0
 62
    13
420
 13395558
100
AcDbLine
 10
-454.3422733077906
 20
-1.021711366538981
 30
0.0
 11
-459.6583652618136
 21
2.362707535121286
 31
0.0
  0
LINE
  5
107
330
664
100
AcDbEntity
  8
0
 62
    13
420
 13395558
100
AcDbLine
 10
-459.6583652618136
 20
2.362707535121286
 30
0.0
 11
-465.6449553001278
 21
4.342273307790497
 31
0.0
  0
LINE
  5
108
330
664
100
AcDbEntity
  8
0
 62
    13
420
 13395558
100
AcDbLine
 10
-465.6449553001278
 20
4.342273307790497
 30
0.0
 11
-478.6079182630907
 21
5.619412515964195
 31
0.0
  0
LINE
  5
109
330
664
100
AcDbEntity
  8
0
 62
    13
420
 13395558
100
AcDbLine
 10
-478.6079182630907
 20
5.619412515964195
 30
0.0
 11
-495.9770114942528
 21
2.937420178799496
 31
0.0
  0
LINE
  5
10A
330
664
100
AcDbEntity
  8
0
 62
    13
420
 13395558
100
AcDbLine
 10
-495.9770114942528
 20
2.937420178799496
 30
0.0
 11
-512.5798212005108
 21
-4.853128991060055
 31
0.0
  0
LINE
  5
10B
330
664
100
AcDbEntity
  8
0
 62
    13
420
 13395558
100
AcDbLine
 10
-512.5798212005108
 20
-4.853128991060055
 30
0.0
 11
-512.962962962963
 21
-10.28097062579824
 31
0.0
  0
LINE
  5
10C
330
664
100
AcDbEntity
  8
0
 62
    13
420
 13395558
100
AcDbLine
 10
-512.962962962963
 20
-10.28097062579824
 30
0.0
 11
-513.0906768837802
 21
-16.85823754789275
 31
0.0
  0
LINE
  5
10D
330
664
100
AcDbEntity
  8
0
 62
     0
100
AcDbLine
 10
-513.0906768837802
 20
-16.85823754789275
 30
0.0
 11
-517.8160919540229
 21
-81.60919540229887
 31
0.0
  0
LINE
  5
10E
330
664
100
AcDbEntity
  8
0
 62
    13
420
 13395558
100
AcDbLine
 10
-517.8160919540229
 20
-81.60919540229887
 30
0.0
 11
-526.580459770115
 21
-69.52426564495532
 31
0.0
  0
LINE
  5
10F
330
664
100
AcDbEntity
  8
0
 62
    13
420
 13395558
100
AcDbLine
 10
-526.580459770115
 20
-69.52426564495532
 30
0.0
 11
-533.2056194125161
 21
-53.95913154533847
 31
0.0
  0
LINE
  5
110
330
664
100
AcDbEntity
  8
0
 62
    13
420
 13395558
100
AcDbLine
 10
-533.2056194125161
 20
-53.95913154533847
 30
0.0
 11
-537.3722860791827
 21
-34.65836526181356
 31
0.0
  0
LINE
  5
111
330
664
100
AcDbEntity
  8
0
 62
    13
420
 13395558
100
AcDbLine
 10
-537.3722860791827
 20
-34.65836526181356
 30
0.0
 11
-538.7611749680715
 21
-11.36653895274587
 31
0.0
  0
LINE
  5
112
330
664
100
AcDbEntity
  8
0
 62
    13
420
 13395558
100
AcDbLine
 10
-538.7611749680715
 20
-11.36653895274587
 30
0.0
 11
-537.4840357598979
 21
12.21264367816089
 31
0.0
  0
LINE
  5
113
330
664
100
AcDbEntity
  8
0
 62
     0
100
AcDbLine
 10
-513.0906768837802
 20
-16.85823754789275
 30
0.0
 11
-517.8160919540229
 21
-81.60919540229887
 31
0.0
  0
LINE
  5
114
330
664
100
AcDbEntity
  8
0
 62
    13
420
 13395558
100
AcDbLine
 10
-513.0906768837802
 20
-16.85823754789275
 30
0.0
 11
-512.1168582375478
 21
-34.73818646232442
 31
0.0
  0
LINE
  5
115
330
664
100
AcDbEntity
  8
0
 62
     0
100
AcDbLine
 10
-509.147509578544
 20
-89.11238825031931
 30
0.0
 11
-512.1168582375478
 21
-34.73818646232442
 31
0.0
  0
LINE
  5
116
330
664
100
AcDbEntity
  8
0
 62
    13
420
 13395558
100
AcDbLine
 10
-509.147509578544
 20
-89.11238825031931
 30
0.0
 11
-517.8160919540229
 21
-81.60919540229887
 31
0.0
  0
LINE
  5
117
330
664
100
AcDbEntity
  8
0
 62
    13
420
 13395558
100
AcDbLine
 10
-312.7314814814816
 20
55.4078863346105
 30
0.0
 11
-309.3550446998722
 21
65.56513409961688
 31
0.0
  0
LINE
  5
118
330
664
100
AcDbEntity
  8
0
 62
    13
420
 13395558
100
AcDbLine
 10
-309.3550446998722
 20
65.56513409961688
 30
0.0
 11
-303.7276500638569
 21
74.78847381864618
 31
0.0
  0
LINE
  5
119
330
664
100
AcDbEntity
  8
0
 62
    13
420
 13395558
100
AcDbLine
 10
-303.7276500638569
 20
74.78847381864618
 30
0.0
 11
-295.8492975734355
 21
83.07790549169859
 31
0.0
  0
LINE
  5
11A
330
664
100
AcDbEntity
  8
0
 62
    13
420
 13395558
100
AcDbLine
 10
-295.8492975734355
 20
83.07790549169859
 30
0.0
 11
-286.2228607918265
 21
89.9225734355045
 31
0.0
  0
LINE
  5
11B
330
664
100
AcDbEntity
  8
0
 62
    13
420
 13395558
100
AcDbLine
 10
-286.2228607918265
 20
89.9225734355045
 30
0.0
 11
-275.3512132822479
 21
94.81162196679438
 31
0.0
  0
LINE
  5
11C
330
664
100
AcDbEntity
  8
0
 62
    13
420
 13395558
100
AcDbLine
 10
-275.3512132822479
 20
94.81162196679438
 30
0.0
 11
-263.2343550446998
 21
97.7450510855683
 31
0.0
  0
LINE
  5
11D
330
664
100
AcDbEntity
  8
0
 62
    13
420
 13395558
100
AcDbLine
 10
-263.2343550446998
 20
97.7450510855683
 30
0.0
 11
-249.8722860791827
 21
98.72286079182629
 31
0.0
  0
LINE
  5
11E
330
664
100
AcDbEntity
  8
0
 62
    13
420
 13395558
100
AcDbLine
 10
-249.8722860791827
 20
98.72286079182629
 30
0.0
 11
-234.3390804597701
 21
97.92464878671768
 31
0.0
  0
LINE
  5
11F
330
664
100
AcDbEntity
  8
0
 62
    13
420
 13395558
100
AcDbLine
 10
-234.3390804597701
 20
97.92464878671768
 30
0.0
 11
-219.6679438058747
 21
95.53001277139208
 31
0.0
  0
LINE
  5
120
330
664
100
AcDbEntity
  8
0
 62
    13
420
 13395558
100
AcDbLine
 10
-219.6679438058747
 20
95.53001277139208
 30
0.0
 11
-205.9546615581096
 21
91.66666666666659
 31
0.0
  0
LINE
  5
121
330
664
100
AcDbEntity
  8
0
 62
    13
420
 13395558
100
AcDbLine
 10
-205.9546615581096
 20
91.66666666666659
 30
0.0
 11
-193.295019157088
 21
86.46232439335887
 31
0.0
  0
LINE
  5
122
330
664
100
AcDbEntity
  8
0
 62
    13
420
 13395558
100
AcDbLine
 10
-193.295019157088
 20
86.46232439335887
 30
0.0
 11
-193.295019157088
 21
56.19412515964237
 31
0.0
  0
LINE
  5
123
330
664
100
AcDbEntity
  8
0
 62
    13
420
 13395558
100
AcDbLine
 10
-193.295019157088
 20
56.19412515964237
 30
0.0
 11
-195.2107279693487
 21
56.19412515964237
 31
0.0
  0
LINE
  5
124
330
664
100
AcDbEntity
  8
0
 62
    13
420
 13395558
100
AcDbLine
 10
-195.2107279693487
 20
56.19412515964237
 30
0.0
 11
-205.5555555555557
 21
63.96871008939969
 31
0.0
  0
LINE
  5
125
330
664
100
AcDbEntity
  8
0
 62
    13
420
 13395558
100
AcDbLine
 10
-205.5555555555557
 20
63.96871008939969
 30
0.0
 11
-218.4546615581099
 21
70.6896551724138
 31
0.0
  0
LINE
  5
126
330
664
100
AcDbEntity
  8
0
 62
    13
420
 13395558
100
AcDbLine
 10
-218.4546615581099
 20
70.6896551724138
 30
0.0
 11
-232.9821200510857
 21
75.3352490421456
 31
0.0
  0
LINE
  5
127
330
664
100
AcDbEntity
  8
0
 62
    13
420
 13395558
100
AcDbLine
 10
-232.9821200510857
 20
75.3352490421456
 30
0.0
 11
-248.2120051085568
 21
76.88378033205618
 31
0.0
  0
LINE
  5
128
330
664
100
AcDbEntity
  8
0
 62
    13
420
 13395558
100
AcDbLine
 10
-248.2120051085568
 20
76.88378033205618
 30
0.0
 11
-264.1443167305235
 21
74.82439335887608
 31
0.0
  0
LINE
  5
129
330
664
100
AcDbEntity
  8
0
 62
    13
420
 13395558
100
AcDbLine
 10
-264.1443167305235
 20
74.82439335887608
 30
0.0
 11
-276.6922094508302
 21
68.64623243933588
 31
0.0
  0
LINE
  5
12A
330
664
100
AcDbEntity
  8
0
 62
    13
420
 13395558
100
AcDbLine
 10
-276.6922094508302
 20
68.64623243933588
 30
0.0
 11
-284.8339719029375
 21
59.11558109833967
 31
0.0
  0
LINE
  5
12B
330
664
100
AcDbEntity
  8
0
 62
    13
420
 13395558
100
AcDbLine
 10
-284.8339719029375
 20
59.11558109833967
 30
0.0
 11
-287.5478927203066
 21
46.99872286079179
 31
0.0
  0
LINE
  5
12C
330
664
100
AcDbEntity
  8
0
 62
    13
420
 13395558
100
AcDbLine
 10
-287.5478927203066
 20
46.99872286079179
 30
0.0
 11
-285.9514687100893
 21
36.1111111111111
 31
0.0
  0
LINE
  5
12D
330
664
100
AcDbEntity
  8
0
 62
    13
420
 13395558
100
AcDbLine
 10
-285.9514687100893
 20
36.1111111111111
 30
0.0
 11
-281.162196679438
 21
27.71392081736909
 31
0.0
  0
LINE
  5
12E
330
664
100
AcDbEntity
  8
0
 62
    13
420
 13395558
100
AcDbLine
 10
-281.162196679438
 20
27.71392081736909
 30
0.0
 11
-273.3397190293743
 21
21.51979565772669
 31
0.0
  0
LINE
  5
12F
330
664
100
AcDbEntity
  8
0
 62
    13
420
 13395558
100
AcDbLine
 10
-273.3397190293743
 20
21.51979565772669
 30
0.0
 11
-262.6436781609195
 21
17.24137931034479
 31
0.0
  0
LINE
  5
130
330
664
100
AcDbEntity
  8
0
 62
    13
420
 13395558
100
AcDbLine
 10
-262.6436781609195
 20
17.24137931034479
 30
0.0
 11
-242.9757343550447
 21
12.32439335887608
 31
0.0
  0
LINE
  5
131
330
664
100
AcDbEntity
  8
0
 62
    13
420
 13395558
100
AcDbLine
 10
-242.9757343550447
 20
12.32439335887608
 30
0.0
 11
-223.6909323116219
 21
7.279693486589981
 31
0.0
  0
LINE
  5
132
330
664
100
AcDbEntity
  8
0
 62
    13
420
 13395558
100
AcDbLine
 10
-223.6909323116219
 20
7.279693486589981
 30
0.0
 11
-206.6730523627074
 21
-0.2554278416347623
 31
0.0
  0
LINE
  5
133
330
664
100
AcDbEntity
  8
0
 62
    13
420
 13395558
100
AcDbLine
 10
-206.6730523627074
 20
-0.2554278416347623
 30
0.0
 11
-194.955300127714
 21
-10.8556832694764
 31
0.0
  0
LINE
  5
134
330
664
100
AcDbEntity
  8
0
 62
    13
420
 13395558
100
AcDbLine
 10
-194.955300127714
 20
-10.8556832694764
 30
0.0
 11
-188.1545338441889
 21
-24.39335887611752
 31
0.0
  0
LINE
  5
135
330
664
100
AcDbEntity
  8
0
 62
    13
420
 13395558
100
AcDbLine
 10
-188.1545338441889
 20
-24.39335887611752
 30
0.0
 11
-185.8876117496806
 21
-40.74074074074078
 31
0.0
  0
LINE
  5
136
330
664
100
AcDbEntity
  8
0
 62
    13
420
 13395558
100
AcDbLine
 10
-185.8876117496806
 20
-40.74074074074078
 30
0.0
 11
-187.0210727969347
 21
-51.78799489144318
 31
0.0
  0
LINE
  5
137
330
664
100
AcDbEntity
  8
0
 62
    13
420
 13395558
100
AcDbLine
 10
-187.0210727969347
 20
-51.78799489144318
 30
0.0
 11
-190.4214559386974
 21
-62.70753512132826
 31
0.0
  0
LINE
  5
138
330
664
100
AcDbEntity
  8
0
 62
    13
420
 13395558
100
AcDbLine
 10
-190.4214559386974
 20
-62.70753512132826
 30
0.0
 11
-195.8652618135379
 21
-72.73307790549173
 31
0.0
  0
LINE
  5
139
330
664
100
AcDbEntity
  8
0
 62
    13
420
 13395558
100
AcDbLine
 10
-195.8652618135379
 20
-72.73307790549173
 30
0.0
 11
-203.1289910600255
 21
-81.0983397190294
 31
0.0
  0
LINE
  5
13A
330
664
100
AcDbEntity
  8
0
 62
    13
420
 13395558
100
AcDbLine
 10
-203.1289910600255
 20
-81.0983397190294
 30
0.0
 11
-212.9150702426563
 21
-88.44189016602813
 31
0.0
  0
LINE
  5
13B
330
664
100
AcDbEntity
  8
0
 62
    13
420
 13395558
100
AcDbLine
 10
-212.9150702426563
 20
-88.44189016602813
 30
0.0
 11
-223.882503192848
 21
-93.86973180076632
 31
0.0
  0
LINE
  5
13C
330
664
100
AcDbEntity
  8
0
 62
    13
420
 13395558
100
AcDbLine
 10
-223.882503192848
 20
-93.86973180076632
 30
0.0
 11
-236.8933588761174
 21
-97.22222222222224
 31
0.0
  0
LINE
  5
13D
330
664
100
AcDbEntity
  8
0
 62
    13
420
 13395558
100
AcDbLine
 10
-236.8933588761174
 20
-97.22222222222224
 30
0.0
 11
-252.8097062579822
 21
-98.33971902937422
 31
0.0
  0
LINE
  5
13E
330
664
100
AcDbEntity
  8
0
 62
    13
420
 13395558
100
AcDbLine
 10
-252.8097062579822
 20
-98.33971902937422
 30
0.0
 11
-271.9508301404854
 21
-97.27011494252876
 31
0.0
  0
LINE
  5
13F
330
664
100
AcDbEntity
  8
0
 62
    13
420
 13395558
100
AcDbLine
 10
-271.9508301404854
 20
-97.27011494252876
 30
0.0
 11
-287.9948914431675
 21
-94.06130268199236
 31
0.0
  0
LINE
  5
140
330
664
100
AcDbEntity
  8
0
 62
    13
420
 13395558
100
AcDbLine
 10
-287.9948914431675
 20
-94.06130268199236
 30
0.0
 11
-315.2618135376756
 21
-83.52490421455941
 31
0.0
  0
LINE
  5
141
330
664
100
AcDbEntity
  8
0
 62
    13
420
 13395558
100
AcDbLine
 10
-315.2618135376756
 20
-83.52490421455941
 30
0.0
 11
-315.2618135376756
 21
-51.85185185185188
 31
0.0
  0
LINE
  5
142
330
664
100
AcDbEntity
  8
0
 62
    13
420
 13395558
100
AcDbLine
 10
-315.2618135376756
 20
-51.85185185185188
 30
0.0
 11
-313.4738186462324
 21
-51.85185185185188
 31
0.0
  0
LINE
  5
143
330
664
100
AcDbEntity
  8
0
 62
    13
420
 13395558
100
AcDbLine
 10
-313.4738186462324
 20
-51.85185185185188
 30
0.0
 11
-300.1277139208176
 21
-62.27650063856962
 31
0.0
  0
LINE
  5
144
330
664
100
AcDbEntity
  8
0
 62
    13
420
 13395558
100
AcDbLine
 10
-300.1277139208176
 20
-62.27650063856962
 30
0.0
 11
-285.1213282247767
 21
-70.05108556832698
 31
0.0
  0
LINE
  5
145
330
664
100
AcDbEntity
  8
0
 62
    13
420
 13395558
100
AcDbLine
 10
-285.1213282247767
 20
-70.05108556832698
 30
0.0
 11
-269.5721583652618
 21
-74.88825031928484
 31
0.0
  0
LINE
  5
146
330
664
100
AcDbEntity
  8
0
 62
    13
420
 13395558
100
AcDbLine
 10
-269.5721583652618
 20
-74.88825031928484
 30
0.0
 11
-254.5977011494254
 21
-76.50063856960412
 31
0.0
  0
LINE
  5
147
330
664
100
AcDbEntity
  8
0
 62
    13
420
 13395558
100
AcDbLine
 10
-254.5977011494254
 20
-76.50063856960412
 30
0.0
 11
-236.2068965517241
 21
-74.31353767560667
 31
0.0
  0
LINE
  5
148
330
664
100
AcDbEntity
  8
0
 62
    13
420
 13395558
100
AcDbLine
 10
-236.2068965517241
 20
-74.31353767560667
 30
0.0
 11
-228.9272030651342
 21
-71.57966155810985
 31
0.0
  0
LINE
  5
149
330
664
100
AcDbEntity
  8
0
 62
    13
420
 13395558
100
AcDbLine
 10
-228.9272030651342
 20
-71.57966155810985
 30
0.0
 11
-222.9246487867177
 21
-67.75223499361432
 31
0.0
  0
LINE
  5
14A
330
664
100
AcDbEntity
  8
0
 62
    13
420
 13395558
100
AcDbLine
 10
-222.9246487867177
 20
-67.75223499361432
 30
0.0
 11
-214.8786717752236
 21
-57.61494252873565
 31
0.0
  0
LINE
  5
14B
330
664
100
AcDbEntity
  8
0
 62
    13
420
 13395558
100
AcDbLine
 10
-214.8786717752236
 20
-57.61494252873565
 30
0.0
 11
-212.1966794380589
 21
-44.69987228607921
 31
0.0
  0
LINE
  5
14C
330
664
100
AcDbEntity
  8
0
 62
    13
420
 13395558
100
AcDbLine
 10
-212.1966794380589
 20
-44.69987228607921
 30
0.0
 11
-213.6015325670498
 21
-34.38697318007665
 31
0.0
  0
LINE
  5
14D
330
664
100
AcDbEntity
  8
0
 62
    13
420
 13395558
100
AcDbLine
 10
-213.6015325670498
 20
-34.38697318007665
 30
0.0
 11
-217.8160919540229
 21
-26.1813537675607
 31
0.0
  0
LINE
  5
14E
330
664
100
AcDbEntity
  8
0
 62
    13
420
 13395558
100
AcDbLine
 10
-217.8160919540229
 20
-26.1813537675607
 30
0.0
 11
-225.0957854406128
 21
-19.95530012771395
 31
0.0
  0
LINE
  5
14F
330
664
100
AcDbEntity
  8
0
 62
    13
420
 13395558
100
AcDbLine
 10
-225.0957854406128
 20
-19.95530012771395
 30
0.0
 11
-235.6960408684546
 21
-15.58109833971907
 31
0.0
  0
LINE
  5
150
330
664
100
AcDbEntity
  8
0
 62
    13
420
 13395558
100
AcDbLine
 10
-235.6960408684546
 20
-15.58109833971907
 30
0.0
 11
-251.7879948914432
 21
-11.36653895274587
 31
0.0
  0
LINE
  5
151
330
664
100
AcDbEntity
  8
0
 62
    13
420
 13395558
100
AcDbLine
 10
-251.7879948914432
 20
-11.36653895274587
 30
0.0
 11
-270.0510855683269
 21
-6.89655172413795
 31
0.0
  0
LINE
  5
152
330
664
100
AcDbEntity
  8
0
 62
    13
420
 13395558
100
AcDbLine
 10
-270.0510855683269
 20
-6.89655172413795
 30
0.0
 11
-287.675606641124
 21
-0.3831417624521434
 31
0.0
  0
LINE
  5
153
330
664
100
AcDbEntity
  8
0
 62
    13
420
 13395558
100
AcDbLine
 10
-287.675606641124
 20
-0.3831417624521434
 30
0.0
 11
-295.0191570881227
 21
4.182630906768789
 31
0.0
  0
LINE
  5
154
330
664
100
AcDbEntity
  8
0
 62
    13
420
 13395558
100
AcDbLine
 10
-295.0191570881227
 20
4.182630906768789
 30
0.0
 11
-301.4687100893997
 21
9.961685823754793
 31
0.0
  0
LINE
  5
155
330
664
100
AcDbEntity
  8
0
 62
    13
420
 13395558
100
AcDbLine
 10
-301.4687100893997
 20
9.961685823754793
 30
0.0
 11
-306.6890166028098
 21
16.77841634738178
 31
0.0
  0
LINE
  5
156
330
664
100
AcDbEntity
  8
0
 62
    13
420
 13395558
100
AcDbLine
 10
-306.6890166028098
 20
16.77841634738178
 30
0.0
 11
-310.6002554278415
 21
24.71264367816089
 31
0.0
  0
LINE
  5
157
330
664
100
AcDbEntity
  8
0
 62
    13
420
 13395558
100
AcDbLine
 10
-310.6002554278415
 20
24.71264367816089
 30
0.0
 11
-313.0427841634741
 21
33.860153256705
 31
0.0
  0
LINE
  5
158
330
664
100
AcDbEntity
  8
0
 62
    13
420
 13395558
100
AcDbLine
 10
-313.0427841634741
 20
33.860153256705
 30
0.0
 11
-313.8569604086846
 21
44.31673052362709
 31
0.0
  0
LINE
  5
159
330
664
100
AcDbEntity
  8
0
 62
    13
420
 13395558
100
AcDbLine
 10
-313.8569604086846
 20
44.31673052362709
 30
0.0
 11
-312.7314814814816
 21
55.4078863346105
 31
0.0
  0
LINE
  5
15A
330
664
100
AcDbEntity
  8
0
 62
    13
420
 13395558
100
AcDbLine
 10
-26.50063856960448
 20
95.27458492975728
 30
0.0
 11
-26.50063856960448
 21
72.79693486590038
 31
0.0
  0
LINE
  5
15B
330
664
100
AcDbEntity
  8
0
 62
    13
420
 13395558
100
AcDbLine
 10
-26.50063856960448
 20
72.79693486590038
 30
0.0
 11
-90.35759897828842
 21
72.79693486590038
 31
0.0
  0
LINE
  5
15C
330
664
100
AcDbEntity
  8
0
 62
    13
420
 13395558
100
AcDbLine
 10
-90.35759897828842
 20
72.79693486590038
 30
0.0
 11
-90.35759897828842
 21
-94.89144316730527
 31
0.0
  0
LINE
  5
15D
330
664
100
AcDbEntity
  8
0
 62
    13
420
 13395558
100
AcDbLine
 10
-90.35759897828842
 20
-94.89144316730527
 30
0.0
 11
-115.6449553001275
 21
-94.89144316730525
 31
0.0
  0
LINE
  5
15E
330
664
100
AcDbEntity
  8
0
 62
    13
420
 13395558
100
AcDbLine
 10
-115.6449553001275
 20
-94.89144316730525
 30
0.0
 11
-115.6449553001275
 21
72.79693486590038
 31
0.0
  0
LINE
  5
15F
330
664
100
AcDbEntity
  8
0
 62
    13
420
 13395558
100
AcDbLine
 10
-115.6449553001275
 20
72.79693486590038
 30
0.0
 11
-179.5019157088122
 21
72.79693486590038
 31
0.0
  0
LINE
  5
160
330
664
100
AcDbEntity
  8
0
 62
    13
420
 13395558
100
AcDbLine
 10
-179.5019157088122
 20
72.79693486590038
 30
0.0
 11
-179.5019157088122
 21
95.27458492975728
 31
0.0
  0
LINE
  5
161
330
664
100
AcDbEntity
  8
0
 62
    13
420
 13395558
100
AcDbLine
 10
-179.5019157088122
 20
95.27458492975728
 30
0.0
 11
-26.50063856960448
 21
95.27458492975728
 31
0.0
  0
LINE
  5
162
330
664
100
AcDbEntity
  8
0
 62
    13
420
 13395558
100
AcDbLine
 10
36.20689655172342
 20
95.27458492975728
 30
0.0
 11
67.36909323116248
 21
95.27458492975728
 31
0.0
  0
LINE
  5
163
330
664
100
AcDbEntity
  8
0
 62
    13
420
 13395558
100
AcDbLine
 10
67.36909323116248
 20
95.27458492975728
 30
0.0
 11
131.4814814814815
 21
-94.89144316730527
 31
0.0
  0
LINE
  5
164
330
664
100
AcDbEntity
  8
0
 62
    13
420
 13395558
100
AcDbLine
 10
131.4814814814815
 20
-94.89144316730527
 30
0.0
 11
104.7892720306515
 21
-94.89144316730525
 31
0.0
  0
LINE
  5
165
330
664
100
AcDbEntity
  8
0
 62
    13
420
 13395558
100
AcDbLine
 10
104.7892720306515
 20
-94.89144316730525
 30
0.0
 11
87.54789272030642
 21
-41.76245210727974
 31
0.0
  0
LINE
  5
166
330
664
100
AcDbEntity
  8
0
 62
     0
100
AcDbLine
 10
87.54789272030642
 20
-41.76245210727974
 30
0.0
 11
80.52362707535151
 21
-20.17879948914434
 31
0.0
  0
LINE
  5
167
330
664
100
AcDbEntity
  8
0
 62
    13
420
 13395558
100
AcDbLine
 10
80.52362707535151
 20
-20.17879948914434
 30
0.0
 11
51.14942528735658
 21
69.47637292464879
 31
0.0
  0
LINE
  5
168
330
664
100
AcDbEntity
  8
0
 62
    13
420
 13395558
100
AcDbLine
 10
51.14942528735658
 20
69.47637292464879
 30
0.0
 11
21.90293742017836
 21
-20.17879948914434
 31
0.0
  0
LINE
  5
169
330
664
100
AcDbEntity
  8
0
 62
     0
100
AcDbLine
 10
21.90293742017836
 20
-20.17879948914434
 30
0.0
 11
14.87867177522344
 21
-41.76245210727974
 31
0.0
  0
LINE
  5
16A
330
664
100
AcDbEntity
  8
0
 62
    13
420
 13395558
100
AcDbLine
 10
14.87867177522344
 20
-41.76245210727974
 30
0.0
 11
-2.362707535121422
 21
-94.89144316730525
 31
0.0
  0
LINE
  5
16B
330
664
100
AcDbEntity
  8
0
 62
    13
420
 13395558
100
AcDbLine
 10
-2.362707535121422
 20
-94.89144316730525
 30
0.0
 11
-27.90549169859539
 21
-94.89144316730525
 31
0.0
  0
LINE
  5
16C
330
664
100
AcDbEntity
  8
0
 62
    13
420
 13395558
100
AcDbLine
 10
-27.90549169859539
 20
-94.89144316730525
 30
0.0
 11
36.20689655172342
 21
95.27458492975728
 31
0.0
  0
LINE
  5
16D
330
664
100
AcDbEntity
  8
0
 62
    13
420
 13395558
100
AcDbLine
 10
21.90293742017836
 20
-20.17879948914434
 30
0.0
 11
80.52362707535151
 21
-20.17879948914434
 31
0.0
  0
LINE
  5
16E
330
664
100
AcDbEntity
  8
0
 62
     0
100
AcDbLine
 10
87.54789272030642
 20
-41.76245210727974
 30
0.0
 11
80.52362707535151
 21
-20.17879948914434
 31
0.0
  0
LINE
  5
16F
330
664
100
AcDbEntity
  8
0
 62
    13
420
 13395558
100
AcDbLine
 10
87.54789272030642
 20
-41.76245210727974
 30
0.0
 11
14.87867177522344
 21
-41.76245210727974
 31
0.0
  0
LINE
  5
170
330
664
100
AcDbEntity
  8
0
 62
     0
100
AcDbLine
 10
21.90293742017836
 20
-20.17879948914434
 30
0.0
 11
14.87867177522344
 21
-41.76245210727974
 31
0.0
  0
LINE
  5
171
330
664
100
AcDbEntity
  8
0
 62
    13
420
 13395558
100
AcDbLine
 10
285.5044699872285
 20
95.27458492975728
 30
0.0
 11
285.5044699872285
 21
-94.89144316730525
 31
0.0
  0
LINE
  5
172
330
664
100
AcDbEntity
  8
0
 62
    13
420
 13395558
100
AcDbLine
 10
285.5044699872285
 20
-94.89144316730525
 30
0.0
 11
257.1519795657725
 21
-94.89144316730525
 31
0.0
  0
LINE
  5
173
330
664
100
AcDbEntity
  8
0
 62
    13
420
 13395558
100
AcDbLine
 10
257.1519795657725
 20
-94.89144316730525
 30
0.0
 11
173.1162196679436
 21
69.09323116219669
 31
0.0
  0
LINE
  5
174
330
664
100
AcDbEntity
  8
0
 62
    13
420
 13395558
100
AcDbLine
 10
173.1162196679436
 20
69.09323116219669
 30
0.0
 11
173.1162196679436
 21
-94.89144316730527
 31
0.0
  0
LINE
  5
175
330
664
100
AcDbEntity
  8
0
 62
    13
420
 13395558
100
AcDbLine
 10
173.1162196679436
 20
-94.89144316730527
 30
0.0
 11
149.4891443167304
 21
-94.89144316730525
 31
0.0
  0
LINE
  5
176
330
664
100
AcDbEntity
  8
0
 62
    13
420
 13395558
100
AcDbLine
 10
149.4891443167304
 20
-94.89144316730525
 30
0.0
 11
149.4891443167304
 21
95.27458492975728
 31
0.0
  0
LINE
  5
177
330
664
100
AcDbEntity
  8
0
 62
    13
420
 13395558
100
AcDbLine
 10
149.4891443167304
 20
95.27458492975728
 30
0.0
 11
185.3767560664114
 21
95.27458492975728
 31
0.0
  0
LINE
  5
178
330
664
100
AcDbEntity
  8
0
 62
    13
420
 13395558
100
AcDbLine
 10
185.3767560664114
 20
95.27458492975728
 30
0.0
 11
261.8773946360154
 21
-55.30012771392084
 31
0.0
  0
LINE
  5
179
330
664
100
AcDbEntity
  8
0
 62
    13
420
 13395558
100
AcDbLine
 10
261.8773946360154
 20
-55.30012771392084
 30
0.0
 11
261.8773946360154
 21
95.27458492975728
 31
0.0
  0
LINE
  5
17A
330
664
100
AcDbEntity
  8
0
 62
    13
420
 13395558
100
AcDbLine
 10
261.8773946360154
 20
95.27458492975728
 30
0.0
 11
285.5044699872285
 21
95.27458492975728
 31
0.0
  0
LINE
  5
17B
330
664
100
AcDbEntity
  8
0
 62
    13
420
 13395558
100
AcDbLine
 10
324.0740740740733
 20
95.27458492975728
 30
0.0
 11
367.3690932311625
 21
95.27458492975728
 31
0.0
  0
LINE
  5
17C
330
664
100
AcDbEntity
  8
0
 62
    13
420
 13395558
100
AcDbLine
 10
367.3690932311625
 20
95.27458492975728
 30
0.0
 11
391.2994891443166
 21
94.2688378033206
 31
0.0
  0
LINE
  5
17D
330
664
100
AcDbEntity
  8
0
 62
    13
420
 13395558
100
AcDbLine
 10
391.2994891443166
 20
94.2688378033206
 30
0.0
 11
409.4508301404855
 21
91.25159642401019
 31
0.0
  0
LINE
  5
17E
330
664
100
AcDbEntity
  8
0
 62
    13
420
 13395558
100
AcDbLine
 10
409.4508301404855
 20
91.25159642401019
 30
0.0
 11
423.5791826309065
 21
86.47828863346098
 31
0.0
  0
LINE
  5
17F
330
664
100
AcDbEntity
  8
0
 62
    13
420
 13395558
100
AcDbLine
 10
423.5791826309065
 20
86.47828863346098
 30
0.0
 11
435.4406130268204
 21
80.20434227330779
 31
0.0
  0
LINE
  5
180
330
664
100
AcDbEntity
  8
0
 62
    13
420
 13395558
100
AcDbLine
 10
435.4406130268204
 20
80.20434227330779
 30
0.0
 11
451.7560664112385
 21
66.07598978288628
 31
0.0
  0
LINE
  5
181
330
664
100
AcDbEntity
  8
0
 62
    13
420
 13395558
100
AcDbLine
 10
451.7560664112385
 20
66.07598978288628
 30
0.0
 11
463.9208173690935
 21
47.95657726692207
 31
0.0
  0
LINE
  5
182
330
664
100
AcDbEntity
  8
0
 62
    13
420
 13395558
100
AcDbLine
 10
463.9208173690935
 20
47.95657726692207
 30
0.0
 11
468.3349297573436
 21
37.41618773946357
 31
0.0
  0
LINE
  5
183
330
664
100
AcDbEntity
  8
0
 62
    13
420
 13395558
100
AcDbLine
 10
468.3349297573436
 20
37.41618773946357
 30
0.0
 11
471.4878671775224
 21
25.90996168582378
 31
0.0
  0
LINE
  5
184
330
664
100
AcDbEntity
  8
0
 62
    13
420
 13395558
100
AcDbLine
 10
471.4878671775224
 20
25.90996168582378
 30
0.0
 11
474.0102171136654
 21
-0.0000000000000338
 31
0.0
  0
LINE
  5
185
330
664
100
AcDbEntity
  8
0
 62
    13
420
 13395558
100
AcDbLine
 10
474.0102171136654
 20
-0.0000000000000338
 30
0.0
 11
471.3761174968075
 21
-24.77650063856963
 31
0.0
  0
LINE
  5
186
330
664
100
AcDbEntity
  8
0
 62
    13
420
 13395558
100
AcDbLine
 10
471.3761174968075
 20
-24.77650063856963
 30
0.0
 11
463.4738186462325
 21
-46.99872286079187
 31
0.0
  0
LINE
  5
187
330
664
100
AcDbEntity
  8
0
 62
    13
420
 13395558
100
AcDbLine
 10
463.4738186462325
 20
-46.99872286079187
 30
0.0
 11
451.1334610472544
 21
-65.64495530012775
 31
0.0
  0
LINE
  5
188
330
664
100
AcDbEntity
  8
0
 62
    13
420
 13395558
100
AcDbLine
 10
451.1334610472544
 20
-65.64495530012775
 30
0.0
 11
435.1851851851844
 21
-79.69348659003833
 31
0.0
  0
LINE
  5
189
330
664
100
AcDbEntity
  8
0
 62
    13
420
 13395558
100
AcDbLine
 10
435.1851851851844
 20
-79.69348659003833
 30
0.0
 11
420.6417624521076
 21
-87.26053639846747
 31
0.0
  0
LINE
  5
18A
330
664
100
AcDbEntity
  8
0
 62
    13
420
 13395558
100
AcDbLine
 10
420.6417624521076
 20
-87.26053639846747
 30
0.0
 11
405.8748403575985
 21
-91.8263090676884
 31
0.0
  0
LINE
  5
18B
330
664
100
AcDbEntity
  8
0
 62
    13
420
 13395558
100
AcDbLine
 10
405.8748403575985
 20
-91.8263090676884
 30
0.0
 11
388.9367816091955
 21
-94.12515964240104
 31
0.0
  0
LINE
  5
18C
330
664
100
AcDbEntity
  8
0
 62
    13
420
 13395558
100
AcDbLine
 10
388.9367816091955
 20
-94.12515964240104
 30
0.0
 11
367.8799489144315
 21
-94.89144316730525
 31
0.0
  0
LINE
  5
18D
330
664
100
AcDbEntity
  8
0
 62
     0
100
AcDbLine
 10
367.8799489144315
 20
-94.89144316730525
 30
0.0
 11
349.3614303959125
 21
-73.18007662835252
 31
0.0
  0
LINE
  5
18E
330
664
100
AcDbEntity
  8
0
 62
    13
420
 13395558
100
AcDbLine
 10
349.3614303959125
 20
-73.18007662835252
 30
0.0
 11
368.6462324393356
 21
-73.18007662835252
 31
0.0
  0
LINE
  5
18F
330
664
100
AcDbEntity
  8
0
 62
    13
420
 13395558
100
AcDbLine
 10
368.6462324393356
 20
-73.18007662835252
 30
0.0
 11
384.4508301404856
 21
-72.50957854406131
 31
0.0
  0
LINE
  5
190
330
664
100
AcDbEntity
  8
0
 62
    13
420
 13395558
100
AcDbLine
 10
384.4508301404856
 20
-72.50957854406131
 30
0.0
 11
398.1481481481485
 21
-70.49808429118777
 31
0.0
  0
LINE
  5
191
330
664
100
AcDbEntity
  8
0
 62
    13
420
 13395558
100
AcDbLine
 10
398.1481481481485
 20
-70.49808429118777
 30
0.0
 11
410.2490421455946
 21
-66.66666666666669
 31
0.0
  0
LINE
  5
192
330
664
100
AcDbEntity
  8
0
 62
    13
420
 13395558
100
AcDbLine
 10
410.2490421455946
 20
-66.66666666666669
 30
0.0
 11
421.2643678160926
 21
-60.53639846743298
 31
0.0
  0
LINE
  5
193
330
664
100
AcDbEntity
  8
0
 62
    13
420
 13395558
100
AcDbLine
 10
421.2643678160926
 20
-60.53639846743298
 30
0.0
 11
432.7905491698594
 21
-50.11174968071523
 31
0.0
  0
LINE
  5
194
330
664
100
AcDbEntity
  8
0
 62
    13
420
 13395558
100
AcDbLine
 10
432.7905491698594
 20
-50.11174968071523
 30
0.0
 11
441.0600255427846
 21
-36.71775223499363
 31
0.0
  0
LINE
  5
195
330
664
100
AcDbEntity
  8
0
 62
    13
420
 13395558
100
AcDbLine
 10
441.0600255427846
 20
-36.71775223499363
 30
0.0
 11
446.0408684546614
 21
-20.00319284802046
 31
0.0
  0
LINE
  5
196
330
664
100
AcDbEntity
  8
0
 62
    13
420
 13395558
100
AcDbLine
 10
446.0408684546614
 20
-20.00319284802046
 30
0.0
 11
447.7011494252874
 21
0.3831417624520758
 31
0.0
  0
LINE
  5
197
330
664
100
AcDbEntity
  8
0
 62
    13
420
 13395558
100
AcDbLine
 10
447.7011494252874
 20
0.3831417624520758
 30
0.0
 11
445.8812260536395
 21
20.73754789272029
 31
0.0
  0
LINE
  5
198
330
664
100
AcDbEntity
  8
0
 62
    13
420
 13395558
100
AcDbLine
 10
445.8812260536395
 20
20.73754789272029
 30
0.0
 11
440.4214559386976
 21
37.8671775223499
 31
0.0
  0
LINE
  5
199
330
664
100
AcDbEntity
  8
0
 62
    13
420
 13395558
100
AcDbLine
 10
440.4214559386976
 20
37.8671775223499
 30
0.0
 11
431.3856960408684
 21
51.676245210728
 31
0.0
  0
LINE
  5
19A
330
664
100
AcDbEntity
  8
0
 62
    13
420
 13395558
100
AcDbLine
 10
431.3856960408684
 20
51.676245210728
 30
0.0
 11
418.8378033205615
 21
62.06896551724138
 31
0.0
  0
LINE
  5
19B
330
664
100
AcDbEntity
  8
0
 62
    13
420
 13395558
100
AcDbLine
 10
418.8378033205615
 20
62.06896551724138
 30
0.0
 11
408.3971902937415
 21
67.3371647509578
 31
0.0
  0
LINE
  5
19C
330
664
100
AcDbEntity
  8
0
 62
    13
420
 13395558
100
AcDbLine
 10
408.3971902937415
 20
67.3371647509578
 30
0.0
 11
397.2541507024266
 21
70.88122605363979
 31
0.0
  0
LINE
  5
19D
330
664
100
AcDbEntity
  8
0
 62
    13
420
 13395558
100
AcDbLine
 10
397.2541507024266
 20
70.88122605363979
 30
0.0
 11
384.3550446998725
 21
72.8927203065134
 31
0.0
  0
LINE
  5
19E
330
664
100
AcDbEntity
  8
0
 62
    13
420
 13395558
100
AcDbLine
 10
384.3550446998725
 20
72.8927203065134
 30
0.0
 11
368.6462324393356
 21
73.56321839080461
 31
0.0
  0
LINE
  5
19F
330
664
100
AcDbEntity
  8
0
 62
    13
420
 13395558
100
AcDbLine
 10
368.6462324393356
 20
73.56321839080461
 30
0.0
 11
349.3614303959125
 21
73.56321839080461
 31
0.0
  0
LINE
  5
1A0
330
664
100
AcDbEntity
  8
0
 62
     0
100
AcDbLine
 10
349.3614303959125
 20
73.56321839080461
 30
0.0
 11
324.0740740740733
 21
-94.89144316730525
 31
0.0
  0
LINE
  5
1A1
330
664
100
AcDbEntity
  8
0
 62
    13
420
 13395558
100
AcDbLine
 10
324.0740740740733
 20
-94.89144316730525
 30
0.0
 11
324.0740740740733
 21
95.27458492975728
 31
0.0
  0
LINE
  5
1A2
330
664
100
AcDbEntity
  8
0
 62
     0
100
AcDbLine
 10
349.3614303959125
 20
73.56321839080461
 30
0.0
 11
324.0740740740733
 21
-94.89144316730525
 31
0.0
  0
LINE
  5
1A3
330
664
100
AcDbEntity
  8
0
 62
    13
420
 13395558
100
AcDbLine
 10
349.3614303959125
 20
73.56321839080461
 30
0.0
 11
349.3614303959125
 21
-73.18007662835252
 31
0.0
  0
LINE
  5
1A4
330
664
100
AcDbEntity
  8
0
 62
     0
100
AcDbLine
 10
367.8799489144315
 20
-94.89144316730525
 30
0.0
 11
349.3614303959125
 21
-73.18007662835252
 31
0.0
  0
LINE
  5
1A5
330
664
100
AcDbEntity
  8
0
 62
    13
420
 13395558
100
AcDbLine
 10
367.8799489144315
 20
-94.89144316730525
 30
0.0
 11
324.0740740740733
 21
-94.89144316730525
 31
0.0
  0
LINE
  5
1A6
330
664
100
AcDbEntity
  8
0
 62
    13
420
 13395558
100
AcDbLine
 10
545.0191570881223
 20
95.27458492975728
 30
0.0
 11
576.1813537675604
 21
95.27458492975728
 31
0.0
  0
LINE
  5
1A7
330
664
100
AcDbEntity
  8
0
 62
    13
420
 13395558
100
AcDbLine
 10
576.1813537675604
 20
95.27458492975728
 30
0.0
 11
640.2937420178805
 21
-94.89144316730527
 31
0.0
  0
LINE
  5
1A8
330
664
100
AcDbEntity
  8
0
 62
    13
420
 13395558
100
AcDbLine
 10
640.2937420178805
 20
-94.89144316730527
 30
0.0
 11
613.6015325670496
 21
-94.89144316730525
 31
0.0
  0
LINE
  5
1A9
330
664
100
AcDbEntity
  8
0
 62
    13
420
 13395558
100
AcDbLine
 10
613.6015325670496
 20
-94.89144316730525
 30
0.0
 11
596.3601532567044
 21
-41.76245210727974
 31
0.0
  0
LINE
  5
1AA
330
664
100
AcDbEntity
  8
0
 62
     0
100
AcDbLine
 10
596.3601532567044
 20
-41.76245210727974
 30
0.0
 11
589.3358876117494
 21
-20.17879948914434
 31
0.0
  0
LINE
  5
1AB
330
664
100
AcDbEntity
  8
0
 62
    13
420
 13395558
100
AcDbLine
 10
589.3358876117494
 20
-20.17879948914434
 30
0.0
 11
559.9616858237547
 21
69.47637292464879
 31
0.0
  0
LINE
  5
1AC
330
664
100
AcDbEntity
  8
0
 62
    13
420
 13395558
100
AcDbLine
 10
559.9616858237547
 20
69.47637292464879
 30
0.0
 11
530.7151979565772
 21
-20.17879948914434
 31
0.0
  0
LINE
  5
1AD
330
664
100
AcDbEntity
  8
0
 62
     0
100
AcDbLine
 10
530.7151979565772
 20
-20.17879948914434
 30
0.0
 11
523.6909323116216
 21
-41.76245210727974
 31
0.0
  0
LINE
  5
1AE
330
664
100
AcDbEntity
  8
0
 62
    13
420
 13395558
100
AcDbLine
 10
523.6909323116216
 20
-41.76245210727974
 30
0.0
 11
506.4495530012774
 21
-94.89144316730525
 31
0.0
  0
LINE
  5
1AF
330
664
100
AcDbEntity
  8
0
 62
    13
420
 13395558
100
AcDbLine
 10
506.4495530012774
 20
-94.89144316730525
 30
0.0
 11
480.9067688378036
 21
-94.89144316730525
 31
0.0
  0
LINE
  5
1B0
330
664
100
AcDbEntity
  8
0
 62
    13
420
 13395558
100
AcDbLine
 10
480.9067688378036
 20
-94.89144316730525
 30
0.0
 11
545.0191570881223
 21
95.27458492975728
 31
0.0
  0
LINE
  5
1B1
330
664
100
AcDbEntity
  8
0
 62
    13
420
 13395558
100
AcDbLine
 10
530.7151979565772
 20
-20.17879948914434
 30
0.0
 11
589.3358876117494
 21
-20.17879948914434
 31
0.0
  0
LINE
  5
1B2
330
664
100
AcDbEntity
  8
0
 62
     0
100
AcDbLine
 10
596.3601532567044
 20
-41.76245210727974
 30
0.0
 11
589.3358876117494
 21
-20.17879948914434
 31
0.0
  0
LINE
  5
1B3
330
664
100
AcDbEntity
  8
0
 62
    13
420
 13395558
100
AcDbLine
 10
596.3601532567044
 20
-41.76245210727974
 30
0.0
 11
523.6909323116216
 21
-41.76245210727974
 31
0.0
  0
LINE
  5
1B4
330
664
100
AcDbEntity
  8
0
 62
     0
100
AcDbLine
 10
530.7151979565772
 20
-20.17879948914434
 30
0.0
 11
523.6909323116216
 21
-41.76245210727974
 31
0.0
  0
LINE
  5
1B5
330
664
100
AcDbEntity
  8
0
 62
    13
420
 13395558
100
AcDbLine
 10
701.8518518518515
 20
95.27458492975728
 30
0.0
 11
733.0140485312896
 21
95.27458492975728
 31
0.0
  0
LINE
  5
1B6
330
664
100
AcDbEntity
  8
0
 62
    13
420
 13395558
100
AcDbLine
 10
733.0140485312896
 20
95.27458492975728
 30
0.0
 11
797.1264367816093
 21
-94.89144316730527
 31
0.0
  0
LINE
  5
1B7
330
664
100
AcDbEntity
  8
0
 62
    13
420
 13395558
100
AcDbLine
 10
797.1264367816093
 20
-94.89144316730527
 30
0.0
 11
770.4342273307795
 21
-94.89144316730525
 31
0.0
  0
LINE
  5
1B8
330
664
100
AcDbEntity
  8
0
 62
    13
420
 13395558
100
AcDbLine
 10
770.4342273307795
 20
-94.89144316730525
 30
0.0
 11
753.1928480204343
 21
-41.76245210727974
 31
0.0
  0
LINE
  5
1B9
330
664
100
AcDbEntity
  8
0
 62
     0
100
AcDbLine
 10
753.1928480204343
 20
-41.76245210727974
 30
0.0
 11
746.1685823754786
 21
-20.17879948914434
 31
0.0
  0
LINE
  5
1BA
330
664
100
AcDbEntity
  8
0
 62
    13
420
 13395558
100
AcDbLine
 10
746.1685823754786
 20
-20.17879948914434
 30
0.0
 11
716.7943805874846
 21
69.47637292464879
 31
0.0
  0
LINE
  5
1BB
330
664
100
AcDbEntity
  8
0
 62
    13
420
 13395558
100
AcDbLine
 10
716.7943805874846
 20
69.47637292464879
 30
0.0
 11
687.5478927203064
 21
-20.17879948914434
 31
0.0
  0
LINE
  5
1BC
330
664
100
AcDbEntity
  8
0
 62
     0
100
AcDbLine
 10
687.5478927203064
 20
-20.17879948914434
 30
0.0
 11
680.5236270753504
 21
-41.76245210727974
 31
0.0
  0
LINE
  5
1BD
330
664
100
AcDbEntity
  8
0
 62
    13
420
 13395558
100
AcDbLine
 10
680.5236270753504
 20
-41.76245210727974
 30
0.0
 11
663.2822477650067
 21
-94.89144316730525
 31
0.0
  0
LINE
  5
1BE
330
664
100
AcDbEntity
  8
0
 62
    13
420
 13395558
100
AcDbLine
 10
663.2822477650067
 20
-94.89144316730525
 30
0.0
 11
637.7394636015325
 21
-94.89144316730525
 31
0.0
  0
LINE
  5
1BF
330
664
100
AcDbEntity
  8
0
 62
    13
420
 13395558
100
AcDbLine
 10
637.7394636015325
 20
-94.89144316730525
 30
0.0
 11
701.8518518518515
 21
95.27458492975728
 31
0.0
  0
LINE
  5
1C0
330
664
100
AcDbEntity
  8
0
 62
    13
420
 13395558
100
AcDbLine
 10
687.5478927203064
 20
-20.17879948914434
 30
0.0
 11
746.1685823754786
 21
-20.17879948914434
 31
0.0
  0
LINE
  5
1C1
330
664
100
AcDbEntity
  8
0
 62
     0
100
AcDbLine
 10
753.1928480204343
 20
-41.76245210727974
 30
0.0
 11
746.1685823754786
 21
-20.17879948914434
 31
0.0
  0
LINE
  5
1C2
330
664
100
AcDbEntity
  8
0
 62
    13
420
 13395558
100
AcDbLine
 10
753.1928480204343
 20
-41.76245210727974
 30
0.0
 11
680.5236270753504
 21
-41.76245210727974
 31
0.0
  0
LINE
  5
1C3
330
664
100
AcDbEntity
  8
0
 62
     0
100
AcDbLine
 10
687.5478927203064
 20
-20.17879948914434
 30
0.0
 11
680.5236270753504
 21
-41.76245210727974
 31
0.0
  0
LINE
  5
1C4
330
664
100
AcDbEntity
  8
0
 62
    13
420
 13395558
100
AcDbLine
 10
815.1340996168585
 20
95.27458492975728
 30
0.0
 11
864.1762452107274
 21
95.27458492975728
 31
0.0
  0
LINE
  5
1C5
330
664
100
AcDbEntity
  8
0
 62
    13
420
 13395558
100
AcDbLine
 10
864.1762452107274
 20
95.27458492975728
 30
0.0
 11
891.5708812260533
 21
93.48659003831419
 31
0.0
  0
LINE
  5
1C6
330
664
100
AcDbEntity
  8
0
 62
    13
420
 13395558
100
AcDbLine
 10
891.5708812260533
 20
93.48659003831419
 30
0.0
 11
902.3467432950196
 21
90.5172413793103
 31
0.0
  0
LINE
  5
1C7
330
664
100
AcDbEntity
  8
0
 62
    13
420
 13395558
100
AcDbLine
 10
902.3467432950196
 20
90.5172413793103
 30
0.0
 11
912.5798212005104
 21
85.18518518518519
 31
0.0
  0
LINE
  5
1C8
330
664
100
AcDbEntity
  8
0
 62
    13
420
 13395558
100
AcDbLine
 10
912.5798212005104
 20
85.18518518518519
 30
0.0
 11
921.5038314176244
 21
77.8735632183908
 31
0.0
  0
LINE
  5
1C9
330
664
100
AcDbEntity
  8
0
 62
    13
420
 13395558
100
AcDbLine
 10
921.5038314176244
 20
77.8735632183908
 30
0.0
 11
928.3524904214554
 21
68.71008939974459
 31
0.0
  0
LINE
  5
1CA
330
664
100
AcDbEntity
  8
0
 62
    13
420
 13395558
100
AcDbLine
 10
928.3524904214554
 20
68.71008939974459
 30
0.0
 11
932.7107279693485
 21
57.4074074074074
 31
0.0
  0
LINE
  5
1CB
330
664
100
AcDbEntity
  8
0
 62
    13
420
 13395558
100
AcDbLine
 10
932.7107279693485
 20
57.4074074074074
 30
0.0
 11
934.1634738186467
 21
43.67816091954019
 31
0.0
  0
LINE
  5
1CC
330
664
100
AcDbEntity
  8
0
 62
    13
420
 13395558
100
AcDbLine
 10
934.1634738186467
 20
43.67816091954019
 30
0.0
 11
931.5134099616857
 21
24.4572158365262
 31
0.0
  0
LINE
  5
1CD
330
664
100
AcDbEntity
  8
0
 62
    13
420
 13395558
100
AcDbLine
 10
931.5134099616857
 20
24.4572158365262
 30
0.0
 11
928.2008301404852
 21
16.139846743295
 31
0.0
  0
LINE
  5
1CE
330
664
100
AcDbEntity
  8
0
 62
    13
420
 13395558
100
AcDbLine
 10
928.2008301404852
 20
16.139846743295
 30
0.0
 11
923.5632183908046
 21
8.684546615581095
 31
0.0
  0
LINE
  5
1CF
330
664
100
AcDbEntity
  8
0
 62
    13
420
 13395558
100
AcDbLine
 10
923.5632183908046
 20
8.684546615581095
 30
0.0
 11
911.0472541507023
 21
-3.544061302682008
 31
0.0
  0
LINE
  5
1D0
330
664
100
AcDbEntity
  8
0
 62
    13
420
 13395558
100
AcDbLine
 10
911.0472541507023
 20
-3.544061302682008
 30
0.0
 11
894.6998722860793
 21
-12.13282247765008
 31
0.0
  0
LINE
  5
1D1
330
664
100
AcDbEntity
  8
0
 62
    13
420
 13395558
100
AcDbLine
 10
894.6998722860793
 20
-12.13282247765008
 30
0.0
 11
962.3882503192843
 21
-94.89144316730525
 31
0.0
  0
LINE
  5
1D2
330
664
100
AcDbEntity
  8
0
 62
    13
420
 13395558
100
AcDbLine
 10
962.3882503192843
 20
-94.89144316730525
 30
0.0
 11
929.5657726692215
 21
-94.89144316730525
 31
0.0
  0
LINE
  5
1D3
330
664
100
AcDbEntity
  8
0
 62
    13
420
 13395558
100
AcDbLine
 10
929.5657726692215
 20
-94.89144316730525
 30
0.0
 11
869.2848020434224
 21
-19.28480204342276
 31
0.0
  0
LINE
  5
1D4
330
664
100
AcDbEntity
  8
0
 62
    13
420
 13395558
100
AcDbLine
 10
869.2848020434224
 20
-19.28480204342276
 30
0.0
 11
840.4214559386974
 21
-19.28480204342276
 31
0.0
  0
LINE
  5
1D5
330
664
100
AcDbEntity
  8
0
 62
     0
100
AcDbLine
 10
840.4214559386974
 20
-19.28480204342276
 30
0.0
 11
840.4214559386974
 21
1.787994891443088
 31
0.0
  0
LINE
  5
1D6
330
664
100
AcDbEntity
  8
0
 62
    13
420
 13395558
100
AcDbLine
 10
840.4214559386974
 20
1.787994891443088
 30
0.0
 11
862.6436781609196
 21
1.787994891443088
 31
0.0
  0
LINE
  5
1D7
330
664
100
AcDbEntity
  8
0
 62
    13
420
 13395558
100
AcDbLine
 10
862.6436781609196
 20
1.787994891443088
 30
0.0
 11
882.1839080459765
 21
3.703703703703692
 31
0.0
  0
LINE
  5
1D8
330
664
100
AcDbEntity
  8
0
 62
    13
420
 13395558
100
AcDbLine
 10
882.1839080459765
 20
3.703703703703692
 30
0.0
 11
890.2298850574717
 21
6.641123882503199
 31
0.0
  0
LINE
  5
1D9
330
664
100
AcDbEntity
  8
0
 62
    13
420
 13395558
100
AcDbLine
 10
890.2298850574717
 20
6.641123882503199
 30
0.0
 11
896.9987228607914
 21
11.6219667943806
 31
0.0
  0
LINE
  5
1DA
330
664
100
AcDbEntity
  8
0
 62
    13
420
 13395558
100
AcDbLine
 10
896.9987228607914
 20
11.6219667943806
 30
0.0
 11
901.7720306513415
 21
17.4968071519795
 31
0.0
  0
LINE
  5
1DB
330
664
100
AcDbEntity
  8
0
 62
    13
420
 13395558
100
AcDbLine
 10
901.7720306513415
 20
17.4968071519795
 30
0.0
 11
905.1085568326944
 21
24.39335887611747
 31
0.0
  0
LINE
  5
1DC
330
664
100
AcDbEntity
  8
0
 62
    13
420
 13395558
100
AcDbLine
 10
905.1085568326944
 20
24.39335887611747
 30
0.0
 11
907.7266922094503
 21
41.76245210727969
 31
0.0
  0
LINE
  5
1DD
330
664
100
AcDbEntity
  8
0
 62
    13
420
 13395558
100
AcDbLine
 10
907.7266922094503
 20
41.76245210727969
 30
0.0
 11
906.9923371647504
 21
49.60089399744567
 31
0.0
  0
LINE
  5
1DE
330
664
100
AcDbEntity
  8
0
 62
    13
420
 13395558
100
AcDbLine
 10
906.9923371647504
 20
49.60089399744567
 30
0.0
 11
904.7892720306513
 21
56.51340996168578
 31
0.0
  0
LINE
  5
1DF
330
664
100
AcDbEntity
  8
0
 62
    13
420
 13395558
100
AcDbLine
 10
904.7892720306513
 20
56.51340996168578
 30
0.0
 11
901.0536398467436
 21
62.37228607918257
 31
0.0
  0
LINE
  5
1E0
330
664
100
AcDbEntity
  8
0
 62
    13
420
 13395558
100
AcDbLine
 10
901.0536398467436
 20
62.37228607918257
 30
0.0
 11
895.7215836526174
 21
67.04980842911878
 31
0.0
  0
LINE
  5
1E1
330
664
100
AcDbEntity
  8
0
 62
    13
420
 13395558
100
AcDbLine
 10
895.7215836526174
 20
67.04980842911878
 30
0.0
 11
883.2056194125154
 21
72.09450830140477
 31
0.0
  0
LINE
  5
1E2
330
664
100
AcDbEntity
  8
0
 62
    13
420
 13395558
100
AcDbLine
 10
883.2056194125154
 20
72.09450830140477
 30
0.0
 11
865.4533844189015
 21
73.56321839080461
 31
0.0
  0
LINE
  5
1E3
330
664
100
AcDbEntity
  8
0
 62
    13
420
 13395558
100
AcDbLine
 10
865.4533844189015
 20
73.56321839080461
 30
0.0
 11
840.4214559386974
 21
73.56321839080461
 31
0.0
  0
LINE
  5
1E4
330
664
100
AcDbEntity
  8
0
 62
     0
100
AcDbLine
 10
840.4214559386974
 20
73.56321839080461
 30
0.0
 11
840.4214559386974
 21
-94.89144316730527
 31
0.0
  0
LINE
  5
1E5
330
664
100
AcDbEntity
  8
0
 62
    13
420
 13395558
100
AcDbLine
 10
840.4214559386974
 20
-94.89144316730527
 30
0.0
 11
815.1340996168585
 21
-94.89144316730525
 31
0.0
  0
LINE
  5
1E6
330
664
100
AcDbEntity
  8
0
 62
    13
420
 13395558
100
AcDbLine
 10
815.1340996168585
 20
-94.89144316730525
 30
0.0
 11
815.1340996168585
 21
95.27458492975728
 31
0.0
  0
LINE
  5
1E7
330
664
100
AcDbEntity
  8
0
 62
    13
420
 13395558
100
AcDbLine
 10
977.4584929757341
 20
95.27458492975728
 30
0.0
 11
1020.753512132822
 21
95.27458492975728
 31
0.0
  0
LINE
  5
1E8
330
664
100
AcDbEntity
  8
0
 62
    13
420
 13395558
100
AcDbLine
 10
1020.753512132822
 20
95.27458492975728
 30
0.0
 11
1044.683908045977
 21
94.2688378033206
 31
0.0
  0
LINE
  5
1E9
330
664
100
AcDbEntity
  8
0
 62
    13
420
 13395558
100
AcDbLine
 10
1044.683908045977
 20
94.2688378033206
 30
0.0
 11
1062.835249042146
 21
91.25159642401019
 31
0.0
  0
LINE
  5
1EA
330
664
100
AcDbEntity
  8
0
 62
    13
420
 13395558
100
AcDbLine
 10
1062.835249042146
 20
91.25159642401019
 30
0.0
 11
1076.963601532566
 21
86.47828863346098
 31
0.0
  0
LINE
  5
1EB
330
664
100
AcDbEntity
  8
0
 62
    13
420
 13395558
100
AcDbLine
 10
1076.963601532566
 20
86.47828863346098
 30
0.0
 11
1088.825031928481
 21
80.20434227330779
 31
0.0
  0
LINE
  5
1EC
330
664
100
AcDbEntity
  8
0
 62
    13
420
 13395558
100
AcDbLine
 10
1088.825031928481
 20
80.20434227330779
 30
0.0
 11
1105.140485312898
 21
66.07598978288628
 31
0.0
  0
LINE
  5
1ED
330
664
100
AcDbEntity
  8
0
 62
    13
420
 13395558
100
AcDbLine
 10
1105.140485312898
 20
66.07598978288628
 30
0.0
 11
1117.305236270753
 21
47.95657726692207
 31
0.0
  0
LINE
  5
1EE
330
664
100
AcDbEntity
  8
0
 62
    13
420
 13395558
100
AcDbLine
 10
1117.305236270753
 20
47.95657726692207
 30
0.0
 11
1121.719348659004
 21
37.41618773946357
 31
0.0
  0
LINE
  5
1EF
330
664
100
AcDbEntity
  8
0
 62
    13
420
 13395558
100
AcDbLine
 10
1121.719348659004
 20
37.41618773946357
 30
0.0
 11
1124.872286079183
 21
25.90996168582378
 31
0.0
  0
LINE
  5
1F0
330
664
100
AcDbEntity
  8
0
 62
    13
420
 13395558
100
AcDbLine
 10
1124.872286079183
 20
25.90996168582378
 30
0.0
 11
1127.394636015325
 21
-0.0000000000000338
 31
0.0
  0
LINE
  5
1F1
330
664
100
AcDbEntity
  8
0
 62
    13
420
 13395558
100
AcDbLine
 10
1127.394636015325
 20
-0.0000000000000338
 30
0.0
 11
1124.760536398467
 21
-24.77650063856963
 31
0.0
  0
LINE
  5
1F2
330
664
100
AcDbEntity
  8
0
 62
    13
420
 13395558
100
AcDbLine
 10
1124.760536398467
 20
-24.77650063856963
 30
0.0
 11
1116.858237547892
 21
-46.99872286079187
 31
0.0
  0
LINE
  5
1F3
330
664
100
AcDbEntity
  8
0
 62
    13
420
 13395558
100
AcDbLine
 10
1116.858237547892
 20
-46.99872286079187
 30
0.0
 11
1104.517879948914
 21
-65.64495530012775
 31
0.0
  0
LINE
  5
1F4
330
664
100
AcDbEntity
  8
0
 62
    13
420
 13395558
100
AcDbLine
 10
1104.517879948914
 20
-65.64495530012775
 30
0.0
 11
1088.569604086846
 21
-79.69348659003833
 31
0.0
  0
LINE
  5
1F5
330
664
100
AcDbEntity
  8
0
 62
    13
420
 13395558
100
AcDbLine
 10
1088.569604086846
 20
-79.69348659003833
 30
0.0
 11
1074.026181353767
 21
-87.26053639846747
 31
0.0
  0
LINE
  5
1F6
330
664
100
AcDbEntity
  8
0
 62
    13
420
 13395558
100
AcDbLine
 10
1074.026181353767
 20
-87.26053639846747
 30
0.0
 11
1059.259259259259
 21
-91.8263090676884
 31
0.0
  0
LINE
  5
1F7
330
664
100
AcDbEntity
  8
0
 62
    13
420
 13395558
100
AcDbLine
 10
1059.259259259259
 20
-91.8263090676884
 30
0.0
 11
1042.321200510855
 21
-94.12515964240104
 31
0.0
  0
LINE
  5
1F8
330
664
100
AcDbEntity
  8
0
 62
    13
420
 13395558
100
AcDbLine
 10
1042.321200510855
 20
-94.12515964240104
 30
0.0
 11
1021.264367816092
 21
-94.89144316730525
 31
0.0
  0
LINE
  5
1F9
330
664
100
AcDbEntity
  8
0
 62
     0
100
AcDbLine
 10
1021.264367816092
 20
-94.89144316730525
 30
0.0
 11
1002.745849297573
 21
-73.18007662835252
 31
0.0
  0
LINE
  5
1FA
330
664
100
AcDbEntity
  8
0
 62
    13
420
 13395558
100
AcDbLine
 10
1002.745849297573
 20
-73.18007662835252
 30
0.0
 11
1022.030651340995
 21
-73.18007662835252
 31
0.0
  0
LINE
  5
1FB
330
664
100
AcDbEntity
  8
0
 62
    13
420
 13395558
100
AcDbLine
 10
1022.030651340995
 20
-73.18007662835252
 30
0.0
 11
1037.835249042146
 21
-72.50957854406131
 31
0.0
  0
LINE
  5
1FC
330
664
100
AcDbEntity
  8
0
 62
    13
420
 13395558
100
AcDbLine
 10
1037.835249042146
 20
-72.50957854406131
 30
0.0
 11
1051.532567049808
 21
-70.49808429118777
 31
0.0
  0
LINE
  5
1FD
330
664
100
AcDbEntity
  8
0
 62
    13
420
 13395558
100
AcDbLine
 10
1051.532567049808
 20
-70.49808429118777
 30
0.0
 11
1063.633461047255
 21
-66.66666666666669
 31
0.0
  0
LINE
  5
1FE
330
664
100
AcDbEntity
  8
0
 62
    13
420
 13395558
100
AcDbLine
 10
1063.633461047255
 20
-66.66666666666669
 30
0.0
 11
1074.648786717752
 21
-60.53639846743298
 31
0.0
  0
LINE
  5
1FF
330
664
100
AcDbEntity
  8
0
 62
    13
420
 13395558
100
AcDbLine
 10
1074.648786717752
 20
-60.53639846743298
 30
0.0
 11
1086.17496807152
 21
-50.11174968071523
 31
0.0
  0
LINE
  5
200
330
664
100
AcDbEntity
  8
0
 62
    13
420
 13395558
100
AcDbLine
 10
1086.17496807152
 20
-50.11174968071523
 30
0.0
 11
1094.444444444444
 21
-36.71775223499363
 31
0.0
  0
LINE
  5
201
330
664
100
AcDbEntity
  8
0
 62
    13
420
 13395558
100
AcDbLine
 10
1094.444444444444
 20
-36.71775223499363
 30
0.0
 11
1099.425287356321
 21
-20.00319284802046
 31
0.0
  0
LINE
  5
202
330
664
100
AcDbEntity
  8
0
 62
    13
420
 13395558
100
AcDbLine
 10
1099.425287356321
 20
-20.00319284802046
 30
0.0
 11
1101.085568326947
 21
0.3831417624520758
 31
0.0
  0
LINE
  5
203
330
664
100
AcDbEntity
  8
0
 62
    13
420
 13395558
100
AcDbLine
 10
1101.085568326947
 20
0.3831417624520758
 30
0.0
 11
1099.265644955301
 21
20.73754789272029
 31
0.0
  0
LINE
  5
204
330
664
100
AcDbEntity
  8
0
 62
    13
420
 13395558
100
AcDbLine
 10
1099.265644955301
 20
20.73754789272029
 30
0.0
 11
1093.805874840357
 21
37.8671775223499
 31
0.0
  0
LINE
  5
205
330
664
100
AcDbEntity
  8
0
 62
    13
420
 13395558
100
AcDbLine
 10
1093.805874840357
 20
37.8671775223499
 30
0.0
 11
1084.770114942528
 21
51.676245210728
 31
0.0
  0
LINE
  5
206
330
664
100
AcDbEntity
  8
0
 62
    13
420
 13395558
100
AcDbLine
 10
1084.770114942528
 20
51.676245210728
 30
0.0
 11
1072.222222222223
 21
62.06896551724138
 31
0.0
  0
LINE
  5
207
330
664
100
AcDbEntity
  8
0
 62
    13
420
 13395558
100
AcDbLine
 10
1072.222222222223
 20
62.06896551724138
 30
0.0
 11
1061.781609195402
 21
67.3371647509578
 31
0.0
  0
LINE
  5
208
330
664
100
AcDbEntity
  8
0
 62
    13
420
 13395558
100
AcDbLine
 10
1061.781609195402
 20
67.3371647509578
 30
0.0
 11
1050.638569604087
 21
70.88122605363979
 31
0.0
  0
LINE
  5
209
330
664
100
AcDbEntity
  8
0
 62
    13
420
 13395558
100
AcDbLine
 10
1050.638569604087
 20
70.88122605363979
 30
0.0
 11
1037.739463601532
 21
72.8927203065134
 31
0.0
  0
LINE
  5
20A
330
664
100
AcDbEntity
  8
0
 62
    13
420
 13395558
100
AcDbLine
 10
1037.739463601532
 20
72.8927203065134
 30
0.0
 11
1022.030651340995
 21
73.56321839080461
 31
0.0
  0
LINE
  5
20B
330
664
100
AcDbEntity
  8
0
 62
    13
420
 13395558
100
AcDbLine
 10
1022.030651340995
 20
73.56321839080461
 30
0.0
 11
1002.745849297573
 21
73.56321839080461
 31
0.0
  0
LINE
  5
20C
330
664
100
AcDbEntity
  8
0
 62
     0
100
AcDbLine
 10
1002.745849297573
 20
73.56321839080461
 30
0.0
 11
977.4584929757341
 21
-94.89144316730525
 31
0.0
  0
LINE
  5
20D
330
664
100
AcDbEntity
  8
0
 62
    13
420
 13395558
100
AcDbLine
 10
977.4584929757341
 20
-94.89144316730525
 30
0.0
 11
977.4584929757341
 21
95.27458492975728
 31
0.0
  0
LINE
  5
20E
330
664
100
AcDbEntity
  8
0
 62
     0
100
AcDbLine
 10
1002.745849297573
 20
73.56321839080461
 30
0.0
 11
977.4584929757341
 21
-94.89144316730525
 31
0.0
  0
LINE
  5
20F
330
664
100
AcDbEntity
  8
0
 62
    13
420
 13395558
100
AcDbLine
 10
1002.745849297573
 20
73.56321839080461
 30
0.0
 11
1002.745849297573
 21
-73.18007662835252
 31
0.0
  0
LINE
  5
210
330
664
100
AcDbEntity
  8
0
 62
     0
100
AcDbLine
 10
1021.264367816092
 20
-94.89144316730525
 30
0.0
 11
1002.745849297573
 21
-73.18007662835252
 31
0.0
  0
LINE
  5
211
330
664
100
AcDbEntity
  8
0
 62
    13
420
 13395558
100
AcDbLine
 10
1021.264367816092
 20
-94.89144316730525
 30
0.0
 11
977.4584929757341
 21
-94.89144316730525
 31
0.0
  0
ENDBLK
  5
666
330
664
100
AcDbEntity
  8
0
100
AcDbBlockEnd
  0
ENDSEC
  0
SECTION
  2
ENTITIES
  0
LINE
  5
50B
330
58C
100
AcDbEntity
  8
ProcPart_18
 62
     0
100
AcDbLine
 10
0.0
 20
1220.0
 30
0.0
 11
0.0
 21
0.0
 31
0.0
  0
LINE
  5
50C
330
58C
100
AcDbEntity
  8
ProcPart_18
 62
     0
100
AcDbLine
 10
0.0
 20
0.0
 30
0.0
 11
2500.0
 21
0.0
 31
0.0
  0
LINE
  5
50D
330
58C
100
AcDbEntity
  8
ProcPart_18
 62
     0
100
AcDbLine
 10
2500.0
 20
0.0
 30
0.0
 11
2500.0
 21
1220.0
 31
0.0
  0
LINE
  5
50E
330
58C
100
AcDbEntity
  8
ProcPart_18
 62
     0
100
AcDbLine
 10
2500.0
 20
1220.0
 30
0.0
 11
0.0
 21
1220.0
 31
0.0
  0
LWPOLYLINE
  5
50F
330
58C
100
AcDbEntity
  8
V_Fraes_0.5T128
 62
     0
100
AcDbPolyline
 90
        5
 70
   129
 43
0.0
 38
0.0000000000031343
 10
2001.748458085731
 20
1060.708662144212
 10
604.8558904025156
 20
1060.708662144212
 10
604.8558904025141
 20
1120.708662144212
 10
2001.74845808573
 20
1120.708662144212
 10
2001.748458085731
 20
1060.708662144212
  0
LWPOLYLINE
  5
516
330
58C
100
AcDbEntity
  8
V_Fraes_0.5T128
 62
     0
100
AcDbPolyline
 90
        5
 70
   129
 43
0.0
 38
0.0000000000072853
 10
1814.007335727022
 20
431.2902179470412
 10
1814.007319335748
 20
981.2902179470445
 10
1754.007319335748
 20
981.2902161589025
 10
1754.007335727016
 20
431.2902161589023
 10
1814.007335727022
 20
431.2902179470412
  0
LWPOLYLINE
  5
51D
330
58C
100
AcDbEntity
  8
V_Fraes_0.5T128
 62
     0
100
AcDbPolyline
 90
        5
 70
   129
 43
0.0
 38
0.0000000000032246
 10
1991.276246339757
 20
433.3393906609116
 10
1991.276246339754
 20
983.3393906609114
 10
1931.276246339753
 20
983.3393906609103
 10
1931.276246339758
 20
433.3393906609094
 10
1991.276246339757
 20
433.3393906609116
  0
LWPOLYLINE
  5
524
330
58C
100
AcDbEntity
  8
V_Fraes_0.5T128
 62
     0
100
AcDbPolyline
 90
       11
 70
   129
 43
0.0
 38
0.0000000000026349
 10
2138.524907307803
 20
1134.963053771201
 10
2078.524907307805
 20
1134.963053771198
 10
2078.524907307805
 20
1074.963053771199
 10
2078.524907307803
 20
724.9630537711993
 10
2078.524907307803
 20
694.9630537711982
 10
2078.5249073078
 20
344.9630537712
 10
2078.524907307798
 20
314.9630537711952
 10
2078.5249073078
 20
204.9630537711986
 10
2078.524907307802
 20
144.9630537712014
 10
2138.524907307806
 20
144.9630537712032
 10
2138.524907307803
 20
1134.963053771201
  0
LWPOLYLINE
  5
531
330
58C
100
AcDbEntity
  8
V_Fraes_0.5T128
 62
     0
100
AcDbPolyline
 90
       12
 70
   129
 43
0.0
 38
0.0000000000038428
 10
549.6020033338525
 20
1065.932769559036
 10
549.6020033338525
 20
955.9327695590368
 10
549.6020033338525
 20
925.9327695590368
 10
549.6020033338525
 20
575.9327695590356
 10
549.6020033338525
 20
545.9327695590362
 10
549.6020033338547
 20
195.9327695590353
 10
549.6020033338561
 20
135.9327695590353
 10
489.60200333385
 20
135.9327695590371
 10
389.6020033338518
 20
135.932769559036
 10
489.6020033338528
 20
1125.932769559038
 10
549.602003333854
 20
1125.932769559039
 10
549.6020033338525
 20
1065.932769559036
  0
LWPOLYLINE
  5
53F
330
58C
100
AcDbEntity
  8
V_Fraes_0.5T128
 62
     0
100
AcDbPolyline
 90
       11
 70
   129
 43
0.0
 38
0.0000000000023316
 10
2269.61017357835
 20
684.4897554864201
 10
2269.610173578354
 20
1034.489755486419
 10
2269.610173578354
 20
1094.48975548642
 10
2209.610173578354
 20
1094.489755486421
 10
2209.61017357835
 20
104.4897554864171
 10
2269.61017357835
 20
104.4897554864168
 10
2269.610173578349
 20
164.4897554864204
 10
2269.610173578348
 20
274.4897554864178
 10
2269.610173578354
 20
304.4897554864171
 10
2269.610173578354
 20
654.4897554864186
 10
2269.61017357835
 20
684.4897554864201
  0
LWPOLYLINE
  5
54C
330
58C
100
AcDbEntity
  8
V_Fraes_0.5T128
 62
     0
100
AcDbPolyline
 90
        4
 70
   129
 43
0.0
 38
0.0000000000037129
 10
624.0163214715398
 20
443.0188102750069
 10
1619.054009199996
 20
443.0188102750098
 10
1619.054009200001
 20
843.0188102750079
 10
624.0163214715398
 20
443.0188102750069
  0
LWPOLYLINE
  5
552
330
58C
100
AcDbEntity
  8
V_Fraes_0.5T128
 62
     0
100
AcDbPolyline
 90
        4
 70
   129
 43
0.0
 38
0.0000000000023814
 10
1629.153512598498
 20
1002.270066650824
 10
634.9747413728755
 20
600.140024445207
 10
634.9747413728749
 20
978.741623653481
 10
1629.153512598498
 20
1002.270066650824
  0
LWPOLYLINE
  5
558
330
58C
100
AcDbEntity
  8
V_Fraes_0.5T128
 62
     0
100
AcDbPolyline
 90
        5
 70
   129
 43
0.0
 38
0.0000000000032412
 10
633.3391692098144
 20
282.2766961916579
 10
633.3391692098144
 20
342.2766961916577
 10
2030.231736893025
 20
342.2766961916595
 10
2030.231736893026
 20
282.2766961916583
 10
633.3391692098144
 20
282.2766961916579
  0
LWPOLYLINE
  5
55F
330
58C
100
AcDbEntity
  8
V_Fraes_0.5T128
 62
     0
100
AcDbPolyline
 90
       11
 70
   129
 43
0.0
 38
0.000000000009215
 10
257.292855845575
 20
108.3544122090788
 10
317.2928558455748
 20
108.3544122090788
 10
317.2928558455733
 20
168.3544122090796
 10
317.2928558455748
 20
278.354412209078
 10
317.2928558455748
 20
308.3544122090777
 10
317.2928558455744
 20
658.3544122090774
 10
317.2928558455733
 20
688.3544122090777
 10
317.2928558455748
 20
1038.35441220908
 10
317.2928558455766
 20
1098.35441220908
 10
257.2928558455761
 20
1098.35441220908
 10
257.292855845575
 20
108.3544122090788
  0
INSERT
  5
56C
330
58C
100
AcDbEntity
  8
ProcPart_18
 62
     0
100
AcDbBlockReference
 66
     1
  2
Group4#1
 10
0.0
 20
0.0
 30
0.0
  0
ATTRIB
  5
56D
330
56C
100
AcDbEntity
  8
0
100
AcDbText
 10
0.0
 20
0.0
 30
0.0
 40
1.0
  1
Skalp sections
  7
textstyle11
100
AcDbAttribute
  2
Skp_GroupInstanceName
 70
     0
280
     0
  0
SEQEND
  5
669
330
56C
100
AcDbEntity
  8
ProcPart_18
 62
     0
  0
VIEWPORT
  5
656
330
652
100
AcDbEntity
 67
     1
  8
0
100
AcDbViewport
 10
128.5
 20
97.5
 30
0.0
 40
314.226
 41
222.18
 68
     1
 69
     1
 12
128.5
 22
97.5
 13
0.0
 23
0.0
 14
10.0
 24
10.0
 15
10.0
 25
10.0
 16
0.0
 26
0.0
 36
1.0
 17
0.0
 27
0.0
 37
0.0
 42
50.0
 43
0.0
 44
0.0
 45
222.18
 50
0.0
 51
0.0
 72
   100
 90
   557152
  1

281
     0
 71
     1
 74
     0
110
0.0
120
0.0
130
0.0
111
1.0
121
0.0
131
0.0
112
0.0
122
1.0
132
0.0
 79
     0
146
0.0
170
     0
 61
     5
348
59C
292
     1
282
     1
141
0.0
142
0.0
 63
   256
361
657
  0
ENDSEC
  0
SECTION
  2
OBJECTS
  0
DICTIONARY
  5
57A
330
0
100
AcDbDictionary
281
     1
  3
ACAD_DETAILVIEWSTYLE
350
671
  3
ACAD_GROUP
350
57B
  3
ACAD_LAYOUT
350
587
  3
ACAD_MATERIAL
350
5B0
  3
ACAD_MLEADERSTYLE
350
5D8
  3
ACAD_MLINESTYLE
350
584
  3
ACAD_PLOTSETTINGS
350
586
  3
ACAD_PLOTSTYLENAME
350
57C
  3
ACAD_SCALELIST
350
5B4
  3
ACAD_SECTIONVIEWSTYLE
350
672
  3
ACAD_TABLESTYLE
350
5D6
  3
ACAD_VISUALSTYLE
350
597
  3
ACDB_RECOMPOSE_DATA
350
66E
  3
AcDbVariableDictionary
350
66A
  3
QCAD_OBJECTS
350
5DC
  0
SUN
  5
5DA
330
596
100
AcDbSun
 90
        1
290
     0
 63
     7
421
 16777215
 40
1.0
291
     1
 91
  2455826
 92
 54000000
292
     0
 70
     2
 71
   256
280
     1
  0
SUN
  5
651
330
650
100
AcDbSun
 90
        1
290
     0
 63
     7
421
 16777215
 40
1.0
291
     1
 91
  2455826
 92
 54000000
292
     0
 70
     2
 71
   256
280
     1
  0
SUN
  5
657
330
656
100
AcDbSun
 90
        1
290
     0
 63
     7
421
 16777215
 40
1.0
291
     1
 91
  2455826
 92
 54000000
292
     0
 70
     2
 71
   256
280
     1
  0
DICTIONARY
  5
671
102
{ACAD_REACTORS
330
57A
102
}
330
57A
100
AcDbDictionary
281
     1
  0
DICTIONARY
  5
57B
102
{ACAD_REACTORS
330
57A
102
}
330
57A
100
AcDbDictionary
281
     1
  0
DICTIONARY
  5
587
102
{ACAD_REACTORS
330
57A
102
}
330
57A
100
AcDbDictionary
281
     1
  3
Layout1
350
58B
  3
Layout2
350
653
  3
Model
350
58F
  0
DICTIONARY
  5
5B0
102
{ACAD_REACTORS
330
57A
102
}
330
57A
100
AcDbDictionary
281
     1
  3
ByBlock
350
5B2
  3
ByLayer
350
5B1
  3
Global
350
5B3
  0
DICTIONARY
  5
5D8
102
{ACAD_REACTORS
330
57A
102
}
330
57A
100
AcDbDictionary
281
     1
  3
Standard
350
5D9
  0
DICTIONARY
  5
584
102
{ACAD_REACTORS
330
57A
102
}
330
57A
100
AcDbDictionary
281
     1
  3
Standard
350
585
  0
DICTIONARY
  5
586
102
{ACAD_REACTORS
330
57A
102
}
330
57A
100
AcDbDictionary
281
     1
  0
ACDBDICTIONARYWDFLT
  5
57C
102
{ACAD_REACTORS
330
57A
102
}
330
57A
100
AcDbDictionary
281
     1
  3
Normal
350
57D
100
AcDbDictionaryWithDefault
340
57D
  0
DICTIONARY
  5
5B4
102
{ACAD_REACTORS
330
57A
102
}
330
57A
100
AcDbDictionary
281
     1
  3
A0
350
5B5
  3
A1
350
5B6
  3
A2
350
5B7
  3
A3
350
5B8
  3
A4
350
5B9
  3
A5
350
5BA
  3
A6
350
5BB
  3
A7
350
5BC
  3
A8
350
5BD
  3
A9
350
5BE
  3
B0
350
5BF
  3
B1
350
5C0
  3
B2
350
5C1
  3
B3
350
5C2
  3
B4
350
5C3
  3
B5
350
5C4
  3
B6
350
5C5
  3
B7
350
5C6
  3
B8
350
5C7
  3
B9
350
5C8
  3
C0
350
5C9
  3
C1
350
5CA
  3
C2
350
5CB
  3
C3
350
5CC
  3
C4
350
5CD
  3
C5
350
5CE
  3
C6
350
5CF
  3
C7
350
5D0
  3
C8
350
5D1
  3
C9
350
5D2
  3
D0
350
5D3
  3
D1
350
5D4
  3
D2
350
5D5
  0
DICTIONARY
  5
672
102
{ACAD_REACTORS
330
57A
102
}
330
57A
100
AcDbDictionary
281
     1
  0
DICTIONARY
  5
5D6
102
{ACAD_REACTORS
330
57A
102
}
330
57A
100
AcDbDictionary
281
     1
  3
Standard
350
5D7
  0
DICTIONARY
  5
597
102
{ACAD_REACTORS
330
57A
102
}
330
57A
100
AcDbDictionary
281
     1
  3
2dWireframe
350
59C
  3
Basic
350
59F
  3
Brighten
350
5A3
  3
ColorChange
350
5A7
  3
Conceptual
350
5A1
  3
Dim
350
5A2
  3
EdgeColorOff
350
5AA
  3
Facepattern
350
5A6
  3
Flat
350
598
  3
FlatWithEdges
350
599
  3
Gouraud
350
59A
  3
GouraudWithEdges
350
59B
  3
Hidden
350
59E
  3
JitterOff
350
5A8
  3
Linepattern
350
5A5
  3
OverhangOff
350
5A9
  3
Realistic
350
5A0
  3
Shaded
350
5AF
  3
Shaded with edges
350
5AE
  3
Shades of Gray
350
5AB
  3
Sketchy
350
5AC
  3
Thicken
350
5A4
  3
Wireframe
350
59D
  3
X-Ray
350
5AD
  0
XRECORD
  5
66E
102
{ACAD_REACTORS
330
57A
102
}
330
57A
100
AcDbXrecord
280
     1
 90
        1
330
5D7
  0
DICTIONARY
  5
66A
102
{ACAD_REACTORS
330
57A
102
}
330
57A
100
AcDbDictionary
281
     1
  3
CANNOSCALE
350
66B
  3
CMLEADERSTYLE
350
670
  3
CTABLESTYLE
350
66F
  0
DICTIONARY
  5
5DC
102
{ACAD_REACTORS
330
57A
102
}
330
57A
100
AcDbDictionary
281
     1
  3
ColorSettings/BackgroundColor
350
5DE
  3
ColorSettings/ColorMode
350
5DF
  3
Grid/DisplayGrid00
350
5E0
  3
Grid/DisplayGrid01
350
5E1
  3
Grid/DisplayGrid02
350
5E2
  3
Grid/DisplayGrid03
350
5E3
  3
Grid/GridSpacingX00
350
5E4
  3
Grid/GridSpacingX01
350
5E5
  3
Grid/GridSpacingX02
350
5E6
  3
Grid/GridSpacingX03
350
5E7
  3
Grid/GridSpacingY00
350
5E8
  3
Grid/GridSpacingY01
350
5E9
  3
Grid/GridSpacingY02
350
5EA
  3
Grid/GridSpacingY03
350
5EB
  3
Grid/IsometricGrid00
350
5EC
  3
Grid/IsometricGrid01
350
5ED
  3
Grid/IsometricGrid02
350
5EE
  3
Grid/IsometricGrid03
350
5EF
  3
Grid/IsometricProjection00
350
5F0
  3
Grid/IsometricProjection01
350
5F1
  3
Grid/IsometricProjection02
350
5F2
  3
Grid/IsometricProjection03
350
5F3
  3
Grid/MetaGridSpacingX00
350
5F4
  3
Grid/MetaGridSpacingX01
350
5F5
  3
Grid/MetaGridSpacingX02
350
5F6
  3
Grid/MetaGridSpacingX03
350
5F7
  3
Grid/MetaGridSpacingY00
350
5F8
  3
Grid/MetaGridSpacingY01
350
5F9
  3
Grid/MetaGridSpacingY02
350
5FA
  3
Grid/MetaGridSpacingY03
350
5FB
  3
MultiPageSettings/Columns
350
5FC
  3
MultiPageSettings/GlueMarginsBottom
350
5FD
  3
MultiPageSettings/GlueMarginsLeft
350
5FE
  3
MultiPageSettings/GlueMarginsRight
350
5FF
  3
MultiPageSettings/GlueMarginsTop
350
600
  3
MultiPageSettings/PrintCropMarks
350
601
  3
MultiPageSettings/Rows
350
602
  3
PageSettings/OffsetX
350
603
  3
PageSettings/OffsetY
350
604
  3
PageSettings/PageOrientation
350
605
  3
PageSettings/PaperHeight
350
606
  3
PageSettings/PaperWidth
350
607
  3
PageSettings/Scale
350
608
  3
PageSettings/ShowPaperBorders
350
609
  3
PageTagSettings/EnablePageTags
350
60A
  3
PageTagSettings/TagAlignment
350
60B
  3
PageTagSettings/TagFont
350
60C
  3
PageTagSettings/TagPosition
350
60D
  3
QCADVersion
350
5DD
  3
UnitSettings/PaperUnit
350
60E
  3
ViewportCenter
350
60F
  3
ViewportHeight
350
610
  3
ViewportWidth
350
611
  0
LAYOUT
  5
58B
102
{ACAD_REACTORS
330
587
102
}
330
587
100
AcDbPlotSettings
  1

  2
none_device
  4
ISO_A4_(210.00_x_297.00_MM)
  6

 40
7.5
 41
20.0
 42
7.5
 43
20.0
 44
210.0
 45
297.0
 46
0.0
 47
0.0
 48
0.0
 49
0.0
140
0.0
141
0.0
142
1.0
143
1.0
 70
   688
 72
     1
 73
     1
 74
     5
  7

 75
    16
 76
     0
 77
     2
 78
   300
147
1.0
148
0.0
149
0.0
100
AcDbLayout
  1
Layout1
 70
     1
 71
     1
 10
-20.0
 20
-7.5
 11
277.0
 21
202.5
 12
0.0
 22
0.0
 32
0.0
 14
1.000000000000000E+20
 24
1.000000000000000E+20
 34
1.000000000000000E+20
 15
-1.000000000000000E+20
 25
-1.000000000000000E+20
 35
-1.000000000000000E+20
146
0.0
 13
0.0
 23
0.0
 33
0.0
 16
1.0
 26
0.0
 36
0.0
 17
0.0
 27
1.0
 37
0.0
 76
     0
330
588
331
650
  0
LAYOUT
  5
653
102
{ACAD_REACTORS
330
587
102
}
330
587
100
AcDbPlotSettings
  1

  2
none_device
  4
ISO_A4_(210.00_x_297.00_MM)
  6

 40
7.5
 41
20.0
 42
7.5
 43
20.0
 44
210.0
 45
297.0
 46
0.0
 47
0.0
 48
0.0
 49
0.0
140
0.0
141
0.0
142
1.0
143
1.0
 70
   688
 72
     1
 73
     1
 74
     5
  7

 75
    16
 76
     0
 77
     2
 78
   300
147
1.0
148
0.0
149
0.0
100
AcDbLayout
  1
Layout2
 70
     1
 71
     2
 10
0.0
 20
0.0
 11
0.0
 21
0.0
 12
0.0
 22
0.0
 32
0.0
 14
0.0
 24
0.0
 34
0.0
 15
0.0
 25
0.0
 35
0.0
146
0.0
 13
0.0
 23
0.0
 33
0.0
 16
1.0
 26
0.0
 36
0.0
 17
0.0
 27
1.0
 37
0.0
 76
     0
330
652
331
656
  0
LAYOUT
  5
58F
102
{ACAD_REACTORS
330
587
102
}
330
587
100
AcDbPlotSettings
  1

  2
none_device
  4
Letter_(8.50_x_11.00_Inches)
  6

 40
6.35
 41
6.35
 42
6.35000508
 43
6.35000508
 44
215.9
 45
279.4
 46
0.0
 47
0.0
 48
0.0
 49
0.0
140
0.0
141
0.0
142
1.0
143
1.0
 70
  1712
 72
     0
 73
     0
 74
     0
  7

 75
     0
 76
     0
 77
     2
 78
   300
147
1.0
148
0.0
149
0.0
100
AcDbLayout
  1
Model
 70
     1
 71
     0
 10
0.0
 20
0.0
 11
12.0
 21
9.0
 12
0.0
 22
0.0
 32
0.0
 14
0.0
 24
-0.3333333333333333
 34
0.0
 15
2500.0
 25
1220.0
 35
0.000000000009215
146
0.0
 13
0.0
 23
0.0
 33
0.0
 16
1.0
 26
0.0
 36
0.0
 17
0.0
 27
1.0
 37
0.0
 76
     0
330
58C
331
596
  0
MATERIAL
  5
5B2
102
{ACAD_REACTORS
330
5B0
102
}
330
5B0
100
AcDbMaterial
  1
ByBlock
 72
     1
 94
      127
  0
MATERIAL
  5
5B1
102
{ACAD_REACTORS
330
5B0
102
}
330
5B0
100
AcDbMaterial
  1
ByLayer
 72
     1
 94
      127
  0
MATERIAL
  5
5B3
102
{ACAD_REACTORS
330
5B0
102
}
330
5B0
100
AcDbMaterial
  1
Global
 72
     1
 94
      127
  0
MLEADERSTYLE
  5
5D9
102
{ACAD_REACTORS
330
5D8
102
}
330
5D8
100
AcDbMLeaderStyle
179
     2
170
     2
171
     1
172
     0
 90
        2
 40
0.0
 41
0.0
173
     1
 91
-1056964608
340
581
 92
       -2
290
     1
 42
0.09
291
     1
 43
0.36
  3
Standard
341
0
 44
0.18
300

342
57F
174
     1
178
     6
175
     1
176
     0
 93
-1056964608
 45
0.18
292
     0
297
     0
 46
0.18
343
0
 94
-1056964608
 47
1.0
 49
1.0
140
1.0
293
     1
141
0.0
294
     1
177
     0
142
1.0
295
     0
296
     0
143
0.125
271
     0
272
     9
273
     9
298
     0
  0
MLINESTYLE
  5
585
102
{ACAD_REACTORS
330
584
102
}
330
584
100
AcDbMlineStyle
  2
Standard
 70
     0
  3

 62
   256
 51
90.0
 52
90.0
 71
     2
 49
0.5
 62
   256
  6
BYLAYER
 49
-0.5
 62
   256
  6
BYLAYER
  0
ACDBPLACEHOLDER
  5
57D
102
{ACAD_REACTORS
330
57C
102
}
330
57C
  0
SCALE
  5
5B5
102
{ACAD_REACTORS
330
5B4
102
}
330
5B4
100
AcDbScale
 70
     0
300
1:1
140
1.0
141
1.0
290
     1
  0
SCALE
  5
5B6
102
{ACAD_REACTORS
330
5B4
102
}
330
5B4
100
AcDbScale
 70
     0
300
1:2
140
1.0
141
2.0
290
     0
  0
SCALE
  5
5B7
102
{ACAD_REACTORS
330
5B4
102
}
330
5B4
100
AcDbScale
 70
     0
300
1:4
140
1.0
141
4.0
290
     0
  0
SCALE
  5
5B8
102
{ACAD_REACTORS
330
5B4
102
}
330
5B4
100
AcDbScale
 70
     0
300
1:5
140
1.0
141
5.0
290
     0
  0
SCALE
  5
5B9
102
{ACAD_REACTORS
330
5B4
102
}
330
5B4
100
AcDbScale
 70
     0
300
1:8
140
1.0
141
8.0
290
     0
  0
SCALE
  5
5BA
102
{ACAD_REACTORS
330
5B4
102
}
330
5B4
100
AcDbScale
 70
     0
300
1:10
140
1.0
141
10.0
290
     0
  0
SCALE
  5
5BB
102
{ACAD_REACTORS
330
5B4
102
}
330
5B4
100
AcDbScale
 70
     0
300
1:16
140
1.0
141
16.0
290
     0
  0
SCALE
  5
5BC
102
{ACAD_REACTORS
330
5B4
102
}
330
5B4
100
AcDbScale
 70
     0
300
1:20
140
1.0
141
20.0
290
     0
  0
SCALE
  5
5BD
102
{ACAD_REACTORS
330
5B4
102
}
330
5B4
100
AcDbScale
 70
     0
300
1:30
140
1.0
141
30.0
290
     0
  0
SCALE
  5
5BE
102
{ACAD_REACTORS
330
5B4
102
}
330
5B4
100
AcDbScale
 70
     0
300
1:40
140
1.0
141
40.0
290
     0
  0
SCALE
  5
5BF
102
{ACAD_REACTORS
330
5B4
102
}
330
5B4
100
AcDbScale
 70
     0
300
1:50
140
1.0
141
50.0
290
     0
  0
SCALE
  5
5C0
102
{ACAD_REACTORS
330
5B4
102
}
330
5B4
100
AcDbScale
 70
     0
300
1:100
140
1.0
141
100.0
290
     0
  0
SCALE
  5
5C1
102
{ACAD_REACTORS
330
5B4
102
}
330
5B4
100
AcDbScale
 70
     0
300
2:1
140
2.0
141
1.0
290
     0
  0
SCALE
  5
5C2
102
{ACAD_REACTORS
330
5B4
102
}
330
5B4
100
AcDbScale
 70
     0
300
4:1
140
4.0
141
1.0
290
     0
  0
SCALE
  5
5C3
102
{ACAD_REACTORS
330
5B4
102
}
330
5B4
100
AcDbScale
 70
     0
300
8:1
140
8.0
141
1.0
290
     0
  0
SCALE
  5
5C4
102
{ACAD_REACTORS
330
5B4
102
}
330
5B4
100
AcDbScale
 70
     0
300
10:1
140
10.0
141
1.0
290
     0
  0
SCALE
  5
5C5
102
{ACAD_REACTORS
330
5B4
102
}
330
5B4
100
AcDbScale
 70
     0
300
100:1
140
100.0
141
1.0
290
     0
  0
SCALE
  5
5C6
102
{ACAD_REACTORS
330
5B4
102
}
330
5B4
100
AcDbScale
 70
     0
300
1/128" = 1'-0"
140
0.0078125
141
12.0
290
     0
  0
SCALE
  5
5C7
102
{ACAD_REACTORS
330
5B4
102
}
330
5B4
100
AcDbScale
 70
     0
300
1/64" = 1'-0"
140
0.015625
141
12.0
290
     0
  0
SCALE
  5
5C8
102
{ACAD_REACTORS
330
5B4
102
}
330
5B4
100
AcDbScale
 70
     0
300
1/32" = 1'-0"
140
0.03125
141
12.0
290
     0
  0
SCALE
  5
5C9
102
{ACAD_REACTORS
330
5B4
102
}
330
5B4
100
AcDbScale
 70
     0
300
1/16" = 1'-0"
140
0.0625
141
12.0
290
     0
  0
SCALE
  5
5CA
102
{ACAD_REACTORS
330
5B4
102
}
330
5B4
100
AcDbScale
 70
     0
300
3/32" = 1'-0"
140
0.09375
141
12.0
290
     0
  0
SCALE
  5
5CB
102
{ACAD_REACTORS
330
5B4
102
}
330
5B4
100
AcDbScale
 70
     0
300
1/8" = 1'-0"
140
0.125
141
12.0
290
     0
  0
SCALE
  5
5CC
102
{ACAD_REACTORS
330
5B4
102
}
330
5B4
100
AcDbScale
 70
     0
300
3/16" = 1'-0"
140
0.1875
141
12.0
290
     0
  0
SCALE
  5
5CD
102
{ACAD_REACTORS
330
5B4
102
}
330
5B4
100
AcDbScale
 70
     0
300
1/4" = 1'-0"
140
0.25
141
12.0
290
     0
  0
SCALE
  5
5CE
102
{ACAD_REACTORS
330
5B4
102
}
330
5B4
100
AcDbScale
 70
     0
300
3/8" = 1'-0"
140
0.375
141
12.0
290
     0
  0
SCALE
  5
5CF
102
{ACAD_REACTORS
330
5B4
102
}
330
5B4
100
AcDbScale
 70
     0
300
1/2" = 1'-0"
140
0.5
141
12.0
290
     0
  0
SCALE
  5
5D0
102
{ACAD_REACTORS
330
5B4
102
}
330
5B4
100
AcDbScale
 70
     0
300
3/4" = 1'-0"
140
0.75
141
12.0
290
     0
  0
SCALE
  5
5D1
102
{ACAD_REACTORS
330
5B4
102
}
330
5B4
100
AcDbScale
 70
     0
300
1" = 1'-0"
140
1.0
141
12.0
290
     0
  0
SCALE
  5
5D2
102
{ACAD_REACTORS
330
5B4
102
}
330
5B4
100
AcDbScale
 70
     0
300
1-1/2" = 1'-0"
140
1.5
141
12.0
290
     0
  0
SCALE
  5
5D3
102
{ACAD_REACTORS
330
5B4
102
}
330
5B4
100
AcDbScale
 70
     0
300
3" = 1'-0"
140
3.0
141
12.0
290
     0
  0
SCALE
  5
5D4
102
{ACAD_REACTORS
330
5B4
102
}
330
5B4
100
AcDbScale
 70
     0
300
6" = 1'-0"
140
6.0
141
12.0
290
     0
  0
SCALE
  5
5D5
102
{ACAD_REACTORS
330
5B4
102
}
330
5B4
100
AcDbScale
 70
     0
300
1'-0" = 1'-0"
140
12.0
141
12.0
290
     0
  0
TABLESTYLE
  5
5D7
102
{ACAD_REACTORS
330
5D6
102
}
102
{ACAD_XDICTIONARY
360
66C
102
}
330
5D6
100
AcDbTableStyle
  3
Standard
 70
     0
 71
     0
 40
0.06
 41
0.06
280
     0
281
     0
  7
Standard
140
0.18
170
     2
 62
     0
 63
   257
283
     0
 90
        4
 91
        0
  1

274
    -2
284
     1
 64
     0
275
    -2
285
     1
 65
     0
276
    -2
286
     1
 66
     0
277
    -2
287
     1
 67
     0
278
    -2
288
     1
 68
     0
279
    -2
289
     1
 69
     0
  7
Standard
140
0.25
170
     5
 62
     0
 63
   257
283
     0
 90
        4
 91
        0
  1

274
    -2
284
     1
 64
     0
275
    -2
285
     1
 65
     0
276
    -2
286
     1
 66
     0
277
    -2
287
     1
 67
     0
278
    -2
288
     1
 68
     0
279
    -2
289
     1
 69
     0
  7
Standard
140
0.18
170
     5
 62
     0
 63
   257
283
     0
 90
        4
 91
        0
  1

274
    -2
284
     1
 64
     0
275
    -2
285
     1
 65
     0
276
    -2
286
     1
 66
     0
277
    -2
287
     1
 67
     0
278
    -2
288
     1
 68
     0
279
    -2
289
     1
 69
     0
  0
VISUALSTYLE
  5
59C
102
{ACAD_REACTORS
330
597
102
}
330
597
100
AcDbVisualStyle
  2
2dWireframe
 70
     4
177
     3
291
     0
 70
    58
 90
        0
176
     1
 90
        2
176
     1
 90
        0
176
     1
 90
        0
176
     1
 40
0.6
176
     1
 40
30.0
176
     1
 62
     7
420
 16777215
176
     1
 90
        1
176
     1
 90
        4
176
     1
 62
     7
176
     1
 62
   257
176
     1
 90
        1
176
     1
 90
        1
176
     1
 40
1.0
176
     1
 90
        0
176
     1
 62
   257
176
     1
 40
1.0
176
     1
 90
        1
176
     1
 90
        6
176
     1
 90
        2
176
     1
 62
     7
176
     1
 90
        5
176
     1
 90
        0
176
     1
 90
        0
176
     1
290
     0
176
     1
 90
        1
176
     1
 40
0.0
176
     1
 90
        0
176
     1
290
     1
176
     1
290
     1
176
     1
290
     0
176
     1
290
     0
176
     1
290
     0
176
     1
290
     0
176
     1
290
     0
176
     1
290
     0
176
     1
290
     0
176
     1
 90
       50
176
     1
 40
0.0
176
     1
 40
1.0
176
     1
 90
        0
176
     1
 62
    18
420
        0
176
     1
 90
       50
176
     1
 90
        3
176
     1
 62
     5
420
      255
176
     1
290
     0
176
     1
 90
       50
176
     1
 90
       50
176
     1
 90
       50
176
     1
290
     0
176
     1
 90
       50
176
     1
 62
   256
176
     0
 40
1.0
176
     0
 90
        2
176
     1
  1
strokes_ogs.tif
176
     1
290
     0
176
     1
 40
1.0
176
     1
 40
1.0
176
     1
  0
VISUALSTYLE
  5
59F
102
{ACAD_REACTORS
330
597
102
}
330
597
100
AcDbVisualStyle
  2
Basic
 70
     7
177
     3
291
     1
 70
    58
 90
        1
176
     1
 90
        0
176
     1
 90
        1
176
     1
 90
        0
176
     1
 40
0.6
176
     1
 40
30.0
176
     1
 62
     7
420
 16777215
176
     1
 90
        0
176
     1
 90
        4
176
     1
 62
     7
176
     1
 62
   257
176
     1
 90
        1
176
     1
 90
        1
176
     1
 40
1.0
176
     1
 90
        8
176
     1
 62
     7
176
     1
 40
1.0
176
     1
 90
        1
176
     1
 90
        6
176
     1
 90
        2
176
     1
 62
     7
176
     1
 90
        5
176
     1
 90
        0
176
     1
 90
        0
176
     1
290
     0
176
     1
 90
        1
176
     1
 40
0.0
176
     1
 90
        0
176
     1
290
     0
176
     1
290
     1
176
     1
290
     1
176
     1
290
     0
176
     1
290
     0
176
     1
290
     0
176
     1
290
     0
176
     1
290
     0
176
     1
290
     0
176
     1
 90
       50
176
     1
 40
0.0
176
     1
 40
1.0
176
     1
 90
        0
176
     1
 62
    18
420
        0
176
     1
 90
       50
176
     1
 90
        3
176
     1
 62
     5
420
      255
176
     1
290
     0
176
     1
 90
       50
176
     1
 90
       50
176
     1
 90
       50
176
     1
290
     0
176
     1
 90
       50
176
     1
 62
   256
176
     0
 40
1.0
176
     0
 90
        2
176
     1
  1
strokes_ogs.tif
176
     1
290
     0
176
     1
 40
1.0
176
     1
 40
1.0
176
     1
  0
VISUALSTYLE
  5
5A3
102
{ACAD_REACTORS
330
597
102
}
330
597
100
AcDbVisualStyle
  2
Brighten
 70
    12
177
     3
291
     1
 70
    58
 90
        2
176
     1
 90
        2
176
     1
 90
        0
176
     1
 90
        0
176
     1
 40
0.6
176
     1
 40
30.0
176
     1
 62
     7
420
 16777215
176
     1
 90
        1
176
     1
 90
        4
176
     1
 62
     7
176
     1
 62
   257
176
     1
 90
        1
176
     1
 90
        1
176
     1
 40
1.0
176
     1
 90
        8
176
     1
 62
     7
176
     1
 40
1.0
176
     1
 90
        1
176
     1
 90
        6
176
     1
 90
        2
176
     1
 62
     7
176
     1
 90
        5
176
     1
 90
        0
176
     1
 90
        0
176
     1
290
     0
176
     1
 90
        1
176
     1
 40
50.0
176
     1
 90
        0
176
     1
290
     0
176
     1
290
     1
176
     1
290
     1
176
     1
290
     0
176
     1
290
     0
176
     1
290
     0
176
     1
290
     0
176
     1
290
     0
176
     1
290
     0
176
     1
 90
       50
176
     1
 40
0.0
176
     1
 40
1.0
176
     1
 90
        0
176
     1
 62
    18
420
        0
176
     1
 90
       50
176
     1
 90
        3
176
     1
 62
     5
420
      255
176
     1
290
     0
176
     1
 90
       50
176
     1
 90
       50
176
     1
 90
       50
176
     1
290
     0
176
     1
 90
       50
176
     1
 62
   256
176
     0
 40
1.0
176
     0
 90
        2
176
     1
  1
strokes_ogs.tif
176
     1
290
     0
176
     1
 40
1.0
176
     1
 40
1.0
176
     1
  0
VISUALSTYLE
  5
5A7
102
{ACAD_REACTORS
330
597
102
}
330
597
100
AcDbVisualStyle
  2
ColorChange
 70
    16
177
     3
291
     1
 70
    58
 90
        2
176
     1
 90
        2
176
     1
 90
        3
176
     1
 90
        0
176
     1
 40
0.6
176
     1
 40
30.0
176
     1
 62
     8
420
  8421504
176
     1
 90
        1
176
     1
 90
        4
176
     1
 62
     7
176
     1
 62
   257
176
     1
 90
        1
176
     1
 90
        1
176
     1
 40
1.0
176
     1
 90
        8
176
     1
 62
     8
420
  8421504
176
     1
 40
1.0
176
     1
 90
        1
176
     1
 90
        6
176
     1
 90
        2
176
     1
 62
     7
176
     1
 90
        5
176
     1
 90
        0
176
     1
 90
        0
176
     1
290
     0
176
     1
 90
        1
176
     1
 40
0.0
176
     1
 90
        0
176
     1
290
     0
176
     1
290
     1
176
     1
290
     1
176
     1
290
     0
176
     1
290
     0
176
     1
290
     0
176
     1
290
     0
176
     1
290
     0
176
     1
290
     0
176
     1
 90
       50
176
     1
 40
0.0
176
     1
 40
1.0
176
     1
 90
        0
176
     1
 62
    18
420
        0
176
     1
 90
       50
176
     1
 90
        3
176
     1
 62
     5
420
      255
176
     1
290
     0
176
     1
 90
       50
176
     1
 90
       50
176
     1
 90
       50
176
     1
290
     0
176
     1
 90
       50
176
     1
 62
   256
176
     0
 40
1.0
176
     0
 90
        2
176
     1
  1
strokes_ogs.tif
176
     1
290
     0
176
     1
 40
1.0
176
     1
 40
1.0
176
     1
  0
VISUALSTYLE
  5
5A1
102
{ACAD_REACTORS
330
597
102
}
330
597
100
AcDbVisualStyle
  2
Conceptual
 70
     9
177
     3
291
     0
 70
    58
 90
        3
176
     1
 90
        2
176
     1
 90
        0
176
     1
 90
        0
176
     1
 40
0.6
176
     1
 40
30.0
176
     1
 62
     7
420
 16777215
176
     1
 90
        2
176
     1
 90
        2
176
     1
 62
     7
176
     1
 62
   257
176
     1
 90
        1
176
     1
 90
        1
176
     1
 40
179.0
176
     1
 90
        8
176
     1
 62
     7
176
     1
 40
1.0
176
     1
 90
        1
176
     1
 90
        6
176
     1
 90
        2
176
     1
 62
     7
176
     1
 90
        3
176
     1
 90
        0
176
     1
 90
        0
176
     1
290
     0
176
     1
 90
        1
176
     1
 40
0.0
176
     1
 90
        0
176
     1
290
     0
176
     1
290
     1
176
     1
290
     1
176
     1
290
     0
176
     1
290
     0
176
     1
290
     0
176
     1
290
     0
176
     1
290
     0
176
     1
290
     0
176
     1
 90
       50
176
     1
 40
0.0
176
     1
 40
1.0
176
     1
 90
        0
176
     1
 62
    18
420
        0
176
     1
 90
       50
176
     1
 90
        3
176
     1
 62
     5
420
      255
176
     1
290
     0
176
     1
 90
       50
176
     1
 90
       50
176
     1
 90
       50
176
     1
290
     0
176
     1
 90
       50
176
     1
 62
   256
176
     0
 40
1.0
176
     0
 90
        2
176
     1
  1
strokes_ogs.tif
176
     1
290
     0
176
     1
 40
1.0
176
     1
 40
1.0
176
     1
  0
VISUALSTYLE
  5
5A2
102
{ACAD_REACTORS
330
597
102
}
330
597
100
AcDbVisualStyle
  2
Dim
 70
    11
177
     3
291
     1
 70
    58
 90
        2
176
     1
 90
        2
176
     1
 90
        0
176
     1
 90
        0
176
     1
 40
0.6
176
     1
 40
30.0
176
     1
 62
     7
420
 16777215
176
     1
 90
        1
176
     1
 90
        4
176
     1
 62
     7
176
     1
 62
   257
176
     1
 90
        1
176
     1
 90
        1
176
     1
 40
1.0
176
     1
 90
        8
176
     1
 62
     7
176
     1
 40
1.0
176
     1
 90
        1
176
     1
 90
        6
176
     1
 90
        2
176
     1
 62
     7
176
     1
 90
        5
176
     1
 90
        0
176
     1
 90
        0
176
     1
290
     0
176
     1
 90
        1
176
     1
 40
-50.0
176
     1
 90
        0
176
     1
290
     0
176
     1
290
     1
176
     1
290
     1
176
     1
290
     0
176
     1
290
     0
176
     1
290
     0
176
     1
290
     0
176
     1
290
     0
176
     1
290
     0
176
     1
 90
       50
176
     1
 40
0.0
176
     1
 40
1.0
176
     1
 90
        0
176
     1
 62
    18
420
        0
176
     1
 90
       50
176
     1
 90
        3
176
     1
 62
     5
420
      255
176
     1
290
     0
176
     1
 90
       50
176
     1
 90
       50
176
     1
 90
       50
176
     1
290
     0
176
     1
 90
       50
176
     1
 62
   256
176
     0
 40
1.0
176
     0
 90
        2
176
     1
  1
strokes_ogs.tif
176
     1
290
     0
176
     1
 40
1.0
176
     1
 40
1.0
176
     1
  0
VISUALSTYLE
  5
5AA
102
{ACAD_REACTORS
330
597
102
}
330
597
100
AcDbVisualStyle
  2
EdgeColorOff
 70
    22
177
     3
291
     1
 70
    58
 90
        2
176
     0
 90
        2
176
     0
 90
        0
176
     0
 90
        0
176
     0
 40
0.6
176
     0
 40
30.0
176
     0
 62
     7
420
 16777215
176
     0
 90
        1
176
     0
 90
        4
176
     0
 62
     7
176
     0
 62
   257
176
     0
 90
        1
176
     0
 90
        1
176
     0
 40
1.0
176
     0
 90
        8
176
     2
 62
     7
176
     0
 40
1.0
176
     0
 90
        1
176
     0
 90
        6
176
     0
 90
        2
176
     0
 62
     7
176
     0
 90
        5
176
     0
 90
        0
176
     0
 90
        0
176
     0
290
     0
176
     0
 90
        1
176
     0
 40
0.0
176
     0
 90
        0
176
     0
290
     0
176
     0
290
     1
176
     0
290
     1
176
     0
290
     0
176
     0
290
     0
176
     0
290
     0
176
     0
290
     0
176
     0
290
     0
176
     0
290
     0
176
     0
 90
       50
176
     0
 40
0.0
176
     0
 40
1.0
176
     0
 90
        0
176
     0
 62
    18
420
        0
176
     0
 90
       50
176
     0
 90
        3
176
     0
 62
     5
420
      255
176
     0
290
     0
176
     0
 90
       50
176
     0
 90
       50
176
     0
 90
       50
176
     0
290
     0
176
     0
 90
       50
176
     0
 62
   256
176
     0
 40
1.0
176
     0
 90
        2
176
     0
  1
strokes_ogs.tif
176
     0
290
     0
176
     0
 40
1.0
176
     0
 40
1.0
176
     0
  0
VISUALSTYLE
  5
5A6
102
{ACAD_REACTORS
330
597
102
}
330
597
100
AcDbVisualStyle
  2
Facepattern
 70
    15
177
     3
291
     1
 70
    58
 90
        2
176
     1
 90
        2
176
     1
 90
        0
176
     1
 90
        0
176
     1
 40
0.6
176
     1
 40
30.0
176
     1
 62
     7
420
 16777215
176
     1
 90
        1
176
     1
 90
        4
176
     1
 62
     7
176
     1
 62
   257
176
     1
 90
        1
176
     1
 90
        1
176
     1
 40
1.0
176
     1
 90
        8
176
     1
 62
     7
176
     1
 40
1.0
176
     1
 90
        1
176
     1
 90
        6
176
     1
 90
        2
176
     1
 62
     7
176
     1
 90
        5
176
     1
 90
        0
176
     1
 90
        0
176
     1
290
     0
176
     1
 90
        1
176
     1
 40
0.0
176
     1
 90
        0
176
     1
290
     0
176
     1
290
     1
176
     1
290
     1
176
     1
290
     0
176
     1
290
     0
176
     1
290
     0
176
     1
290
     0
176
     1
290
     0
176
     1
290
     0
176
     1
 90
       50
176
     1
 40
0.0
176
     1
 40
1.0
176
     1
 90
        0
176
     1
 62
    18
420
        0
176
     1
 90
       50
176
     1
 90
        3
176
     1
 62
     5
420
      255
176
     1
290
     0
176
     1
 90
       50
176
     1
 90
       50
176
     1
 90
       50
176
     1
290
     0
176
     1
 90
       50
176
     1
 62
   256
176
     0
 40
1.0
176
     0
 90
        2
176
     1
  1
strokes_ogs.tif
176
     1
290
     0
176
     1
 40
1.0
176
     1
 40
1.0
176
     1
  0
VISUALSTYLE
  5
598
102
{ACAD_REACTORS
330
597
102
}
330
597
100
AcDbVisualStyle
  2
Flat
 70
     0
177
     3
291
     1
 70
    58
 90
        2
176
     1
 90
        1
176
     1
 90
        1
176
     1
 90
        2
176
     1
 40
0.6
176
     1
 40
30.0
176
     1
 62
     7
420
 16777215
176
     1
 90
        0
176
     1
 90
        0
176
     1
 62
     7
176
     1
 62
   257
176
     1
 90
        1
176
     1
 90
        1
176
     1
 40
1.0
176
     1
 90
        8
176
     1
 62
     7
176
     1
 40
1.0
176
     1
 90
        1
176
     1
 90
        6
176
     1
 90
        2
176
     1
 62
     7
176
     1
 90
        5
176
     1
 90
        0
176
     1
 90
        0
176
     1
290
     0
176
     1
 90
       13
176
     1
 40
0.0
176
     1
 90
        0
176
     1
290
     0
176
     1
290
     1
176
     1
290
     1
176
     1
290
     0
176
     1
290
     0
176
     1
290
     0
176
     1
290
     0
176
     1
290
     0
176
     1
290
     0
176
     1
 90
       50
176
     1
 40
0.0
176
     1
 40
1.0
176
     1
 90
        0
176
     1
 62
    18
420
        0
176
     1
 90
       50
176
     1
 90
        3
176
     1
 62
     5
420
      255
176
     1
290
     0
176
     1
 90
       50
176
     1
 90
       50
176
     1
 90
       50
176
     1
290
     0
176
     1
 90
       50
176
     1
 62
   256
176
     0
 40
1.0
176
     0
 90
        2
176
     1
  1
strokes_ogs.tif
176
     1
290
     0
176
     1
 40
1.0
176
     1
 40
1.0
176
     1
  0
VISUALSTYLE
  5
599
102
{ACAD_REACTORS
330
597
102
}
330
597
100
AcDbVisualStyle
  2
FlatWithEdges
 70
     1
177
     3
291
     1
 70
    58
 90
        2
176
     1
 90
        1
176
     1
 90
        1
176
     1
 90
        2
176
     1
 40
0.6
176
     1
 40
30.0
176
     1
 62
     7
420
 16777215
176
     1
 90
        1
176
     1
 90
        0
176
     1
 62
     7
176
     1
 62
   257
176
     1
 90
        1
176
     1
 90
        1
176
     1
 40
1.0
176
     1
 90
        0
176
     1
 62
   257
176
     1
 40
1.0
176
     1
 90
        1
176
     1
 90
        6
176
     1
 90
        2
176
     1
 62
     7
176
     1
 90
        5
176
     1
 90
        0
176
     1
 90
        0
176
     1
290
     0
176
     1
 90
       13
176
     1
 40
0.0
176
     1
 90
        0
176
     1
290
     0
176
     1
290
     1
176
     1
290
     1
176
     1
290
     0
176
     1
290
     0
176
     1
290
     0
176
     1
290
     0
176
     1
290
     0
176
     1
290
     0
176
     1
 90
       50
176
     1
 40
0.0
176
     1
 40
1.0
176
     1
 90
        0
176
     1
 62
    18
420
        0
176
     1
 90
       50
176
     1
 90
        3
176
     1
 62
     5
420
      255
176
     1
290
     0
176
     1
 90
       50
176
     1
 90
       50
176
     1
 90
       50
176
     1
290
     0
176
     1
 90
       50
176
     1
 62
   256
176
     0
 40
1.0
176
     0
 90
        2
176
     1
  1
strokes_ogs.tif
176
     1
290
     0
176
     1
 40
1.0
176
     1
 40
1.0
176
     1
  0
VISUALSTYLE
  5
59A
102
{ACAD_REACTORS
330
597
102
}
330
597
100
AcDbVisualStyle
  2
Gouraud
 70
     2
177
     3
291
     1
 70
    58
 90
        2
176
     1
 90
        2
176
     1
 90
        1
176
     1
 90
        2
176
     1
 40
0.6
176
     1
 40
30.0
176
     1
 62
     7
420
 16777215
176
     1
 90
        0
176
     1
 90
        0
176
     1
 62
     7
176
     1
 62
   257
176
     1
 90
        1
176
     1
 90
        1
176
     1
 40
1.0
176
     1
 90
        0
176
     1
 62
     7
176
     1
 40
1.0
176
     1
 90
        1
176
     1
 90
        6
176
     1
 90
        2
176
     1
 62
     7
176
     1
 90
        5
176
     1
 90
        0
176
     1
 90
        0
176
     1
290
     0
176
     1
 90
       13
176
     1
 40
0.0
176
     1
 90
        0
176
     1
290
     0
176
     1
290
     1
176
     1
290
     1
176
     1
290
     0
176
     1
290
     0
176
     1
290
     0
176
     1
290
     0
176
     1
290
     0
176
     1
290
     0
176
     1
 90
       50
176
     1
 40
0.0
176
     1
 40
1.0
176
     1
 90
        0
176
     1
 62
    18
420
        0
176
     1
 90
       50
176
     1
 90
        3
176
     1
 62
     5
420
      255
176
     1
290
     0
176
     1
 90
       50
176
     1
 90
       50
176
     1
 90
       50
176
     1
290
     0
176
     1
 90
       50
176
     1
 62
   256
176
     0
 40
1.0
176
     0
 90
        2
176
     1
  1
strokes_ogs.tif
176
     1
290
     0
176
     1
 40
1.0
176
     1
 40
1.0
176
     1
  0
VISUALSTYLE
  5
59B
102
{ACAD_REACTORS
330
597
102
}
330
597
100
AcDbVisualStyle
  2
GouraudWithEdges
 70
     3
177
     3
291
     1
 70
    58
 90
        2
176
     1
 90
        2
176
     1
 90
        1
176
     1
 90
        2
176
     1
 40
0.6
176
     1
 40
30.0
176
     1
 62
     7
420
 16777215
176
     1
 90
        1
176
     1
 90
        0
176
     1
 62
     7
176
     1
 62
   257
176
     1
 90
        1
176
     1
 90
        1
176
     1
 40
1.0
176
     1
 90
        0
176
     1
 62
   257
176
     1
 40
1.0
176
     1
 90
        1
176
     1
 90
        6
176
     1
 90
        2
176
     1
 62
     7
176
     1
 90
        5
176
     1
 90
        0
176
     1
 90
        0
176
     1
290
     0
176
     1
 90
       13
176
     1
 40
0.0
176
     1
 90
        0
176
     1
290
     0
176
     1
290
     1
176
     1
290
     1
176
     1
290
     0
176
     1
290
     0
176
     1
290
     0
176
     1
290
     0
176
     1
290
     0
176
     1
290
     0
176
     1
 90
       50
176
     1
 40
0.0
176
     1
 40
1.0
176
     1
 90
        0
176
     1
 62
    18
420
        0
176
     1
 90
       50
176
     1
 90
        3
176
     1
 62
     5
420
      255
176
     1
290
     0
176
     1
 90
       50
176
     1
 90
       50
176
     1
 90
       50
176
     1
290
     0
176
     1
 90
       50
176
     1
 62
   256
176
     0
 40
1.0
176
     0
 90
        2
176
     1
  1
strokes_ogs.tif
176
     1
290
     0
176
     1
 40
1.0
176
     1
 40
1.0
176
     1
  0
VISUALSTYLE
  5
59E
102
{ACAD_REACTORS
330
597
102
}
330
597
100
AcDbVisualStyle
  2
Hidden
 70
     6
177
     3
291
     0
 70
    58
 90
        1
176
     1
 90
        2
176
     1
 90
        2
176
     1
 90
        0
176
     1
 40
0.6
176
     1
 40
30.0
176
     1
 62
     7
420
 16777215
176
     1
 90
        2
176
     1
 90
        2
176
     1
 62
     7
176
     1
 62
   257
176
     1
 90
        2
176
     1
 90
        1
176
     1
 40
40.0
176
     1
 90
        0
176
     1
 62
   257
176
     1
 40
1.0
176
     1
 90
        1
176
     1
 90
        6
176
     1
 90
        2
176
     1
 62
     7
176
     1
 90
        3
176
     1
 90
        0
176
     1
 90
        0
176
     1
290
     0
176
     1
 90
        1
176
     1
 40
0.0
176
     1
 90
        0
176
     1
290
     0
176
     1
290
     1
176
     1
290
     1
176
     1
290
     0
176
     1
290
     0
176
     1
290
     0
176
     1
290
     0
176
     1
290
     0
176
     1
290
     0
176
     1
 90
       50
176
     1
 40
0.0
176
     1
 40
1.0
176
     1
 90
        0
176
     1
 62
    18
420
        0
176
     1
 90
       50
176
     1
 90
        3
176
     1
 62
     5
420
      255
176
     1
290
     0
176
     1
 90
       50
176
     1
 90
       50
176
     1
 90
       50
176
     1
290
     0
176
     1
 90
       50
176
     1
 62
   256
176
     0
 40
1.0
176
     0
 90
        2
176
     1
  1
strokes_ogs.tif
176
     1
290
     0
176
     1
 40
1.0
176
     1
 40
1.0
176
     1
  0
VISUALSTYLE
  5
5A8
102
{ACAD_REACTORS
330
597
102
}
330
597
100
AcDbVisualStyle
  2
JitterOff
 70
    20
177
     3
291
     1
 70
    58
 90
        2
176
     0
 90
        2
176
     0
 90
        0
176
     0
 90
        0
176
     0
 40
0.6
176
     0
 40
30.0
176
     0
 62
     7
420
 16777215
176
     0
 90
        1
176
     0
 90
        4
176
     0
 62
     7
176
     0
 62
   257
176
     0
 90
        1
176
     0
 90
        1
176
     0
 40
1.0
176
     0
 90
       10
176
     2
 62
     7
176
     0
 40
1.0
176
     0
 90
        1
176
     0
 90
        6
176
     0
 90
        2
176
     0
 62
     7
176
     0
 90
        5
176
     0
 90
        0
176
     0
 90
        0
176
     0
290
     0
176
     0
 90
        1
176
     0
 40
0.0
176
     0
 90
        0
176
     0
290
     0
176
     0
290
     1
176
     0
290
     1
176
     0
290
     0
176
     0
290
     0
176
     0
290
     0
176
     0
290
     0
176
     0
290
     0
176
     0
290
     0
176
     0
 90
       50
176
     0
 40
0.0
176
     0
 40
1.0
176
     0
 90
        0
176
     0
 62
    18
420
        0
176
     0
 90
       50
176
     0
 90
        3
176
     0
 62
     5
420
      255
176
     0
290
     0
176
     0
 90
       50
176
     0
 90
       50
176
     0
 90
       50
176
     0
290
     0
176
     0
 90
       50
176
     0
 62
   256
176
     0
 40
1.0
176
     0
 90
        2
176
     0
  1
strokes_ogs.tif
176
     0
290
     0
176
     0
 40
1.0
176
     0
 40
1.0
176
     0
  0
VISUALSTYLE
  5
5A5
102
{ACAD_REACTORS
330
597
102
}
330
597
100
AcDbVisualStyle
  2
Linepattern
 70
    14
177
     3
291
     1
 70
    58
 90
        2
176
     1
 90
        2
176
     1
 90
        0
176
     1
 90
        0
176
     1
 40
0.6
176
     1
 40
30.0
176
     1
 62
     7
420
 16777215
176
     1
 90
        1
176
     1
 90
        4
176
     1
 62
     7
176
     1
 62
   257
176
     1
 90
        7
176
     1
 90
        7
176
     1
 40
1.0
176
     1
 90
        8
176
     1
 62
     7
176
     1
 40
1.0
176
     1
 90
        1
176
     1
 90
        6
176
     1
 90
        2
176
     1
 62
     7
176
     1
 90
        5
176
     1
 90
        0
176
     1
 90
        0
176
     1
290
     0
176
     1
 90
        1
176
     1
 40
0.0
176
     1
 90
        0
176
     1
290
     0
176
     1
290
     1
176
     1
290
     1
176
     1
290
     0
176
     1
290
     0
176
     1
290
     0
176
     1
290
     0
176
     1
290
     0
176
     1
290
     0
176
     1
 90
       50
176
     1
 40
0.0
176
     1
 40
1.0
176
     1
 90
        0
176
     1
 62
    18
420
        0
176
     1
 90
       50
176
     1
 90
        3
176
     1
 62
     5
420
      255
176
     1
290
     0
176
     1
 90
       50
176
     1
 90
       50
176
     1
 90
       50
176
     1
290
     0
176
     1
 90
       50
176
     1
 62
   256
176
     0
 40
1.0
176
     0
 90
        2
176
     1
  1
strokes_ogs.tif
176
     1
290
     0
176
     1
 40
1.0
176
     1
 40
1.0
176
     1
  0
VISUALSTYLE
  5
5A9
102
{ACAD_REACTORS
330
597
102
}
330
597
100
AcDbVisualStyle
  2
OverhangOff
 70
    21
177
     3
291
     1
 70
    58
 90
        2
176
     0
 90
        2
176
     0
 90
        0
176
     0
 90
        0
176
     0
 40
0.6
176
     0
 40
30.0
176
     0
 62
     7
420
 16777215
176
     0
 90
        1
176
     0
 90
        4
176
     0
 62
     7
176
     0
 62
   257
176
     0
 90
        1
176
     0
 90
        1
176
     0
 40
1.0
176
     0
 90
        9
176
     2
 62
     7
176
     0
 40
1.0
176
     0
 90
        1
176
     0
 90
        6
176
     0
 90
        2
176
     0
 62
     7
176
     0
 90
        5
176
     0
 90
        0
176
     0
 90
        0
176
     0
290
     0
176
     0
 90
        1
176
     0
 40
0.0
176
     0
 90
        0
176
     0
290
     0
176
     0
290
     1
176
     0
290
     1
176
     0
290
     0
176
     0
290
     0
176
     0
290
     0
176
     0
290
     0
176
     0
290
     0
176
     0
290
     0
176
     0
 90
       50
176
     0
 40
0.0
176
     0
 40
1.0
176
     0
 90
        0
176
     0
 62
    18
420
        0
176
     0
 90
       50
176
     0
 90
        3
176
     0
 62
     5
420
      255
176
     0
290
     0
176
     0
 90
       50
176
     0
 90
       50
176
     0
 90
       50
176
     0
290
     0
176
     0
 90
       50
176
     0
 62
   256
176
     0
 40
1.0
176
     0
 90
        2
176
     0
  1
strokes_ogs.tif
176
     0
290
     0
176
     0
 40
1.0
176
     0
 40
1.0
176
     0
  0
VISUALSTYLE
  5
5A0
102
{ACAD_REACTORS
330
597
102
}
330
597
100
AcDbVisualStyle
  2
Realistic
 70
     8
177
     3
291
     0
 70
    58
 90
        2
176
     1
 90
        3
176
     1
 90
        0
176
     1
 90
        2
176
     1
 40
0.6
176
     1
 40
30.0
176
     1
 62
     7
420
 16777215
176
     1
 90
        0
176
     1
 90
        0
176
     1
 62
     7
176
     1
 62
   257
176
     1
 90
        1
176
     1
 90
        1
176
     1
 40
1.0
176
     1
 90
        8
176
     1
 62
   257
176
     1
 40
1.0
176
     1
 90
        1
176
     1
 90
        6
176
     1
 90
        2
176
     1
 62
     7
176
     1
 90
        3
176
     1
 90
        0
176
     1
 90
        0
176
     1
290
     0
176
     1
 90
       13
176
     1
 40
0.0
176
     1
 90
        0
176
     1
290
     0
176
     1
290
     1
176
     1
290
     1
176
     1
290
     0
176
     1
290
     0
176
     1
290
     0
176
     1
290
     0
176
     1
290
     0
176
     1
290
     0
176
     1
 90
       50
176
     1
 40
0.0
176
     1
 40
1.0
176
     1
 90
        0
176
     1
 62
    18
420
        0
176
     1
 90
       50
176
     1
 90
        3
176
     1
 62
     5
420
      255
176
     1
290
     0
176
     1
 90
       50
176
     1
 90
       50
176
     1
 90
       50
176
     1
290
     0
176
     1
 90
       50
176
     1
 62
   256
176
     0
 40
1.0
176
     0
 90
        2
176
     1
  1
strokes_ogs.tif
176
     1
290
     0
176
     1
 40
1.0
176
     1
 40
1.0
176
     1
  0
VISUALSTYLE
  5
5AF
102
{ACAD_REACTORS
330
597
102
}
330
597
100
AcDbVisualStyle
  2
Shaded
 70
    27
177
     3
291
     0
 70
    58
 90
        2
176
     1
 90
        2
176
     1
 90
        1
176
     1
 90
        2
176
     1
 40
0.6
176
     1
 40
30.0
176
     1
 62
     7
420
 16777215
176
     1
 90
        0
176
     1
 90
        4
176
     1
 62
     7
176
     1
 62
   257
176
     1
 90
        1
176
     1
 90
        1
176
     1
 40
1.0
176
     1
 90
        8
176
     1
 62
   257
176
     1
 40
1.0
176
     1
 90
        1
176
     1
 90
        6
176
     1
 90
        2
176
     1
 62
     8
420
  7895160
176
     1
 90
        3
176
     1
 90
        0
176
     1
 90
        0
176
     1
290
     0
176
     1
 90
        5
176
     1
 40
0.0
176
     1
 90
        0
176
     1
290
     0
176
     1
290
     1
176
     1
290
     1
176
     1
290
     0
176
     1
290
     0
176
     1
290
     0
176
     1
290
     0
176
     1
290
     0
176
     1
290
     0
176
     1
 90
       50
176
     1
 40
0.0
176
     1
 40
1.0
176
     1
 90
        0
176
     1
 62
    18
420
        0
176
     1
 90
       50
176
     1
 90
        3
176
     1
 62
     5
420
      255
176
     1
290
     0
176
     1
 90
       50
176
     1
 90
       50
176
     1
 90
       50
176
     1
290
     0
176
     1
 90
       50
176
     1
 62
   256
176
     0
 40
1.0
176
     0
 90
        2
176
     1
  1
strokes_ogs.tif
176
     1
290
     0
176
     1
 40
1.0
176
     1
 40
1.0
176
     1
  0
VISUALSTYLE
  5
5AE
102
{ACAD_REACTORS
330
597
102
}
330
597
100
AcDbVisualStyle
  2
Shaded with edges
 70
    26
177
     3
291
     0
 70
    58
 90
        2
176
     1
 90
        2
176
     1
 90
        1
176
     1
 90
        2
176
     1
 40
0.6
176
     1
 40
30.0
176
     1
 62
     7
420
 16777215
176
     1
 90
        1
176
     1
 90
       10
176
     1
 62
     7
176
     1
 62
   257
176
     1
 90
        2
176
     1
 90
        1
176
     1
 40
1.0
176
     1
 90
        8
176
     1
 62
   257
176
     1
 40
1.0
176
     1
 90
        1
176
     1
 90
        6
176
     1
 90
        2
176
     1
 62
     7
176
     1
 90
        3
176
     1
 90
        0
176
     1
 90
        0
176
     1
290
     0
176
     1
 90
        5
176
     1
 40
0.0
176
     1
 90
        0
176
     1
290
     0
176
     1
290
     1
176
     1
290
     1
176
     1
290
     0
176
     1
290
     0
176
     1
290
     0
176
     1
290
     0
176
     1
290
     0
176
     1
290
     0
176
     1
 90
       50
176
     1
 40
0.0
176
     1
 40
1.0
176
     1
 90
        0
176
     1
 62
    18
420
        0
176
     1
 90
       50
176
     1
 90
        3
176
     1
 62
     5
420
      255
176
     1
290
     0
176
     1
 90
       50
176
     1
 90
       50
176
     1
 90
       50
176
     1
290
     0
176
     1
 90
       50
176
     1
 62
   256
176
     0
 40
1.0
176
     0
 90
        2
176
     1
  1
strokes_ogs.tif
176
     1
290
     0
176
     1
 40
1.0
176
     1
 40
1.0
176
     1
  0
VISUALSTYLE
  5
5AB
102
{ACAD_REACTORS
330
597
102
}
330
597
100
AcDbVisualStyle
  2
Shades of Gray
 70
    23
177
     3
291
     0
 70
    58
 90
        2
176
     1
 90
        2
176
     1
 90
        3
176
     1
 90
        0
176
     1
 40
0.6
176
     1
 40
30.0
176
     1
 62
     7
420
 16777215
176
     1
 90
        2
176
     1
 90
        2
176
     1
 62
     7
176
     1
 62
     7
176
     1
 90
        1
176
     1
 90
        1
176
     1
 40
40.0
176
     1
 90
        8
176
     1
 62
     7
176
     1
 40
1.0
176
     1
 90
        1
176
     1
 90
        6
176
     1
 90
        2
176
     1
 62
     7
176
     1
 90
        3
176
     1
 90
        0
176
     1
 90
        0
176
     1
290
     0
176
     1
 90
        1
176
     1
 40
0.0
176
     1
 90
        0
176
     1
290
     0
176
     1
290
     1
176
     1
290
     1
176
     1
290
     0
176
     1
290
     0
176
     1
290
     0
176
     1
290
     0
176
     1
290
     0
176
     1
290
     0
176
     1
 90
       50
176
     1
 40
0.0
176
     1
 40
1.0
176
     1
 90
        0
176
     1
 62
    18
420
        0
176
     1
 90
       50
176
     1
 90
        3
176
     1
 62
     5
420
      255
176
     1
290
     0
176
     1
 90
       50
176
     1
 90
       50
176
     1
 90
       50
176
     1
290
     0
176
     1
 90
       50
176
     1
 62
   256
176
     0
 40
1.0
176
     0
 90
        2
176
     1
  1
strokes_ogs.tif
176
     1
290
     0
176
     1
 40
1.0
176
     1
 40
1.0
176
     1
  0
VISUALSTYLE
  5
5AC
102
{ACAD_REACTORS
330
597
102
}
330
597
100
AcDbVisualStyle
  2
Sketchy
 70
    24
177
     3
291
     0
 70
    58
 90
        1
176
     1
 90
        2
176
     1
 90
        2
176
     1
 90
        0
176
     1
 40
0.6
176
     1
 40
30.0
176
     1
 62
     7
420
 16777215
176
     1
 90
        2
176
     1
 90
        2
176
     1
 62
     7
176
     1
 62
     7
176
     1
 90
        1
176
     1
 90
        1
176
     1
 40
40.0
176
     1
 90
       11
176
     1
 62
     7
176
     1
 40
1.0
176
     1
 90
        1
176
     1
 90
        6
176
     1
 90
        2
176
     1
 62
     7
176
     1
 90
        6
176
     1
 90
        0
176
     1
 90
        0
176
     1
290
     0
176
     1
 90
        1
176
     1
 40
0.0
176
     1
 90
        0
176
     1
290
     0
176
     1
290
     1
176
     1
290
     1
176
     1
290
     0
176
     1
290
     0
176
     1
290
     0
176
     1
290
     0
176
     1
290
     0
176
     1
290
     0
176
     1
 90
       50
176
     1
 40
0.0
176
     1
 40
1.0
176
     1
 90
        0
176
     1
 62
    18
420
        0
176
     1
 90
       50
176
     1
 90
        3
176
     1
 62
     5
420
      255
176
     1
290
     0
176
     1
 90
       50
176
     1
 90
       50
176
     1
 90
       50
176
     1
290
     0
176
     1
 90
       50
176
     1
 62
   256
176
     0
 40
1.0
176
     0
 90
        2
176
     1
  1
strokes_ogs.tif
176
     1
290
     0
176
     1
 40
1.0
176
     1
 40
1.0
176
     1
  0
VISUALSTYLE
  5
5A4
102
{ACAD_REACTORS
330
597
102
}
330
597
100
AcDbVisualStyle
  2
Thicken
 70
    13
177
     3
291
     1
 70
    58
 90
        2
176
     1
 90
        2
176
     1
 90
        0
176
     1
 90
        0
176
     1
 40
0.6
176
     1
 40
30.0
176
     1
 62
     7
420
 16777215
176
     1
 90
        1
176
     1
 90
        4
176
     1
 62
     7
176
     1
 62
   257
176
     1
 90
        1
176
     1
 90
        1
176
     1
 40
1.0
176
     1
 90
       12
176
     1
 62
     7
176
     1
 40
1.0
176
     1
 90
        1
176
     1
 90
        6
176
     1
 90
        2
176
     1
 62
     7
176
     1
 90
        5
176
     1
 90
        0
176
     1
 90
        0
176
     1
290
     0
176
     1
 90
        1
176
     1
 40
0.0
176
     1
 90
        0
176
     1
290
     0
176
     1
290
     1
176
     1
290
     1
176
     1
290
     0
176
     1
290
     0
176
     1
290
     0
176
     1
290
     0
176
     1
290
     0
176
     1
290
     0
176
     1
 90
       50
176
     1
 40
0.0
176
     1
 40
1.0
176
     1
 90
        0
176
     1
 62
    18
420
        0
176
     1
 90
       50
176
     1
 90
        3
176
     1
 62
     5
420
      255
176
     1
290
     0
176
     1
 90
       50
176
     1
 90
       50
176
     1
 90
       50
176
     1
290
     0
176
     1
 90
       50
176
     1
 62
   256
176
     0
 40
1.0
176
     0
 90
        2
176
     1
  1
strokes_ogs.tif
176
     1
290
     0
176
     1
 40
1.0
176
     1
 40
1.0
176
     1
  0
VISUALSTYLE
  5
59D
102
{ACAD_REACTORS
330
597
102
}
330
597
100
AcDbVisualStyle
  2
Wireframe
 70
     5
177
     3
291
     0
 70
    58
 90
        0
176
     1
 90
        2
176
     1
 90
        0
176
     1
 90
        0
176
     1
 40
0.6
176
     1
 40
30.0
176
     1
 62
     7
420
 16777215
176
     1
 90
        1
176
     1
 90
        4
176
     1
 62
     7
176
     1
 62
   257
176
     1
 90
        1
176
     1
 90
        1
176
     1
 40
1.0
176
     1
 90
        0
176
     1
 62
   257
176
     1
 40
1.0
176
     1
 90
        1
176
     1
 90
        6
176
     1
 90
        2
176
     1
 62
     7
176
     1
 90
        3
176
     1
 90
        0
176
     1
 90
        0
176
     1
290
     0
176
     1
 90
        1
176
     1
 40
0.0
176
     1
 90
        0
176
     1
290
     0
176
     1
290
     1
176
     1
290
     1
176
     1
290
     0
176
     1
290
     0
176
     1
290
     0
176
     1
290
     0
176
     1
290
     0
176
     1
290
     0
176
     1
 90
       50
176
     1
 40
0.0
176
     1
 40
1.0
176
     1
 90
        0
176
     1
 62
    18
420
        0
176
     1
 90
       50
176
     1
 90
        3
176
     1
 62
     5
420
      255
176
     1
290
     0
176
     1
 90
       50
176
     1
 90
       50
176
     1
 90
       50
176
     1
290
     0
176
     1
 90
       50
176
     1
 62
   256
176
     0
 40
1.0
176
     0
 90
        2
176
     1
  1
strokes_ogs.tif
176
     1
290
     0
176
     1
 40
1.0
176
     1
 40
1.0
176
     1
  0
VISUALSTYLE
  5
5AD
102
{ACAD_REACTORS
330
597
102
}
330
597
100
AcDbVisualStyle
  2
X-Ray
 70
    25
177
     3
291
     0
 70
    58
 90
        2
176
     1
 90
        2
176
     1
 90
        1
176
     1
 90
        1
176
     1
 40
0.5
176
     1
 40
30.0
176
     1
 62
     7
420
 16777215
176
     1
 90
        1
176
     1
 90
        0
176
     1
 62
     7
176
     1
 62
   257
176
     1
 90
        1
176
     1
 90
        1
176
     1
 40
1.0
176
     1
 90
        8
176
     1
 62
     7
176
     1
 40
1.0
176
     1
 90
        1
176
     1
 90
        6
176
     1
 90
        2
176
     1
 62
     7
176
     1
 90
        3
176
     1
 90
        0
176
     1
 90
        0
176
     1
290
     0
176
     1
 90
       13
176
     1
 40
0.0
176
     1
 90
        0
176
     1
290
     0
176
     1
290
     1
176
     1
290
     1
176
     1
290
     0
176
     1
290
     0
176
     1
290
     0
176
     1
290
     0
176
     1
290
     0
176
     1
290
     0
176
     1
 90
       50
176
     1
 40
0.0
176
     1
 40
1.0
176
     1
 90
        0
176
     1
 62
    18
420
        0
176
     1
 90
       50
176
     1
 90
        3
176
     1
 62
     5
420
      255
176
     1
290
     0
176
     1
 90
       50
176
     1
 90
       50
176
     1
 90
       50
176
     1
290
     0
176
     1
 90
       50
176
     1
 62
   256
176
     0
 40
1.0
176
     0
 90
        2
176
     1
  1
strokes_ogs.tif
176
     1
290
     0
176
     1
 40
1.0
176
     1
 40
1.0
176
     1
  0
DICTIONARYVAR
  5
66B
102
{ACAD_REACTORS
330
66A
102
}
330
66A
100
DictionaryVariables
280
     0
  1
1:1
  0
DICTIONARYVAR
  5
670
102
{ACAD_REACTORS
330
66A
102
}
330
66A
100
DictionaryVariables
280
     0
  1
Standard
  0
DICTIONARYVAR
  5
66F
102
{ACAD_REACTORS
330
66A
102
}
330
66A
100
DictionaryVariables
280
     0
  1
Standard
  0
XRECORD
  5
5DE
102
{ACAD_REACTORS
330
5DC
102
}
330
5DC
100
AcDbXrecord
280
     1
1000
#ffffff
  0
XRECORD
  5
5DF
102
{ACAD_REACTORS
330
5DC
102
}
330
5DC
100
AcDbXrecord
280
     1
1000
FullColor
  0
XRECORD
  5
5E0
102
{ACAD_REACTORS
330
5DC
102
}
330
5DC
100
AcDbXrecord
280
     1
290
     0
  0
XRECORD
  5
5E1
102
{ACAD_REACTORS
330
5DC
102
}
330
5DC
100
AcDbXrecord
280
     1
290
     0
  0
XRECORD
  5
5E2
102
{ACAD_REACTORS
330
5DC
102
}
330
5DC
100
AcDbXrecord
280
     1
290
     1
  0
XRECORD
  5
5E3
102
{ACAD_REACTORS
330
5DC
102
}
330
5DC
100
AcDbXrecord
280
     1
290
     1
  0
XRECORD
  5
5E4
102
{ACAD_REACTORS
330
5DC
102
}
330
5DC
100
AcDbXrecord
280
     1
1000
auto
  0
XRECORD
  5
5E5
102
{ACAD_REACTORS
330
5DC
102
}
330
5DC
100
AcDbXrecord
280
     1
1000
auto
  0
XRECORD
  5
5E6
102
{ACAD_REACTORS
330
5DC
102
}
330
5DC
100
AcDbXrecord
280
     1
1000
auto
  0
XRECORD
  5
5E7
102
{ACAD_REACTORS
330
5DC
102
}
330
5DC
100
AcDbXrecord
280
     1
1000
auto
  0
XRECORD
  5
5E8
102
{ACAD_REACTORS
330
5DC
102
}
330
5DC
100
AcDbXrecord
280
     1
1000
auto
  0
XRECORD
  5
5E9
102
{ACAD_REACTORS
330
5DC
102
}
330
5DC
100
AcDbXrecord
280
     1
1000
auto
  0
XRECORD
  5
5EA
102
{ACAD_REACTORS
330
5DC
102
}
330
5DC
100
AcDbXrecord
280
     1
1000
auto
  0
XRECORD
  5
5EB
102
{ACAD_REACTORS
330
5DC
102
}
330
5DC
100
AcDbXrecord
280
     1
1000
auto
  0
XRECORD
  5
5EC
102
{ACAD_REACTORS
330
5DC
102
}
330
5DC
100
AcDbXrecord
280
     1
290
     0
  0
XRECORD
  5
5ED
102
{ACAD_REACTORS
330
5DC
102
}
330
5DC
100
AcDbXrecord
280
     1
290
     0
  0
XRECORD
  5
5EE
102
{ACAD_REACTORS
330
5DC
102
}
330
5DC
100
AcDbXrecord
280
     1
290
     0
  0
XRECORD
  5
5EF
102
{ACAD_REACTORS
330
5DC
102
}
330
5DC
100
AcDbXrecord
280
     1
290
     0
  0
XRECORD
  5
5F0
102
{ACAD_REACTORS
330
5DC
102
}
330
5DC
100
AcDbXrecord
280
     1
 90
    65537
  0
XRECORD
  5
5F1
102
{ACAD_REACTORS
330
5DC
102
}
330
5DC
100
AcDbXrecord
280
     1
 90
    65537
  0
XRECORD
  5
5F2
102
{ACAD_REACTORS
330
5DC
102
}
330
5DC
100
AcDbXrecord
280
     1
 90
    65537
  0
XRECORD
  5
5F3
102
{ACAD_REACTORS
330
5DC
102
}
330
5DC
100
AcDbXrecord
280
     1
 90
    65537
  0
XRECORD
  5
5F4
102
{ACAD_REACTORS
330
5DC
102
}
330
5DC
100
AcDbXrecord
280
     1
1000
auto
  0
XRECORD
  5
5F5
102
{ACAD_REACTORS
330
5DC
102
}
330
5DC
100
AcDbXrecord
280
     1
1000
auto
  0
XRECORD
  5
5F6
102
{ACAD_REACTORS
330
5DC
102
}
330
5DC
100
AcDbXrecord
280
     1
1000
auto
  0
XRECORD
  5
5F7
102
{ACAD_REACTORS
330
5DC
102
}
330
5DC
100
AcDbXrecord
280
     1
1000
auto
  0
XRECORD
  5
5F8
102
{ACAD_REACTORS
330
5DC
102
}
330
5DC
100
AcDbXrecord
280
     1
1000
auto
  0
XRECORD
  5
5F9
102
{ACAD_REACTORS
330
5DC
102
}
330
5DC
100
AcDbXrecord
280
     1
1000
auto
  0
XRECORD
  5
5FA
102
{ACAD_REACTORS
330
5DC
102
}
330
5DC
100
AcDbXrecord
280
     1
1000
auto
  0
XRECORD
  5
5FB
102
{ACAD_REACTORS
330
5DC
102
}
330
5DC
100
AcDbXrecord
280
     1
1000
auto
  0
XRECORD
  5
5FC
102
{ACAD_REACTORS
330
5DC
102
}
330
5DC
100
AcDbXrecord
280
     1
 90
        1
  0
XRECORD
  5
5FD
102
{ACAD_REACTORS
330
5DC
102
}
330
5DC
100
AcDbXrecord
280
     1
 40
10.0
  0
XRECORD
  5
5FE
102
{ACAD_REACTORS
330
5DC
102
}
330
5DC
100
AcDbXrecord
280
     1
 40
10.0
  0
XRECORD
  5
5FF
102
{ACAD_REACTORS
330
5DC
102
}
330
5DC
100
AcDbXrecord
280
     1
 40
10.0
  0
XRECORD
  5
600
102
{ACAD_REACTORS
330
5DC
102
}
330
5DC
100
AcDbXrecord
280
     1
 40
10.0
  0
XRECORD
  5
601
102
{ACAD_REACTORS
330
5DC
102
}
330
5DC
100
AcDbXrecord
280
     1
290
     0
  0
XRECORD
  5
602
102
{ACAD_REACTORS
330
5DC
102
}
330
5DC
100
AcDbXrecord
280
     1
 90
        1
  0
XRECORD
  5
603
102
{ACAD_REACTORS
330
5DC
102
}
330
5DC
100
AcDbXrecord
280
     1
 40
0.0
  0
XRECORD
  5
604
102
{ACAD_REACTORS
330
5DC
102
}
330
5DC
100
AcDbXrecord
280
     1
 40
0.0
  0
XRECORD
  5
605
102
{ACAD_REACTORS
330
5DC
102
}
330
5DC
100
AcDbXrecord
280
     1
1000
Portrait
  0
XRECORD
  5
606
102
{ACAD_REACTORS
330
5DC
102
}
330
5DC
100
AcDbXrecord
280
     1
 40
297.0
  0
XRECORD
  5
607
102
{ACAD_REACTORS
330
5DC
102
}
330
5DC
100
AcDbXrecord
280
     1
 40
210.0
  0
XRECORD
  5
608
102
{ACAD_REACTORS
330
5DC
102
}
330
5DC
100
AcDbXrecord
280
     1
1000
1:1
  0
XRECORD
  5
609
102
{ACAD_REACTORS
330
5DC
102
}
330
5DC
100
AcDbXrecord
280
     1
290
     1
  0
XRECORD
  5
60A
102
{ACAD_REACTORS
330
5DC
102
}
330
5DC
100
AcDbXrecord
280
     1
290
     0
  0
XRECORD
  5
60B
102
{ACAD_REACTORS
330
5DC
102
}
330
5DC
100
AcDbXrecord
280
     1
1000
Inside
  0
XRECORD
  5
60C
102
{ACAD_REACTORS
330
5DC
102
}
330
5DC
100
AcDbXrecord
280
     1
1000
Arial,10,-1,5,50,0,0,0,0,0
  0
XRECORD
  5
60D
102
{ACAD_REACTORS
330
5DC
102
}
330
5DC
100
AcDbXrecord
280
     1
1000
TopLeft
  0
XRECORD
  5
5DD
102
{ACAD_REACTORS
330
5DC
102
}
330
5DC
100
AcDbXrecord
280
     1
1000
3.24.2
  0
XRECORD
  5
60E
102
{ACAD_REACTORS
330
5DC
102
}
330
5DC
100
AcDbXrecord
280
     1
 90
        4
  0
XRECORD
  5
60F
102
{ACAD_REACTORS
330
5DC
102
}
330
5DC
100
AcDbXrecord
280
     1
  0
XRECORD
  5
610
102
{ACAD_REACTORS
330
5DC
102
}
330
5DC
100
AcDbXrecord
280
     1
 40
1729.811320754717
  0
XRECORD
  5
611
102
{ACAD_REACTORS
330
5DC
102
}
330
5DC
100
AcDbXrecord
280
     1
 40
3113.207547169811
  0
DICTIONARY
  5
66C
330
5D7
100
AcDbDictionary
280
     1
281
     1
  3
ACAD_ROUNDTRIP_2008_TABLESTYLE_CELLSTYLEMAP
360
66D
  0
CELLSTYLEMAP
  5
66D
102
{ACAD_REACTORS
330
66C
102
}
330
66C
100
AcDbCellStyleMap
 90
        3
300
CELLSTYLE
  1
TABLEFORMAT_BEGIN
 90
        5
170
     1
 91
        0
 92
    32768
 62
   257
 93
        1
300
CONTENTFORMAT
  1
CONTENTFORMAT_BEGIN
 90
        0
 91
        0
 92
        4
 93
        0
300

 40
0.0
140
1.0
 94
        5
 62
     0
340
57F
144
0.25
309
CONTENTFORMAT_END
171
     1
301
MARGIN
  1
CELLMARGIN_BEGIN
 40
0.06
 40
0.06
 40
0.06
 40
0.06
 40
0.06
 40
0.06
309
CELLMARGIN_END
 94
        6
 95
        1
302
GRIDFORMAT
  1
GRIDFORMAT_BEGIN
 90
        0
 91
        1
 62
     0
 92
       -2
340
581
 93
        0
 40
0.045
309
GRIDFORMAT_END
 95
        2
302
GRIDFORMAT
  1
GRIDFORMAT_BEGIN
 90
        0
 91
        1
 62
     0
 92
       -2
340
581
 93
        0
 40
0.045
309
GRIDFORMAT_END
 95
        4
302
GRIDFORMAT
  1
GRIDFORMAT_BEGIN
 90
        0
 91
        1
 62
     0
 92
       -2
340
581
 93
        0
 40
0.045
309
GRIDFORMAT_END
 95
        8
302
GRIDFORMAT
  1
GRIDFORMAT_BEGIN
 90
        0
 91
        1
 62
     0
 92
       -2
340
581
 93
        0
 40
0.045
309
GRIDFORMAT_END
 95
       16
302
GRIDFORMAT
  1
GRIDFORMAT_BEGIN
 90
        0
 91
        1
 62
     0
 92
       -2
340
581
 93
        0
 40
0.045
309
GRIDFORMAT_END
 95
       32
302
GRIDFORMAT
  1
GRIDFORMAT_BEGIN
 90
        0
 91
        1
 62
     0
 92
       -2
340
581
 93
        0
 40
0.045
309
GRIDFORMAT_END
309
TABLEFORMAT_END
  1
CELLSTYLE_BEGIN
 90
        1
 91
        1
300
_TITLE
309
CELLSTYLE_END
300
CELLSTYLE
  1
TABLEFORMAT_BEGIN
 90
        5
170
     1
 91
        0
 92
        0
 62
   257
 93
        1
300
CONTENTFORMAT
  1
CONTENTFORMAT_BEGIN
 90
        0
 91
        0
 92
        4
 93
        0
300

 40
0.0
140
1.0
 94
        5
 62
     0
340
57F
144
0.18
309
CONTENTFORMAT_END
171
     1
301
MARGIN
  1
CELLMARGIN_BEGIN
 40
0.06
 40
0.06
 40
0.06
 40
0.06
 40
0.06
 40
0.06
309
CELLMARGIN_END
 94
        6
 95
        1
302
GRIDFORMAT
  1
GRIDFORMAT_BEGIN
 90
        0
 91
        1
 62
     0
 92
       -2
340
581
 93
        0
 40
0.045
309
GRIDFORMAT_END
 95
        2
302
GRIDFORMAT
  1
GRIDFORMAT_BEGIN
 90
        0
 91
        1
 62
     0
 92
       -2
340
581
 93
        0
 40
0.045
309
GRIDFORMAT_END
 95
        4
302
GRIDFORMAT
  1
GRIDFORMAT_BEGIN
 90
        0
 91
        1
 62
     0
 92
       -2
340
581
 93
        0
 40
0.045
309
GRIDFORMAT_END
 95
        8
302
GRIDFORMAT
  1
GRIDFORMAT_BEGIN
 90
        0
 91
        1
 62
     0
 92
       -2
340
581
 93
        0
 40
0.045
309
GRIDFORMAT_END
 95
       16
302
GRIDFORMAT
  1
GRIDFORMAT_BEGIN
 90
        0
 91
        1
 62
     0
 92
       -2
340
581
 93
        0
 40
0.045
309
GRIDFORMAT_END
 95
       32
302
GRIDFORMAT
  1
GRIDFORMAT_BEGIN
 90
        0
 91
        1
 62
     0
 92
       -2
340
581
 93
        0
 40
0.045
309
GRIDFORMAT_END
309
TABLEFORMAT_END
  1
CELLSTYLE_BEGIN
 90
        2
 91
        1
300
_HEADER
309
CELLSTYLE_END
300
CELLSTYLE
  1
TABLEFORMAT_BEGIN
 90
        5
170
     1
 91
        0
 92
        0
 62
   257
 93
        1
300
CONTENTFORMAT
  1
CONTENTFORMAT_BEGIN
 90
        0
 91
        0
 92
        4
 93
        0
300

 40
0.0
140
1.0
 94
        2
 62
     0
340
57F
144
0.18
309
CONTENTFORMAT_END
171
     1
301
MARGIN
  1
CELLMARGIN_BEGIN
 40
0.06
 40
0.06
 40
0.06
 40
0.06
 40
0.06
 40
0.06
309
CELLMARGIN_END
 94
        6
 95
        1
302
GRIDFORMAT
  1
GRIDFORMAT_BEGIN
 90
        0
 91
        1
 62
     0
 92
       -2
340
581
 93
        0
 40
0.045
309
GRIDFORMAT_END
 95
        2
302
GRIDFORMAT
  1
GRIDFORMAT_BEGIN
 90
        0
 91
        1
 62
     0
 92
       -2
340
581
 93
        0
 40
0.045
309
GRIDFORMAT_END
 95
        4
302
GRIDFORMAT
  1
GRIDFORMAT_BEGIN
 90
        0
 91
        1
 62
     0
 92
       -2
340
581
 93
        0
 40
0.045
309
GRIDFORMAT_END
 95
        8
302
GRIDFORMAT
  1
GRIDFORMAT_BEGIN
 90
        0
 91
        1
 62
     0
 92
       -2
340
581
 93
        0
 40
0.045
309
GRIDFORMAT_END
 95
       16
302
GRIDFORMAT
  1
GRIDFORMAT_BEGIN
 90
        0
 91
        1
 62
     0
 92
       -2
340
581
 93
        0
 40
0.045
309
GRIDFORMAT_END
 95
       32
302
GRIDFORMAT
  1
GRIDFORMAT_BEGIN
 90
        0
 91
        1
 62
     0
 92
       -2
340
581
 93
        0
 40
0.045
309
GRIDFORMAT_END
309
TABLEFORMAT_END
  1
CELLSTYLE_BEGIN
 90
        3
 91
        2
300
_DATA
309
CELLSTYLE_END
  0
ENDSEC
  0
EOF
