  0
SECTION
  2
HEADER
  9
$ACADVER
  1
AC1014
  9
$ACADMAINTVER
 70
     9
  9
$DWGCODEPAGE
  3
MAC-ROMAN
  9
$INSBASE
 10
0.0
 20
0.0
 30
0.0
  9
$EXTMIN
 10
1.000000000000000E+20
 20
1.000000000000000E+20
 30
1.000000000000000E+20
  9
$EXTMAX
 10
-1.000000000000000E+20
 20
-1.000000000000000E+20
 30
-1.000000000000000E+20
  9
$LIMMIN
 10
0.0
 20
0.0
  9
$LIMMAX
 10
12.0
 20
9.0
  9
$ORTHOMODE
 70
     0
  9
$REGENMODE
 70
     1
  9
$FILLMODE
 70
     1
  9
$QTEXTMODE
 70
     0
  9
$MIRRTEXT
 70
     1
  9
$DRAGMODE
 70
     2
  9
$LTSCALE
 40
1.0
  9
$OSMODE
 70
    37
  9
$ATTMODE
 70
     1
  9
$TEXTSIZE
 40
0.2
  9
$TRACEWID
 40
0.05
  9
$TEXTSTYLE
  7
STANDARD
  9
$CLAYER
  8
0
  9
$CELTYPE
  6
BYLAYER
  9
$CECOLOR
 62
   256
  9
$CELTSCALE
 40
1.0
  9
$DELOBJ
 70
     1
  9
$DISPSILH
 70
     0
  9
$DIMSCALE
 40
1.0
  9
$DIMASZ
 40
0.18
  9
$DIMEXO
 40
0.0625
  9
$DIMDLI
 40
0.38
  9
$DIMRND
 40
0.0
  9
$DIMDLE
 40
0.0
  9
$DIMEXE
 40
0.18
  9
$DIMTP
 40
0.0
  9
$DIMTM
 40
0.0
  9
$DIMTXT
 40
0.18
  9
$DIMCEN
 40
0.09
  9
$DIMTSZ
 40
0.0
  9
$DIMTOL
 70
     0
  9
$DIMLIM
 70
     0
  9
$DIMTIH
 70
     1
  9
$DIMTOH
 70
     1
  9
$DIMSE1
 70
     0
  9
$DIMSE2
 70
     0
  9
$DIMTAD
 70
     0
  9
$DIMZIN
 70
     0
  9
$DIMBLK
  1

  9
$DIMASO
 70
     1
  9
$DIMSHO
 70
     1
  9
$DIMPOST
  1

  9
$DIMAPOST
  1

  9
$DIMALT
 70
     0
  9
$DIMALTD
 70
     2
  9
$DIMALTF
 40
25.4
  9
$DIMLFAC
 40
1.0
  9
$DIMTOFL
 70
     0
  9
$DIMTVP
 40
0.0
  9
$DIMTIX
 70
     0
  9
$DIMSOXD
 70
     0
  9
$DIMSAH
 70
     0
  9
$DIMBLK1
  1

  9
$DIMBLK2
  1

  9
$DIMSTYLE
  2
STANDARD
  9
$DIMCLRD
 70
     0
  9
$DIMCLRE
 70
     0
  9
$DIMCLRT
 70
     0
  9
$DIMTFAC
 40
1.0
  9
$DIMGAP
 40
0.09
  9
$DIMJUST
 70
     0
  9
$DIMSD1
 70
     0
  9
$DIMSD2
 70
     0
  9
$DIMTOLJ
 70
     1
  9
$DIMTZIN
 70
     0
  9
$DIMALTZ
 70
     0
  9
$DIMALTTZ
 70
     0
  9
$DIMFIT
 70
     3
  9
$DIMUPT
 70
     0
  9
$DIMUNIT
 70
     2
  9
$DIMDEC
 70
     4
  9
$DIMTDEC
 70
     4
  9
$DIMALTU
 70
     2
  9
$DIMALTTD
 70
     2
  9
$DIMTXSTY
  7
STANDARD
  9
$DIMAUNIT
 70
     0
  9
$LUNITS
 70
     2
  9
$LUPREC
 70
     4
  9
$SKETCHINC
 40
0.1
  9
$FILLETRAD
 40
0.5
  9
$AUNITS
 70
     0
  9
$AUPREC
 70
     0
  9
$MENU
  1
.
  9
$ELEVATION
 40
0.0
  9
$PELEVATION
 40
0.0
  9
$THICKNESS
 40
0.0
  9
$LIMCHECK
 70
     0
  9
$CHAMFERA
 40
0.0
  9
$CHAMFERB
 40
0.0
  9
$CHAMFERC
 40
0.0
  9
$CHAMFERD
 40
0.0
  9
$SKPOLY
 70
     0
  9
$TDCREATE
 40
2458464.525115741
  9
$TDUPDATE
 40
2458464.525115741
  9
$TDINDWG
 40
0.0000000116
  9
$TDUSRTIMER
 40
0.0000000116
  9
$USRTIMER
 70
     1
  9
$ANGBASE
 50
0.0
  9
$ANGDIR
 70
     0
  9
$PDMODE
 70
     0
  9
$PDSIZE
 40
0.0
  9
$PLINEWID
 40
0.0
  9
$COORDS
 70
     1
  9
$SPLFRAME
 70
     0
  9
$SPLINETYPE
 70
     6
  9
$SPLINESEGS
 70
     8
  9
$ATTDIA
 70
     0
  9
$ATTREQ
 70
     1
  9
$HANDLING
 70
     1
  9
$HANDSEED
  5
186
  9
$SURFTAB1
 70
     6
  9
$SURFTAB2
 70
     6
  9
$SURFTYPE
 70
     6
  9
$SURFU
 70
     6
  9
$SURFV
 70
     6
  9
$UCSNAME
  2

  9
$UCSORG
 10
0.0
 20
0.0
 30
0.0
  9
$UCSXDIR
 10
1.0
 20
0.0
 30
0.0
  9
$UCSYDIR
 10
0.0
 20
1.0
 30
0.0
  9
$PUCSNAME
  2

  9
$PUCSORG
 10
0.0
 20
0.0
 30
0.0
  9
$PUCSXDIR
 10
1.0
 20
0.0
 30
0.0
  9
$PUCSYDIR
 10
0.0
 20
1.0
 30
0.0
  9
$USERI1
 70
     0
  9
$USERI2
 70
     0
  9
$USERI3
 70
     0
  9
$USERI4
 70
     0
  9
$USERI5
 70
     0
  9
$USERR1
 40
0.0
  9
$USERR2
 40
0.0
  9
$USERR3
 40
0.0
  9
$USERR4
 40
0.0
  9
$USERR5
 40
0.0
  9
$WORLDVIEW
 70
     1
  9
$SHADEDGE
 70
     3
  9
$SHADEDIF
 70
    70
  9
$TILEMODE
 70
     1
  9
$MAXACTVP
 70
    64
  9
$PINSBASE
 10
0.0
 20
0.0
 30
0.0
  9
$PLIMCHECK
 70
     0
  9
$PEXTMIN
 10
1.000000000000000E+20
 20
1.000000000000000E+20
 30
1.000000000000000E+20
  9
$PEXTMAX
 10
-1.000000000000000E+20
 20
-1.000000000000000E+20
 30
-1.000000000000000E+20
  9
$PLIMMIN
 10
0.0
 20
0.0
  9
$PLIMMAX
 10
12.0
 20
9.0
  9
$UNITMODE
 70
     0
  9
$VISRETAIN
 70
     1
  9
$PLINEGEN
 70
     0
  9
$PSLTSCALE
 70
     1
  9
$TREEDEPTH
 70
  3020
  9
$PICKSTYLE
 70
     1
  9
$CMLSTYLE
  2
STANDARD
  9
$CMLJUST
 70
     0
  9
$CMLSCALE
 40
1.0
  9
$PROXYGRAPHICS
 70
     1
  9
$MEASUREMENT
 70
     1
  0
ENDSEC
  0
SECTION
  2
CLASSES
  0
CLASS
  1
ACDBDICTIONARYWDFLT
  2
AcDbDictionaryWithDefault
  3
ObjectDBX Classes
 90
        0
280
     0
281
     0
  0
CLASS
  1
VISUALSTYLE
  2
AcDbVisualStyle
  3
ObjectDBX Classes
 90
     4095
280
     0
281
     0
  0
CLASS
  1
MATERIAL
  2
AcDbMaterial
  3
ObjectDBX Classes
 90
     1153
280
     0
281
     0
  0
CLASS
  1
SCALE
  2
AcDbScale
  3
ObjectDBX Classes
 90
     1153
280
     0
281
     0
  0
CLASS
  1
SUN
  2
AcDbSun
  3
SCENEOE
 90
     1153
280
     0
281
     0
  0
CLASS
  1
DICTIONARYVAR
  2
AcDbDictionaryVar
  3
ObjectDBX Classes
 90
        0
280
     0
281
     0
  0
CLASS
  1
XRECORD
  2
AcDbXrecord
  3
ObjectDBX Classes
 90
        0
280
     0
281
     0
  0
CLASS
  1
LWPOLYLINE
  2
AcDbPolyline
  3
ObjectDBX Classes
 90
        0
280
     0
281
     1
  0
CLASS
  1
HATCH
  2
AcDbHatch
  3
ObjectDBX Classes
 90
        0
280
     0
281
     1
  0
CLASS
  1
ACDBPLACEHOLDER
  2
AcDbPlaceHolder
  3
ObjectDBX Classes
 90
        0
280
     0
281
     0
  0
CLASS
  1
LAYOUT
  2
AcDbLayout
  3
ObjectDBX Classes
 90
        0
280
     0
281
     0
  0
ENDSEC
  0
SECTION
  2
TABLES
  0
TABLE
  2
VPORT
  5
8
102
{ACAD_XDICTIONARY
360
17C
102
}
330
0
100
AcDbSymbolTable
 70
     1
  0
VPORT
  5
29
330
8
100
AcDbSymbolTableRecord
100
AcDbViewportTableRecord
  2
*ACTIVE
 70
     0
 10
0.0
 20
0.0
 11
1.0
 21
1.0
 12
0.0
 22
0.0
 13
0.0
 23
0.0
 14
0.5
 24
0.5
 15
0.5
 25
0.5
 16
0.0
 26
0.0
 36
1.0
 17
0.0
 27
0.0
 37
-1000.0
 40
1274.848996645122
 41
2.111282843894899
 42
50.0
 43
17901.66190995102
 44
21907.74900105124
 50
0.0
 51
0.0
 71
     0
 72
   100
 73
     1
 74
     3
 75
     0
 76
     0
 77
     0
 78
     0
  0
ENDTAB
  0
TABLE
  2
LTYPE
  5
5
330
0
100
AcDbSymbolTable
 70
     1
  0
LTYPE
  5
14
330
5
100
AcDbSymbolTableRecord
100
AcDbLinetypeTableRecord
  2
BYBLOCK
 70
     0
  3

 72
    65
 73
     0
 40
0.0
  0
LTYPE
  5
15
330
5
100
AcDbSymbolTableRecord
100
AcDbLinetypeTableRecord
  2
BYLAYER
 70
     0
  3

 72
    65
 73
     0
 40
0.0
  0
LTYPE
  5
16
330
5
100
AcDbSymbolTableRecord
100
AcDbLinetypeTableRecord
  2
CONTINUOUS
 70
     0
  3
Solid line
 72
    65
 73
     0
 40
0.0
  0
ENDTAB
  0
TABLE
  2
LAYER
  5
2
330
0
100
AcDbSymbolTable
 70
     3
  0
LAYER
  5
10
330
2
100
AcDbSymbolTableRecord
100
AcDbLayerTableRecord
  2
0
 70
     0
 62
     7
  6
CONTINUOUS
  0
LAYER
  5
6A
330
2
100
AcDbSymbolTableRecord
100
AcDbLayerTableRecord
  2
PROFILEEDGES
 70
     0
 62
     7
  6
CONTINUOUS
  0
LAYER
  5
6B
330
2
100
AcDbSymbolTableRecord
100
AcDbLayerTableRecord
  2
SECTIONCUTEDGES
 70
     0
 62
     7
  6
CONTINUOUS
  0
ENDTAB
  0
TABLE
  2
STYLE
  5
3
330
0
100
AcDbSymbolTable
 70
     1
  0
STYLE
  5
11
330
3
100
AcDbSymbolTableRecord
100
AcDbTextStyleTableRecord
  2
STANDARD
 70
     0
 40
0.0
 41
1.0
 50
0.0
 71
     0
 42
0.2
  3
txt
  4

  0
ENDTAB
  0
TABLE
  2
VIEW
  5
6
330
0
100
AcDbSymbolTable
 70
     0
  0
ENDTAB
  0
TABLE
  2
UCS
  5
7
330
0
100
AcDbSymbolTable
 70
     0
  0
ENDTAB
  0
TABLE
  2
APPID
  5
9
330
0
100
AcDbSymbolTable
 70
     1
  0
APPID
  5
12
330
9
100
AcDbSymbolTableRecord
100
AcDbRegAppTableRecord
  2
ACAD
 70
     0
  0
ENDTAB
  0
TABLE
  2
DIMSTYLE
  5
A
330
0
100
AcDbSymbolTable
 70
     1
  0
DIMSTYLE
105
27
330
A
100
AcDbSymbolTableRecord
100
AcDbDimStyleTableRecord
  2
STANDARD
 70
     0
  3

  4

  5

  6

  7

 40
1.0
 41
0.18
 42
0.0625
 43
0.38
 44
0.18
 45
0.0
 46
0.0
 47
0.0
 48
0.0
140
0.18
141
0.09
142
0.0
143
25.4
144
1.0
145
0.0
146
1.0
147
0.09
 71
     0
 72
     0
 73
     1
 74
     1
 75
     0
 76
     0
 77
     0
 78
     0
170
     0
171
     2
172
     0
173
     0
174
     0
175
     0
176
     0
177
     0
178
     0
270
     2
271
     4
272
     4
273
     2
274
     2
340
11
275
     0
280
     0
281
     0
282
     0
283
     1
284
     0
285
     0
286
     0
287
     3
288
     0
  0
ENDTAB
  0
TABLE
  2
BLOCK_RECORD
  5
1
330
0
100
AcDbSymbolTable
 70
     1
  0
BLOCK_RECORD
  5
1F
330
1
100
AcDbSymbolTableRecord
100
AcDbBlockTableRecord
  2
*MODEL_SPACE
  0
BLOCK_RECORD
  5
1B
330
1
100
AcDbSymbolTableRecord
100
AcDbBlockTableRecord
  2
*PAPER_SPACE
  0
ENDTAB
  0
ENDSEC
  0
SECTION
  2
BLOCKS
  0
BLOCK
  5
20
330
1F
100
AcDbEntity
  8
0
100
AcDbBlockBegin
  2
*MODEL_SPACE
 70
     0
 10
0.0
 20
0.0
 30
0.0
  3
*MODEL_SPACE
  1

  0
ENDBLK
  5
21
330
1F
100
AcDbEntity
  8
0
100
AcDbBlockEnd
  0
BLOCK
  5
1C
330
1B
100
AcDbEntity
 67
     1
  8
0
100
AcDbBlockBegin
  2
*PAPER_SPACE
 70
     0
 10
0.0
 20
0.0
 30
0.0
  3
*PAPER_SPACE
  1

  0
ENDBLK
  5
1D
330
1B
100
AcDbEntity
 67
     1
  8
0
100
AcDbBlockEnd
  0
ENDSEC
  0
SECTION
  2
ENTITIES
  0
LINE
  5
6C
330
1F
100
AcDbEntity
  8
0
 62
   178
100
AcDbLine
 10
-943.3990243544883
 20
151.0001850254518
 30
0.0
 11
-943.3990243544883
 21
120.9999292393456
 31
0.0
  0
LINE
  5
6D
330
1F
100
AcDbEntity
  8
0
 62
   178
100
AcDbLine
 10
-420.505876258597
 20
151.0001850254518
 30
0.0
 11
-420.505876258597
 21
120.9999292393456
 31
0.0
  0
LINE
  5
6E
330
1F
100
AcDbEntity
  8
0
 62
   178
100
AcDbLine
 10
-1163.175073961233
 20
-0.0000000000000902
 30
0.0
 11
-1153.175160954085
 21
-0.0000000000001805
 31
0.0
  0
LINE
  5
6F
330
1F
100
AcDbEntity
  8
0
 62
   178
100
AcDbLine
 10
967.1829457461289
 20
151.0001850254518
 30
0.0
 11
967.1829457461289
 21
120.9999292393456
 31
0.0
  0
LINE
  5
70
330
1F
100
AcDbEntity
  8
0
 62
   178
100
AcDbLine
 10
-943.3990243544883
 20
-151.000185025452
 30
0.0
 11
-943.3990243544883
 21
-121.0002737491215
 31
0.0
  0
LINE
  5
71
330
1F
100
AcDbEntity
  8
0
 62
   178
100
AcDbLine
 10
-420.505876258597
 20
-151.000185025452
 30
0.0
 11
-420.505876258597
 21
-121.0002737491215
 31
0.0
  0
LINE
  5
72
330
1F
100
AcDbEntity
  8
0
 62
   178
100
AcDbLine
 10
967.1829457461289
 20
-151.000185025452
 30
0.0
 11
967.1829457461289
 21
-121.0002737491215
 31
0.0
  0
LINE
  5
73
330
1F
100
AcDbEntity
  8
0
 62
   178
100
AcDbLine
 10
967.1829457461289
 20
501.0004131184839
 30
0.0
 11
967.1829457461289
 21
226.0003077260535
 31
0.0
  0
LINE
  5
74
330
1F
100
AcDbEntity
  8
0
 62
   178
100
AcDbLine
 10
-425.4923107534708
 20
121.0001014942335
 30
0.0
 11
-425.4923107534708
 21
-120.9999292393457
 31
0.0
  0
LINE
  5
75
330
1F
100
AcDbEntity
  8
0
 62
   178
100
AcDbLine
 10
-415.5196140186112
 20
-120.9999292393457
 30
0.0
 11
-415.5196140186112
 21
121.0001014942335
 31
0.0
  0
LINE
  5
76
330
1F
100
AcDbEntity
  8
0
 62
   178
100
AcDbLine
 10
-967.1250681037947
 20
121.0001014942335
 30
0.0
 11
-967.1250681037947
 21
-120.9999292393457
 31
0.0
  0
LINE
  5
77
330
1F
100
AcDbEntity
  8
0
 62
   178
100
AcDbLine
 10
-919.6731528600699
 20
-120.9999292393457
 30
0.0
 11
-919.6731528600699
 21
121.0001014942335
 31
0.0
  0
LINE
  5
78
330
1F
100
AcDbEntity
  8
0
 62
   178
100
AcDbLine
 10
994.4078307784213
 20
121.0001014942335
 30
0.0
 11
994.4078307784213
 21
-120.9999292393457
 31
0.0
  0
LINE
  5
79
330
1F
100
AcDbEntity
  8
0
 62
   178
100
AcDbLine
 10
939.9577162040607
 20
-120.9999292393457
 30
0.0
 11
939.9577162040607
 21
121.0001014942335
 31
0.0
  0
LINE
  5
7A
330
1F
100
AcDbEntity
  8
0
 62
   178
100
AcDbLine
 10
554.6993241267218
 20
-326.0001268170802
 30
0.0
 11
549.6991092408156
 21
-326.0001268170802
 31
0.0
  0
LINE
  5
7B
330
1F
100
AcDbEntity
  8
0
 62
   178
100
AcDbLine
 10
524.6959677526327
 20
-325.995303680219
 30
0.0
 11
519.6957528667275
 21
-325.995303680219
 31
0.0
  0
LINE
  5
7C
330
1F
100
AcDbEntity
  8
0
 62
   178
100
AcDbLine
 10
364.6918474818605
 20
-325.9973707388738
 30
0.0
 11
359.6916325959547
 21
-325.9973707388738
 31
0.0
  0
LINE
  5
7D
330
1F
100
AcDbEntity
  8
0
 62
   178
100
AcDbLine
 10
552.1992166837687
 20
-323.5000193741275
 30
0.0
 11
552.1992166837687
 21
-328.500234260033
 31
0.0
  0
LINE
  5
7E
330
1F
100
AcDbEntity
  8
0
 62
   178
100
AcDbLine
 10
522.1962048194556
 20
-323.4951962372663
 30
0.0
 11
522.1962048194556
 21
-328.495066613396
 31
0.0
  0
LINE
  5
7F
330
1F
100
AcDbEntity
  8
0
 62
   178
100
AcDbLine
 10
522.2103297202636
 20
323.5051870207643
 30
0.0
 11
522.2103297202636
 21
328.5050573968941
 31
0.0
  0
LINE
  5
80
330
1F
100
AcDbEntity
  8
0
 62
   178
100
AcDbLine
 10
362.1920845486837
 20
-323.4972632959211
 30
0.0
 11
362.1920845486837
 21
-328.4971336720508
 31
0.0
  0
LINE
  5
81
330
1F
100
AcDbEntity
  8
0
 62
   178
100
AcDbLine
 10
362.2062094494906
 20
323.5031199621096
 30
0.0
 11
362.2062094494906
 21
328.5029903382394
 31
0.0
  0
LINE
  5
82
330
1F
100
AcDbEntity
  8
0
 62
   178
100
AcDbLine
 10
394.6958928755005
 20
-325.9935811313401
 30
0.0
 11
389.6956779895944
 21
-325.9935811313401
 31
0.0
  0
LINE
  5
83
330
1F
100
AcDbEntity
  8
0
 62
   178
100
AcDbLine
 10
392.1954409227717
 20
-323.4938181981631
 30
0.0
 11
392.1954409227717
 21
-328.4936885742928
 31
0.0
  0
LINE
  5
84
330
1F
100
AcDbEntity
  8
0
 62
   178
100
AcDbLine
 10
-628.8877817955467
 20
-325.9980597584254
 30
0.0
 11
-633.8876521716765
 21
-325.9980597584254
 31
0.0
  0
LINE
  5
85
330
1F
100
AcDbEntity
  8
0
 62
   178
100
AcDbLine
 10
-788.8919020663193
 20
-326.0001268170802
 30
0.0
 11
-793.8917724424492
 21
-326.0001268170802
 31
0.0
  0
LINE
  5
86
330
1F
100
AcDbEntity
  8
0
 62
   178
100
AcDbLine
 10
-763.8880715585851
 20
-325.9966817193222
 30
0.0
 11
-758.8882011824552
 21
-325.9966817193222
 31
0.0
  0
LINE
  5
87
330
1F
100
AcDbEntity
  8
0
 62
   178
100
AcDbLine
 10
-598.8845976763463
 20
-326.0028828952866
 30
0.0
 11
-603.884640307364
 21
-326.0028828952866
 31
0.0
  0
LINE
  5
88
330
1F
100
AcDbEntity
  8
0
 62
   178
100
AcDbLine
 10
-631.3877169836115
 20
-323.4979523154726
 30
0.0
 11
-631.3877169836115
 21
-328.4978226916024
 31
0.0
  0
LINE
  5
89
330
1F
100
AcDbEntity
  8
0
 62
   178
100
AcDbLine
 10
-631.373419827916
 20
323.502430942558
 30
0.0
 11
-631.373419827916
 21
328.5023013186876
 31
0.0
  0
LINE
  5
8A
330
1F
100
AcDbEntity
  8
0
 62
   178
100
AcDbLine
 10
-791.3918372543843
 20
-323.5000193741275
 30
0.0
 11
-791.3918372543843
 21
-328.500234260033
 31
0.0
  0
LINE
  5
8B
330
1F
100
AcDbEntity
  8
0
 62
   178
100
AcDbLine
 10
-791.3775400986888
 20
323.5003638839031
 30
0.0
 11
-791.3775400986888
 21
328.5002342600329
 31
0.0
  0
LINE
  5
8C
330
1F
100
AcDbEntity
  8
0
 62
   178
100
AcDbLine
 10
-761.3881363705202
 20
-323.4965742763695
 30
0.0
 11
-761.3881363705202
 21
-328.4964446524992
 31
0.0
  0
LINE
  5
8D
330
1F
100
AcDbEntity
  8
0
 62
   178
100
AcDbLine
 10
-601.3845328644112
 20
-323.5031199621096
 30
0.0
 11
-601.3845328644112
 21
-328.5029903382393
 31
0.0
  0
LINE
  5
8E
330
1F
100
AcDbEntity
  8
0
 62
   178
100
AcDbLine
 10
364.7063168924436
 20
326.0032274050623
 30
0.0
 11
359.7061020065375
 21
326.0032274050623
 31
0.0
  0
LINE
  5
8F
330
1F
100
AcDbEntity
  8
0
 62
   178
100
AcDbLine
 10
394.7100177763075
 20
326.0068447577082
 30
0.0
 11
389.7101474001777
 21
326.0068447577082
 31
0.0
  0
LINE
  5
90
330
1F
100
AcDbEntity
  8
0
 62
   178
100
AcDbLine
 10
519.7102222773105
 20
326.005294463717
 30
0.0
 11
524.7104371632164
 21
326.005294463717
 31
0.0
  0
LINE
  5
91
330
1F
100
AcDbEntity
  8
0
 62
   178
100
AcDbLine
 10
549.7135786513986
 20
326.000299071968
 30
0.0
 11
554.7134490275288
 21
326.000299071968
 31
0.0
  0
LINE
  5
92
330
1F
100
AcDbEntity
  8
0
 62
   178
100
AcDbLine
 10
392.2099103333546
 20
323.5067373147554
 30
0.0
 11
392.2099103333546
 21
328.5066076908852
 31
0.0
  0
LINE
  5
93
330
1F
100
AcDbEntity
  8
0
 62
   178
100
AcDbLine
 10
552.2133415845757
 20
328.5002342600329
 30
0.0
 11
552.2133415845757
 21
323.5003638839031
 31
0.0
  0
LINE
  5
94
330
1F
100
AcDbEntity
  8
0
 62
   178
100
AcDbLine
 10
-793.8774752867537
 20
326.000299071968
 30
0.0
 11
-788.8776049106239
 21
326.000299071968
 31
0.0
  0
LINE
  5
95
330
1F
100
AcDbEntity
  8
0
 62
   178
100
AcDbLine
 10
-763.8736021480016
 20
326.0039164246139
 30
0.0
 11
-758.8737317718717
 21
326.0039164246139
 31
0.0
  0
LINE
  5
96
330
1F
100
AcDbEntity
  8
0
 62
   178
100
AcDbLine
 10
-633.8733550159809
 20
326.0025383855105
 30
0.0
 11
-628.8734846398513
 21
326.0025383855105
 31
0.0
  0
LINE
  5
97
330
1F
100
AcDbEntity
  8
0
 62
   178
100
AcDbLine
 10
-603.8701708967805
 20
325.9973707388737
 30
0.0
 11
-598.8703005206509
 21
325.9973707388737
 31
0.0
  0
LINE
  5
98
330
1F
100
AcDbEntity
  8
0
 62
   178
100
AcDbLine
 10
-761.3736669599367
 20
323.5038089816611
 30
0.0
 11
-761.3736669599367
 21
328.5036793577909
 31
0.0
  0
LINE
  5
99
330
1F
100
AcDbEntity
  8
0
 62
   178
100
AcDbLine
 10
-601.3702357087158
 20
323.4974355508088
 30
0.0
 11
-601.3702357087158
 21
328.4973059269386
 31
0.0
  0
LINE
  5
9A
330
1F
100
AcDbEntity
  8
0
 62
   178
100
AcDbLine
 10
1173.174642458604
 20
-141.0000997634165
 30
0.0
 11
1163.17455719657
 21
-151.000185025452
 31
0.0
  0
LINE
  5
9B
330
1F
100
AcDbEntity
  8
0
 62
   178
100
AcDbLine
 10
1163.17455719657
 20
-151.000185025452
 30
0.0
 11
1173.174642458604
 21
-160.9999257777116
 31
0.0
  0
LINE
  5
9C
330
1F
100
AcDbEntity
  8
0
 62
   178
100
AcDbLine
 10
1173.174642458604
 20
-111.0001884870862
 30
0.0
 11
1163.17455719657
 21
-120.9999292393457
 31
0.0
  0
LINE
  5
9D
330
1F
100
AcDbEntity
  8
0
 62
   178
100
AcDbLine
 10
1163.17455719657
 20
-120.9999292393457
 30
0.0
 11
1173.174642458604
 21
-131.0000145013811
 31
0.0
  0
LINE
  5
9E
330
1F
100
AcDbEntity
  8
0
 62
   178
100
AcDbLine
 10
1173.174642458604
 20
131.0000145013811
 30
0.0
 11
1163.17455719657
 21
121.0002737491214
 31
0.0
  0
LINE
  5
9F
330
1F
100
AcDbEntity
  8
0
 62
   178
100
AcDbLine
 10
1163.17455719657
 20
121.0002737491214
 30
0.0
 11
1173.174642458604
 21
111.0000162321981
 31
0.0
  0
LINE
  5
A0
330
1F
100
AcDbEntity
  8
0
 62
   178
100
AcDbLine
 10
1173.174642458604
 20
161.0002702874872
 30
0.0
 11
1163.17455719657
 21
151.0001850254518
 31
0.0
  0
LINE
  5
A1
330
1F
100
AcDbEntity
  8
0
 62
   178
100
AcDbLine
 10
1163.17455719657
 20
151.0001850254518
 30
0.0
 11
1173.174642458604
 21
141.0000997634164
 31
0.0
  0
LINE
  5
A2
330
1F
100
AcDbEntity
  8
0
 62
   178
100
AcDbLine
 10
1173.174642458604
 20
511.0003261256318
 30
0.0
 11
1163.17455719657
 21
501.0004131184839
 31
0.0
  0
LINE
  5
A3
330
1F
100
AcDbEntity
  8
0
 62
   178
100
AcDbLine
 10
1163.17455719657
 20
501.0004131184839
 30
0.0
 11
1173.174642458604
 21
491.000327856449
 31
0.0
  0
LINE
  5
A4
330
1F
100
AcDbEntity
  8
0
 62
   178
100
AcDbLine
 10
1173.174642458604
 20
-491.0003278564489
 30
0.0
 11
1163.17455719657
 21
-501.0000686087084
 31
0.0
  0
LINE
  5
A5
330
1F
100
AcDbEntity
  8
0
 62
   178
100
AcDbLine
 10
1163.17455719657
 20
-501.0000686087084
 30
0.0
 11
1173.174642458604
 21
-511.0004983805197
 31
0.0
  0
LINE
  5
A6
330
1F
100
AcDbEntity
  8
0
 62
   178
100
AcDbLine
 10
-1163.175073961233
 20
-491.0003278564489
 30
0.0
 11
-1153.175160954085
 21
-501.0000686087084
 31
0.0
  0
LINE
  5
A7
330
1F
100
AcDbEntity
  8
0
 62
   178
100
AcDbLine
 10
-1153.175160954085
 20
-501.0000686087084
 30
0.0
 11
-1163.175073961233
 21
-511.0004983805197
 31
0.0
  0
LINE
  5
A8
330
1F
100
AcDbEntity
  8
0
 62
   178
100
AcDbLine
 10
-1163.175073961233
 20
-141.0000997634165
 30
0.0
 11
-1153.175160954085
 21
-151.000185025452
 31
0.0
  0
LINE
  5
A9
330
1F
100
AcDbEntity
  8
0
 62
   178
100
AcDbLine
 10
-1153.175160954085
 20
-151.000185025452
 30
0.0
 11
-1163.175073961233
 21
-160.9999257777116
 31
0.0
  0
LINE
  5
AA
330
1F
100
AcDbEntity
  8
0
 62
   178
100
AcDbLine
 10
-1163.175073961233
 20
-111.0001884870862
 30
0.0
 11
-1153.175160954085
 21
-120.9999292393457
 31
0.0
  0
LINE
  5
AB
330
1F
100
AcDbEntity
  8
0
 62
   178
100
AcDbLine
 10
-1153.175160954085
 20
-120.9999292393457
 30
0.0
 11
-1163.175073961233
 21
-131.0000145013811
 31
0.0
  0
LINE
  5
AC
330
1F
100
AcDbEntity
  8
0
 62
   178
100
AcDbLine
 10
-1163.175073961233
 20
131.0000145013811
 30
0.0
 11
-1153.175160954085
 21
121.0002737491214
 31
0.0
  0
LINE
  5
AD
330
1F
100
AcDbEntity
  8
0
 62
   178
100
AcDbLine
 10
-1153.175160954085
 20
121.0002737491214
 30
0.0
 11
-1163.175073961233
 21
111.0000162321981
 31
0.0
  0
LINE
  5
AE
330
1F
100
AcDbEntity
  8
0
 62
   178
100
AcDbLine
 10
-1163.175073961233
 20
161.0002702874872
 30
0.0
 11
-1153.175160954085
 21
151.0001850254518
 31
0.0
  0
LINE
  5
AF
330
1F
100
AcDbEntity
  8
0
 62
   178
100
AcDbLine
 10
-1153.175160954085
 20
151.0001850254518
 30
0.0
 11
-1163.175073961233
 21
141.0000997634164
 31
0.0
  0
LINE
  5
B0
330
1F
100
AcDbEntity
  8
0
 62
   178
100
AcDbLine
 10
-1163.175073961233
 20
511.0003261256318
 30
0.0
 11
-1153.175160954085
 21
501.0004131184839
 31
0.0
  0
LINE
  5
B1
330
1F
100
AcDbEntity
  8
0
 62
   178
100
AcDbLine
 10
-1153.175160954085
 20
501.0004131184839
 30
0.0
 11
-1163.175073961233
 21
491.000327856449
 31
0.0
  0
LINE
  5
B2
330
1F
100
AcDbEntity
  8
0
 62
   178
100
AcDbLine
 10
-1163.175073961233
 20
-501.0004131184843
 30
0.0
 11
-1153.175160954085
 21
-501.0000686087084
 31
0.0
  0
LINE
  5
B3
330
1F
100
AcDbEntity
  8
0
 62
   178
100
AcDbLine
 10
-420.505876258597
 20
501.0004131184839
 30
0.0
 11
-420.505876258597
 21
151.0001850254518
 31
0.0
  0
LINE
  5
B4
330
1F
100
AcDbEntity
  8
0
 62
   178
100
AcDbLine
 10
-420.505876258597
 20
-501.0004131184843
 30
0.0
 11
-420.505876258597
 21
-151.000185025452
 31
0.0
  0
LINE
  5
B5
330
1F
100
AcDbEntity
  8
0
 62
   178
100
AcDbLine
 10
-943.3990243544883
 20
-501.0004131184843
 30
0.0
 11
-943.3988520996005
 21
-225.9999632162779
 31
0.0
  0
LINE
  5
B6
330
1F
100
AcDbEntity
  8
0
 62
   178
100
AcDbLine
 10
-1163.175073961233
 20
-120.9999292393457
 30
0.0
 11
-1153.175160954085
 21
-120.9999292393457
 31
0.0
  0
LINE
  5
B7
330
1F
100
AcDbEntity
  8
0
 62
   178
100
AcDbLine
 10
-1163.175073961233
 20
-151.000185025452
 30
0.0
 11
-1153.175160954085
 21
-151.000185025452
 31
0.0
  0
LINE
  5
B8
330
1F
100
AcDbEntity
  8
0
 62
   178
100
AcDbLine
 10
-943.3990243544883
 20
501.0004131184839
 30
0.0
 11
-943.3988520996005
 21
226.0003077260535
 31
0.0
  0
LINE
  5
B9
330
1F
100
AcDbEntity
  8
0
 62
   178
100
AcDbLine
 10
-1163.175073961233
 20
121.0001014942335
 30
0.0
 11
-1153.175160954085
 21
121.0002737491214
 31
0.0
  0
LINE
  5
BA
330
1F
100
AcDbEntity
  8
0
 62
   178
100
AcDbLine
 10
967.1829457461289
 20
-501.0004131184843
 30
0.0
 11
967.1829457461289
 21
-225.9999632162779
 31
0.0
  0
LINE
  5
BB
330
1F
100
AcDbEntity
  8
0
 62
   178
100
AcDbLine
 10
-1163.175073961233
 20
501.0004131184839
 30
0.0
 11
-1153.175160954085
 21
501.0004131184839
 31
0.0
  0
LINE
  5
BC
330
1F
100
AcDbEntity
  8
0
 62
   178
100
AcDbLine
 10
-1163.175073961233
 20
151.0001850254518
 30
0.0
 11
-1153.175160954085
 21
151.0001850254518
 31
0.0
  0
LINE
  5
BD
330
1F
100
AcDbEntity
  8
0
 62
   178
100
AcDbLine
 10
-967.1250681037947
 20
-120.9999292393457
 30
0.0
 11
-943.3990243544883
 21
-151.000185025452
 31
0.0
  0
LINE
  5
BE
330
1F
100
AcDbEntity
  8
0
 62
   178
100
AcDbLine
 10
-943.3990243544883
 20
-151.000185025452
 30
0.0
 11
-919.6731528600699
 21
-120.9999292393457
 31
0.0
  0
LINE
  5
BF
330
1F
100
AcDbEntity
  8
0
 62
   178
100
AcDbLine
 10
-425.4923107534708
 20
-120.9999292393457
 30
0.0
 11
-420.505876258597
 21
-151.000185025452
 31
0.0
  0
LINE
  5
C0
330
1F
100
AcDbEntity
  8
0
 62
   178
100
AcDbLine
 10
-420.505876258597
 20
-151.000185025452
 30
0.0
 11
-415.5196140186112
 21
-120.9999292393457
 31
0.0
  0
LINE
  5
C1
330
1F
100
AcDbEntity
  8
0
 62
   178
100
AcDbLine
 10
-425.4923107534708
 20
121.0001014942335
 30
0.0
 11
-420.505876258597
 21
151.0001850254518
 31
0.0
  0
LINE
  5
C2
330
1F
100
AcDbEntity
  8
0
 62
   178
100
AcDbLine
 10
-420.505876258597
 20
151.0001850254518
 30
0.0
 11
-415.5196140186112
 21
121.0001014942335
 31
0.0
  0
LINE
  5
C3
330
1F
100
AcDbEntity
  8
0
 62
   178
100
AcDbLine
 10
-967.1250681037947
 20
121.0001014942335
 30
0.0
 11
-943.3990243544883
 21
151.0001850254518
 31
0.0
  0
LINE
  5
C4
330
1F
100
AcDbEntity
  8
0
 62
   178
100
AcDbLine
 10
-943.3990243544883
 20
151.0001850254518
 30
0.0
 11
-919.6731528600699
 21
121.0001014942335
 31
0.0
  0
LINE
  5
C5
330
1F
100
AcDbEntity
  8
0
 62
   178
100
AcDbLine
 10
939.9577162040607
 20
121.0001014942335
 30
0.0
 11
967.1829457461289
 21
151.0001850254518
 31
0.0
  0
LINE
  5
C6
330
1F
100
AcDbEntity
  8
0
 62
   178
100
AcDbLine
 10
967.1829457461289
 20
151.0001850254518
 30
0.0
 11
994.4078307784213
 21
121.0001014942335
 31
0.0
  0
LINE
  5
C7
330
1F
100
AcDbEntity
  8
0
 62
   178
100
AcDbLine
 10
939.9577162040607
 20
-120.9999292393457
 30
0.0
 11
967.1829457461289
 21
-151.000185025452
 31
0.0
  0
LINE
  5
C8
330
1F
100
AcDbEntity
  8
0
 62
   178
100
AcDbLine
 10
967.1829457461289
 20
-151.000185025452
 30
0.0
 11
994.4078307784213
 21
-120.9999292393457
 31
0.0
  0
LINE
  5
C9
330
1F
100
AcDbEntity
  8
0
 62
   178
100
AcDbLine
 10
967.1829457461289
 20
-225.9999632162779
 30
0.0
 11
1163.17455719657
 21
-225.9999632162779
 31
0.0
  0
LINE
  5
CA
330
1F
100
AcDbEntity
  8
0
 62
   178
100
AcDbLine
 10
-1153.175160954085
 20
-225.9999632162779
 30
0.0
 11
-943.3988520996005
 21
-225.9999632162779
 31
0.0
  0
LINE
  5
CB
330
1F
100
AcDbEntity
  8
0
 62
   178
100
AcDbLine
 10
967.1829457461289
 20
226.0003077260535
 30
0.0
 11
1163.17455719657
 21
226.0003077260535
 31
0.0
  0
LINE
  5
CC
330
1F
100
AcDbEntity
  8
0
 62
   178
100
AcDbLine
 10
-1153.175160954085
 20
226.0003077260535
 30
0.0
 11
-943.3988520996005
 21
226.0003077260535
 31
0.0
  0
LINE
  5
CD
330
1F
100
AcDbEntity
  8
0
 62
   178
100
AcDbLine
 10
967.1829457461289
 20
226.0003077260535
 30
0.0
 11
967.1829457461289
 21
151.0001850254518
 31
0.0
  0
LINE
  5
CE
330
1F
100
AcDbEntity
  8
0
 62
   178
100
AcDbLine
 10
-1153.175160954085
 20
-501.0000686087084
 30
0.0
 11
-943.3990243544883
 21
-501.0004131184843
 31
0.0
  0
LINE
  5
CF
330
1F
100
AcDbEntity
  8
0
 62
   178
100
AcDbLine
 10
-943.3988520996005
 20
-225.9999632162779
 30
0.0
 11
-943.3990243544883
 21
-151.000185025452
 31
0.0
  0
LINE
  5
D0
330
1F
100
AcDbEntity
  8
0
 62
   178
100
AcDbLine
 10
-967.1250681037947
 20
-120.9999292393457
 30
0.0
 11
-943.3990243544883
 21
-121.0002737491215
 31
0.0
  0
LINE
  5
D1
330
1F
100
AcDbEntity
  8
0
 62
   178
100
AcDbLine
 10
-1153.175160954085
 20
-120.9999292393457
 30
0.0
 11
-967.1250681037947
 21
-120.9999292393457
 31
0.0
  0
LINE
  5
D2
330
1F
100
AcDbEntity
  8
0
 62
   178
100
AcDbLine
 10
-1153.175160954085
 20
-151.000185025452
 30
0.0
 11
-943.3990243544883
 21
-151.000185025452
 31
0.0
  0
LINE
  5
D3
330
1F
100
AcDbEntity
  8
0
 62
   178
100
AcDbLine
 10
-943.3988520996005
 20
226.0003077260535
 30
0.0
 11
-943.3990243544883
 21
151.0001850254518
 31
0.0
  0
LINE
  5
D4
330
1F
100
AcDbEntity
  8
0
 62
   178
100
AcDbLine
 10
-967.1250681037947
 20
121.0001014942335
 30
0.0
 11
-943.3990243544883
 21
120.9999292393456
 31
0.0
  0
LINE
  5
D5
330
1F
100
AcDbEntity
  8
0
 62
   178
100
AcDbLine
 10
-1153.175160954085
 20
121.0002737491214
 30
0.0
 11
-967.1250681037947
 21
121.0001014942335
 31
0.0
  0
LINE
  5
D6
330
1F
100
AcDbEntity
  8
0
 62
   178
100
AcDbLine
 10
967.1829457461289
 20
-225.9999632162779
 30
0.0
 11
967.1829457461289
 21
-151.000185025452
 31
0.0
  0
LINE
  5
D7
330
1F
100
AcDbEntity
  8
0
 62
   178
100
AcDbLine
 10
-1153.175160954085
 20
501.0004131184839
 30
0.0
 11
-943.3990243544883
 21
501.0004131184839
 31
0.0
  0
LINE
  5
D8
330
1F
100
AcDbEntity
  8
0
 62
   178
100
AcDbLine
 10
-943.3990243544883
 20
151.0001850254518
 30
0.0
 11
-420.505876258597
 21
151.0001850254518
 31
0.0
  0
LINE
  5
D9
330
1F
100
AcDbEntity
  8
0
 62
   178
100
AcDbLine
 10
-1153.175160954085
 20
151.0001850254518
 30
0.0
 11
-943.3990243544883
 21
151.0001850254518
 31
0.0
  0
LINE
  5
DA
330
1F
100
AcDbEntity
  8
0
 62
   178
100
AcDbLine
 10
-943.3990243544883
 20
-501.0004131184843
 30
0.0
 11
-420.505876258597
 21
-501.0004131184843
 31
0.0
  0
LINE
  5
DB
330
1F
100
AcDbEntity
  8
0
 62
   178
100
AcDbLine
 10
994.4078307784213
 20
-120.9999292393457
 30
0.0
 11
1163.17455719657
 21
-120.9999292393457
 31
0.0
  0
LINE
  5
DC
330
1F
100
AcDbEntity
  8
0
 62
   178
100
AcDbLine
 10
-943.3990243544883
 20
-121.0002737491215
 30
0.0
 11
-919.6731528600699
 21
-120.9999292393457
 31
0.0
  0
LINE
  5
DD
330
1F
100
AcDbEntity
  8
0
 62
   178
100
AcDbLine
 10
-943.3990243544883
 20
-151.000185025452
 30
0.0
 11
-420.505876258597
 21
-151.000185025452
 31
0.0
  0
LINE
  5
DE
330
1F
100
AcDbEntity
  8
0
 62
   178
100
AcDbLine
 10
-943.3990243544883
 20
120.9999292393456
 30
0.0
 11
-919.6731528600699
 21
121.0001014942335
 31
0.0
  0
LINE
  5
DF
330
1F
100
AcDbEntity
  8
0
 62
   178
100
AcDbLine
 10
-943.3990243544883
 20
501.0004131184839
 30
0.0
 11
-420.505876258597
 21
501.0004131184839
 31
0.0
  0
LINE
  5
E0
330
1F
100
AcDbEntity
  8
0
 62
   178
100
AcDbLine
 10
-420.505876258597
 20
151.0001850254518
 30
0.0
 11
967.1829457461289
 21
151.0001850254518
 31
0.0
  0
LINE
  5
E1
330
1F
100
AcDbEntity
  8
0
 62
   178
100
AcDbLine
 10
-420.505876258597
 20
-501.0004131184843
 30
0.0
 11
967.1829457461289
 21
-501.0004131184843
 31
0.0
  0
LINE
  5
E2
330
1F
100
AcDbEntity
  8
0
 62
   178
100
AcDbLine
 10
1163.17455719657
 20
-120.9999292393457
 30
0.0
 11
1173.174297948829
 21
-120.9999292393457
 31
0.0
  0
LINE
  5
E3
330
1F
100
AcDbEntity
  8
0
 62
   178
100
AcDbLine
 10
-420.505876258597
 20
-121.0002737491215
 30
0.0
 11
-415.5196140186112
 21
-120.9999292393457
 31
0.0
  0
LINE
  5
E4
330
1F
100
AcDbEntity
  8
0
 62
   178
100
AcDbLine
 10
-919.6731528600699
 20
-120.9999292393457
 30
0.0
 11
-425.4923107534708
 21
-120.9999292393457
 31
0.0
  0
LINE
  5
E5
330
1F
100
AcDbEntity
  8
0
 62
   178
100
AcDbLine
 10
-420.505876258597
 20
120.9999292393456
 30
0.0
 11
-415.5196140186112
 21
121.0001014942335
 31
0.0
  0
LINE
  5
E6
330
1F
100
AcDbEntity
  8
0
 62
   178
100
AcDbLine
 10
-425.4923107534708
 20
121.0001014942335
 30
0.0
 11
-420.505876258597
 21
120.9999292393456
 31
0.0
  0
LINE
  5
E7
330
1F
100
AcDbEntity
  8
0
 62
   178
100
AcDbLine
 10
-919.6731528600699
 20
121.0001014942335
 30
0.0
 11
-425.4923107534708
 21
121.0001014942335
 31
0.0
  0
LINE
  5
E8
330
1F
100
AcDbEntity
  8
0
 62
   178
100
AcDbLine
 10
967.1829457461289
 20
-501.0004131184843
 30
0.0
 11
1163.17455719657
 21
-501.0000686087084
 31
0.0
  0
LINE
  5
E9
330
1F
100
AcDbEntity
  8
0
 62
   178
100
AcDbLine
 10
967.1829457461289
 20
-121.0002737491215
 30
0.0
 11
994.4078307784213
 21
-120.9999292393457
 31
0.0
  0
LINE
  5
EA
330
1F
100
AcDbEntity
  8
0
 62
   178
100
AcDbLine
 10
939.9577162040607
 20
-120.9999292393457
 30
0.0
 11
967.1829457461289
 21
-121.0002737491215
 31
0.0
  0
LINE
  5
EB
330
1F
100
AcDbEntity
  8
0
 62
   178
100
AcDbLine
 10
-415.5196140186112
 20
-120.9999292393457
 30
0.0
 11
939.9577162040607
 21
-120.9999292393457
 31
0.0
  0
LINE
  5
EC
330
1F
100
AcDbEntity
  8
0
 62
   178
100
AcDbLine
 10
1163.17455719657
 20
-501.0000686087084
 30
0.0
 11
1173.174297948829
 21
-501.0004131184843
 31
0.0
  0
LINE
  5
ED
330
1F
100
AcDbEntity
  8
0
 62
   178
100
AcDbLine
 10
1163.17455719657
 20
600.0004648401498
 30
0.0
 11
1163.17455719657
 21
501.0004131184839
 31
0.0
  0
LINE
  5
EE
330
1F
100
AcDbEntity
  8
0
 62
   178
100
AcDbLine
 10
-1153.175160954085
 20
-600.0004648401504
 30
0.0
 11
-1153.175160954085
 21
-501.0000686087084
 31
0.0
  0
LINE
  5
EF
330
1F
100
AcDbEntity
  8
0
 62
   178
100
AcDbLine
 10
-1153.175160954085
 20
-0.0000000000001805
 30
0.0
 11
1163.17455719657
 21
-0.0000000000000902
 31
0.0
  0
LINE
  5
F0
330
1F
100
AcDbEntity
  8
0
 62
   178
100
AcDbLine
 10
-420.505876258597
 20
-151.000185025452
 30
0.0
 11
967.1829457461289
 21
-151.000185025452
 31
0.0
  0
LINE
  5
F1
330
1F
100
AcDbEntity
  8
0
 62
   178
100
AcDbLine
 10
-420.505876258597
 20
501.0004131184839
 30
0.0
 11
967.1829457461289
 21
501.0004131184839
 31
0.0
  0
LINE
  5
F2
330
1F
100
AcDbEntity
  8
0
 62
   178
100
AcDbLine
 10
967.1829457461289
 20
151.0001850254518
 30
0.0
 11
1163.17455719657
 21
151.0001850254518
 31
0.0
  0
LINE
  5
F3
330
1F
100
AcDbEntity
  8
0
 62
   178
100
AcDbLine
 10
-425.4923107534708
 20
-120.9999292393457
 30
0.0
 11
-420.505876258597
 21
-121.0002737491215
 31
0.0
  0
LINE
  5
F4
330
1F
100
AcDbEntity
  8
0
 62
   178
100
AcDbLine
 10
967.1829457461289
 20
120.9999292393456
 30
0.0
 11
994.4078307784213
 21
121.0001014942335
 31
0.0
  0
LINE
  5
F5
330
1F
100
AcDbEntity
  8
0
 62
   178
100
AcDbLine
 10
-415.5196140186112
 20
121.0001014942335
 30
0.0
 11
939.9577162040607
 21
121.0001014942335
 31
0.0
  0
LINE
  5
F6
330
1F
100
AcDbEntity
  8
0
 62
   178
100
AcDbLine
 10
1163.17455719657
 20
-501.0000686087084
 30
0.0
 11
1163.17455719657
 21
-600.0004648401504
 31
0.0
  0
LINE
  5
F7
330
1F
100
AcDbEntity
  8
0
 62
   178
100
AcDbLine
 10
1163.17455719657
 20
-225.9999632162779
 30
0.0
 11
1163.17455719657
 21
-501.0000686087084
 31
0.0
  0
LINE
  5
F8
330
1F
100
AcDbEntity
  8
0
 62
   178
100
AcDbLine
 10
1163.17455719657
 20
-151.000185025452
 30
0.0
 11
1163.17455719657
 21
-225.9999632162779
 31
0.0
  0
LINE
  5
F9
330
1F
100
AcDbEntity
  8
0
 62
   178
100
AcDbLine
 10
1163.17455719657
 20
-120.9999292393457
 30
0.0
 11
1163.17455719657
 21
-151.000185025452
 31
0.0
  0
LINE
  5
FA
330
1F
100
AcDbEntity
  8
0
 62
   178
100
AcDbLine
 10
1163.17455719657
 20
-0.0000000000000902
 30
0.0
 11
1163.17455719657
 21
-120.9999292393457
 31
0.0
  0
LINE
  5
FB
330
1F
100
AcDbEntity
  8
0
 62
   178
100
AcDbLine
 10
1163.17455719657
 20
121.0002737491214
 30
0.0
 11
1163.17455719657
 21
-0.0000000000000902
 31
0.0
  0
LINE
  5
FC
330
1F
100
AcDbEntity
  8
0
 62
   178
100
AcDbLine
 10
1163.17455719657
 20
151.0001850254518
 30
0.0
 11
1163.17455719657
 21
121.0002737491214
 31
0.0
  0
LINE
  5
FD
330
1F
100
AcDbEntity
  8
0
 62
   178
100
AcDbLine
 10
1163.17455719657
 20
226.0003077260535
 30
0.0
 11
1163.17455719657
 21
151.0001850254518
 31
0.0
  0
LINE
  5
FE
330
1F
100
AcDbEntity
  8
0
 62
   178
100
AcDbLine
 10
1163.17455719657
 20
501.0004131184839
 30
0.0
 11
1163.17455719657
 21
226.0003077260535
 31
0.0
  0
LINE
  5
FF
330
1F
100
AcDbEntity
  8
0
 62
   178
100
AcDbLine
 10
-1153.175160954085
 20
-501.0000686087084
 30
0.0
 11
-1153.175160954085
 21
-225.9999632162779
 31
0.0
  0
LINE
  5
100
330
1F
100
AcDbEntity
  8
0
 62
   178
100
AcDbLine
 10
1163.17455719657
 20
-0.0000000000000902
 30
0.0
 11
1173.174297948829
 21
-0.0000000000000902
 31
0.0
  0
LINE
  5
101
330
1F
100
AcDbEntity
  8
0
 62
   178
100
AcDbLine
 10
967.1829457461289
 20
-151.000185025452
 30
0.0
 11
1163.17455719657
 21
-151.000185025452
 31
0.0
  0
LINE
  5
102
330
1F
100
AcDbEntity
  8
0
 62
   178
100
AcDbLine
 10
967.1829457461289
 20
501.0004131184839
 30
0.0
 11
1163.17455719657
 21
501.0004131184839
 31
0.0
  0
LINE
  5
103
330
1F
100
AcDbEntity
  8
0
 62
   178
100
AcDbLine
 10
1163.17455719657
 20
151.0001850254518
 30
0.0
 11
1173.174297948829
 21
151.0001850254518
 31
0.0
  0
LINE
  5
104
330
1F
100
AcDbEntity
  8
0
 62
   178
100
AcDbLine
 10
994.4078307784213
 20
121.0001014942335
 30
0.0
 11
1163.17455719657
 21
121.0002737491214
 31
0.0
  0
LINE
  5
105
330
1F
100
AcDbEntity
  8
0
 62
   178
100
AcDbLine
 10
939.9577162040607
 20
121.0001014942335
 30
0.0
 11
967.1829457461289
 21
120.9999292393456
 31
0.0
  0
LINE
  5
106
330
1F
100
AcDbEntity
  8
0
 62
   178
100
AcDbLine
 10
-1153.175160954085
 20
-151.000185025452
 30
0.0
 11
-1153.175160954085
 21
-120.9999292393457
 31
0.0
  0
LINE
  5
107
330
1F
100
AcDbEntity
  8
0
 62
   178
100
AcDbLine
 10
-1153.175160954085
 20
-225.9999632162779
 30
0.0
 11
-1153.175160954085
 21
-151.000185025452
 31
0.0
  0
LINE
  5
108
330
1F
100
AcDbEntity
  8
0
 62
   178
100
AcDbLine
 10
1163.17455719657
 20
-151.000185025452
 30
0.0
 11
1173.174297948829
 21
-151.000185025452
 31
0.0
  0
LINE
  5
109
330
1F
100
AcDbEntity
  8
0
 62
   178
100
AcDbLine
 10
1163.17455719657
 20
501.0004131184839
 30
0.0
 11
1173.174297948829
 21
501.0004131184839
 31
0.0
  0
LINE
  5
10A
330
1F
100
AcDbEntity
  8
0
 62
   178
100
AcDbLine
 10
1163.17455719657
 20
121.0002737491214
 30
0.0
 11
1173.174297948829
 21
121.0001014942335
 31
0.0
  0
LINE
  5
10B
330
1F
100
AcDbEntity
  8
0
 62
   178
100
AcDbLine
 10
-1153.175160954085
 20
-120.9999292393457
 30
0.0
 11
-1153.175160954085
 21
-0.0000000000001805
 31
0.0
  0
LINE
  5
10C
330
1F
100
AcDbEntity
  8
0
 62
   178
100
AcDbLine
 10
-1153.175160954085
 20
-0.0000000000001805
 30
0.0
 11
-1153.175160954085
 21
121.0002737491214
 31
0.0
  0
LINE
  5
10D
330
1F
100
AcDbEntity
  8
0
 62
   178
100
AcDbLine
 10
-1153.175160954085
 20
121.0002737491214
 30
0.0
 11
-1153.175160954085
 21
151.0001850254518
 31
0.0
  0
LINE
  5
10E
330
1F
100
AcDbEntity
  8
0
 62
   178
100
AcDbLine
 10
-1153.175160954085
 20
151.0001850254518
 30
0.0
 11
-1153.175160954085
 21
226.0003077260535
 31
0.0
  0
LINE
  5
10F
330
1F
100
AcDbEntity
  8
0
 62
   178
100
AcDbLine
 10
-1153.175160954085
 20
501.0004131184839
 30
0.0
 11
-1153.175160954085
 21
600.0004648401498
 31
0.0
  0
LINE
  5
110
330
1F
100
AcDbEntity
  8
0
 62
   178
100
AcDbLine
 10
-1153.175160954085
 20
226.0003077260535
 30
0.0
 11
-1153.175160954085
 21
501.0004131184839
 31
0.0
  0
LINE
  5
111
330
1F
100
AcDbEntity
  8
0
 62
   178
100
AcDbLine
 10
-1021.694899825244
 20
-600.0004648401504
 30
0.0
 11
-943.3990243544883
 21
-501.0004131184843
 31
0.0
  0
LINE
  5
112
330
1F
100
AcDbEntity
  8
0
 62
   178
100
AcDbLine
 10
-420.505876258597
 20
-501.0004131184843
 30
0.0
 11
-404.0508835823568
 21
-600.0004648401504
 31
0.0
  0
LINE
  5
113
330
1F
100
AcDbEntity
  8
0
 62
   178
100
AcDbLine
 10
877.3399638651255
 20
-600.0004648401504
 30
0.0
 11
967.1829457461289
 21
-501.0004131184843
 31
0.0
  0
LINE
  5
114
330
1F
100
AcDbEntity
  8
0
 62
   178
100
AcDbLine
 10
-436.9606966799495
 20
-600.0004648401504
 30
0.0
 11
-420.505876258597
 21
-501.0004131184843
 31
0.0
  0
LINE
  5
115
330
1F
100
AcDbEntity
  8
0
 62
   178
100
AcDbLine
 10
967.1829457461289
 20
-501.0004131184843
 30
0.0
 11
1057.025583117357
 21
-600.0004648401504
 31
0.0
  0
LINE
  5
116
330
1F
100
AcDbEntity
  8
0
 62
   178
100
AcDbLine
 10
-943.3990243544883
 20
-501.0004131184843
 30
0.0
 11
-865.1034933935085
 21
-600.0004648401504
 31
0.0
  0
LINE
  5
117
330
1F
100
AcDbEntity
  8
0
 62
   178
100
AcDbLine
 10
1057.025583117357
 20
600.0004648401498
 30
0.0
 11
1163.17455719657
 21
600.0004648401498
 31
0.0
  0
LINE
  5
118
330
1F
100
AcDbEntity
  8
0
 62
   178
100
AcDbLine
 10
967.1829457461289
 20
501.0004131184839
 30
0.0
 11
1057.025583117357
 21
600.0004648401498
 31
0.0
  0
LINE
  5
119
330
1F
100
AcDbEntity
  8
0
 62
   178
100
AcDbLine
 10
877.3399638651255
 20
600.0004648401498
 30
0.0
 11
967.1829457461289
 21
501.0004131184839
 31
0.0
  0
LINE
  5
11A
330
1F
100
AcDbEntity
  8
0
 62
   178
100
AcDbLine
 10
-1021.694899825244
 20
600.0004648401498
 30
0.0
 11
-943.3990243544883
 21
501.0004131184839
 31
0.0
  0
LINE
  5
11B
330
1F
100
AcDbEntity
  8
0
 62
   178
100
AcDbLine
 10
-943.3990243544883
 20
501.0004131184839
 30
0.0
 11
-865.1034933935085
 21
600.0004648401498
 31
0.0
  0
LINE
  5
11C
330
1F
100
AcDbEntity
  8
0
 62
   178
100
AcDbLine
 10
-1163.175073961233
 20
600.0004648401498
 30
0.0
 11
-1153.175160954085
 21
600.0004648401498
 31
0.0
  0
LINE
  5
11D
330
1F
100
AcDbEntity
  8
0
 62
   178
100
AcDbLine
 10
-436.9606966799495
 20
600.0004648401498
 30
0.0
 11
-420.505876258597
 21
501.0004131184839
 31
0.0
  0
LINE
  5
11E
330
1F
100
AcDbEntity
  8
0
 62
   178
100
AcDbLine
 10
-404.0508835823568
 20
600.0004648401498
 30
0.0
 11
877.3399638651255
 21
600.0004648401498
 31
0.0
  0
LINE
  5
11F
330
1F
100
AcDbEntity
  8
0
 62
   178
100
AcDbLine
 10
-865.1034933935085
 20
600.0004648401498
 30
0.0
 11
-436.9606966799495
 21
600.0004648401498
 31
0.0
  0
LINE
  5
120
330
1F
100
AcDbEntity
  8
0
 62
   178
100
AcDbLine
 10
-420.505876258597
 20
501.0004131184839
 30
0.0
 11
-404.0508835823568
 21
600.0004648401498
 31
0.0
  0
LINE
  5
121
330
1F
100
AcDbEntity
  8
0
 62
   178
100
AcDbLine
 10
1163.17455719657
 20
600.0004648401498
 30
0.0
 11
1173.174297948829
 21
600.0004648401498
 31
0.0
  0
LINE
  5
122
330
1F
100
AcDbEntity
  8
0
 62
   178
100
AcDbLine
 10
-1153.175160954085
 20
600.0004648401498
 30
0.0
 11
-1021.694899825244
 21
600.0004648401498
 31
0.0
  0
LINE
  5
123
330
1F
100
AcDbEntity
  8
0
 62
   178
100
AcDbLine
 10
1173.174297948829
 20
600.0004648401498
 30
0.0
 11
1173.174642458604
 21
511.0003261256318
 31
0.0
  0
LINE
  5
124
330
1F
100
AcDbEntity
  8
0
 62
   178
100
AcDbLine
 10
1173.174642458604
 20
-491.0003278564489
 30
0.0
 11
1173.174297948829
 21
-501.0004131184843
 31
0.0
  0
LINE
  5
125
330
1F
100
AcDbEntity
  8
0
 62
   178
100
AcDbLine
 10
1173.174642458604
 20
-160.9999257777116
 30
0.0
 11
1173.174642458604
 21
-491.0003278564489
 31
0.0
  0
LINE
  5
126
330
1F
100
AcDbEntity
  8
0
 62
   178
100
AcDbLine
 10
1173.174642458604
 20
-141.0000997634165
 30
0.0
 11
1173.174297948829
 21
-151.000185025452
 31
0.0
  0
LINE
  5
127
330
1F
100
AcDbEntity
  8
0
 62
   178
100
AcDbLine
 10
1173.174642458604
 20
-131.0000145013811
 30
0.0
 11
1173.174642458604
 21
-141.0000997634165
 31
0.0
  0
LINE
  5
128
330
1F
100
AcDbEntity
  8
0
 62
   178
100
AcDbLine
 10
1173.174642458604
 20
-111.0001884870862
 30
0.0
 11
1173.174297948829
 21
-120.9999292393457
 31
0.0
  0
LINE
  5
129
330
1F
100
AcDbEntity
  8
0
 62
   178
100
AcDbLine
 10
1173.174297948829
 20
-0.0000000000000902
 30
0.0
 11
1173.174642458604
 21
-111.0001884870862
 31
0.0
  0
LINE
  5
12A
330
1F
100
AcDbEntity
  8
0
 62
   178
100
AcDbLine
 10
1173.174642458604
 20
111.0000162321981
 30
0.0
 11
1173.174297948829
 21
-0.0000000000000902
 31
0.0
  0
LINE
  5
12B
330
1F
100
AcDbEntity
  8
0
 62
   178
100
AcDbLine
 10
1173.174642458604
 20
131.0000145013811
 30
0.0
 11
1173.174297948829
 21
121.0001014942335
 31
0.0
  0
LINE
  5
12C
330
1F
100
AcDbEntity
  8
0
 62
   178
100
AcDbLine
 10
1173.174642458604
 20
141.0000997634164
 30
0.0
 11
1173.174642458604
 21
131.0000145013811
 31
0.0
  0
LINE
  5
12D
330
1F
100
AcDbEntity
  8
0
 62
   178
100
AcDbLine
 10
1173.174642458604
 20
161.0002702874872
 30
0.0
 11
1173.174297948829
 21
151.0001850254518
 31
0.0
  0
LINE
  5
12E
330
1F
100
AcDbEntity
  8
0
 62
   178
100
AcDbLine
 10
1173.174642458604
 20
491.000327856449
 30
0.0
 11
1173.174642458604
 21
161.0002702874872
 31
0.0
  0
LINE
  5
12F
330
1F
100
AcDbEntity
  8
0
 62
   178
100
AcDbLine
 10
1173.174642458604
 20
511.0003261256318
 30
0.0
 11
1173.174297948829
 21
501.0004131184839
 31
0.0
  0
LINE
  5
130
330
1F
100
AcDbEntity
  8
0
 62
   178
100
AcDbLine
 10
1173.174297948829
 20
-501.0004131184843
 30
0.0
 11
1173.174642458604
 21
-511.0004983805197
 31
0.0
  0
LINE
  5
131
330
1F
100
AcDbEntity
  8
0
 62
   178
100
AcDbLine
 10
1173.174297948829
 20
-151.000185025452
 30
0.0
 11
1173.174642458604
 21
-160.9999257777116
 31
0.0
  0
LINE
  5
132
330
1F
100
AcDbEntity
  8
0
 62
   178
100
AcDbLine
 10
1173.174297948829
 20
-120.9999292393457
 30
0.0
 11
1173.174642458604
 21
-131.0000145013811
 31
0.0
  0
LINE
  5
133
330
1F
100
AcDbEntity
  8
0
 62
   178
100
AcDbLine
 10
1173.174297948829
 20
121.0001014942335
 30
0.0
 11
1173.174642458604
 21
111.0000162321981
 31
0.0
  0
LINE
  5
134
330
1F
100
AcDbEntity
  8
0
 62
   178
100
AcDbLine
 10
1173.174297948829
 20
151.0001850254518
 30
0.0
 11
1173.174642458604
 21
141.0000997634164
 31
0.0
  0
LINE
  5
135
330
1F
100
AcDbEntity
  8
0
 62
   178
100
AcDbLine
 10
1173.174297948829
 20
501.0004131184839
 30
0.0
 11
1173.174642458604
 21
491.000327856449
 31
0.0
  0
LINE
  5
136
330
1F
100
AcDbEntity
  8
0
 62
   178
100
AcDbLine
 10
1173.174642458604
 20
-511.0004983805197
 30
0.0
 11
1173.174297948829
 21
-600.0004648401504
 31
0.0
  0
LINE
  5
137
330
1F
100
AcDbEntity
  8
0
 62
   178
100
AcDbLine
 10
-1163.175073961233
 20
-0.0000000000000902
 30
0.0
 11
-1163.175073961233
 21
111.0000162321981
 31
0.0
  0
LINE
  5
138
330
1F
100
AcDbEntity
  8
0
 62
   178
100
AcDbLine
 10
-1163.175073961233
 20
131.0000145013811
 30
0.0
 11
-1163.175073961233
 21
141.0000997634164
 31
0.0
  0
LINE
  5
139
330
1F
100
AcDbEntity
  8
0
 62
   178
100
AcDbLine
 10
-1163.175073961233
 20
511.0003261256318
 30
0.0
 11
-1163.175073961233
 21
600.0004648401498
 31
0.0
  0
LINE
  5
13A
330
1F
100
AcDbEntity
  8
0
 62
   178
100
AcDbLine
 10
-1163.175073961233
 20
-600.0004648401504
 30
0.0
 11
-1153.175160954085
 21
-600.0004648401504
 31
0.0
  0
LINE
  5
13B
330
1F
100
AcDbEntity
  8
0
 62
   178
100
AcDbLine
 10
-1163.175073961233
 20
-111.0001884870862
 30
0.0
 11
-1163.175073961233
 21
-0.0000000000000902
 31
0.0
  0
LINE
  5
13C
330
1F
100
AcDbEntity
  8
0
 62
   178
100
AcDbLine
 10
-1163.175073961233
 20
121.0001014942335
 30
0.0
 11
-1163.175073961233
 21
131.0000145013811
 31
0.0
  0
LINE
  5
13D
330
1F
100
AcDbEntity
  8
0
 62
   178
100
AcDbLine
 10
-1163.175073961233
 20
111.0000162321981
 30
0.0
 11
-1163.175073961233
 21
121.0001014942335
 31
0.0
  0
LINE
  5
13E
330
1F
100
AcDbEntity
  8
0
 62
   178
100
AcDbLine
 10
-1163.175073961233
 20
151.0001850254518
 30
0.0
 11
-1163.175073961233
 21
161.0002702874872
 31
0.0
  0
LINE
  5
13F
330
1F
100
AcDbEntity
  8
0
 62
   178
100
AcDbLine
 10
-1163.175073961233
 20
141.0000997634164
 30
0.0
 11
-1163.175073961233
 21
151.0001850254518
 31
0.0
  0
LINE
  5
140
330
1F
100
AcDbEntity
  8
0
 62
   178
100
AcDbLine
 10
-1163.175073961233
 20
161.0002702874872
 30
0.0
 11
-1163.175073961233
 21
491.000327856449
 31
0.0
  0
LINE
  5
141
330
1F
100
AcDbEntity
  8
0
 62
   178
100
AcDbLine
 10
-1163.175073961233
 20
501.0004131184839
 30
0.0
 11
-1163.175073961233
 21
511.0003261256318
 31
0.0
  0
LINE
  5
142
330
1F
100
AcDbEntity
  8
0
 62
   178
100
AcDbLine
 10
-1163.175073961233
 20
491.000327856449
 30
0.0
 11
-1163.175073961233
 21
501.0004131184839
 31
0.0
  0
LINE
  5
143
330
1F
100
AcDbEntity
  8
0
 62
   178
100
AcDbLine
 10
-1153.175160954085
 20
-600.0004648401504
 30
0.0
 11
-1021.694899825244
 21
-600.0004648401504
 31
0.0
  0
LINE
  5
144
330
1F
100
AcDbEntity
  8
0
 62
   178
100
AcDbLine
 10
-1163.175073961233
 20
-600.0004648401504
 30
0.0
 11
-1163.175073961233
 21
-511.0004983805197
 31
0.0
  0
LINE
  5
145
330
1F
100
AcDbEntity
  8
0
 62
   178
100
AcDbLine
 10
-1163.175073961233
 20
-501.0004131184843
 30
0.0
 11
-1163.175073961233
 21
-491.0003278564489
 31
0.0
  0
LINE
  5
146
330
1F
100
AcDbEntity
  8
0
 62
   178
100
AcDbLine
 10
-1163.175073961233
 20
-511.0004983805197
 30
0.0
 11
-1163.175073961233
 21
-501.0004131184843
 31
0.0
  0
LINE
  5
147
330
1F
100
AcDbEntity
  8
0
 62
   178
100
AcDbLine
 10
-1163.175073961233
 20
-491.0003278564489
 30
0.0
 11
-1163.175073961233
 21
-160.9999257777116
 31
0.0
  0
LINE
  5
148
330
1F
100
AcDbEntity
  8
0
 62
   178
100
AcDbLine
 10
-1163.175073961233
 20
-151.000185025452
 30
0.0
 11
-1163.175073961233
 21
-141.0000997634165
 31
0.0
  0
LINE
  5
149
330
1F
100
AcDbEntity
  8
0
 62
   178
100
AcDbLine
 10
-1163.175073961233
 20
-160.9999257777116
 30
0.0
 11
-1163.175073961233
 21
-151.000185025452
 31
0.0
  0
LINE
  5
14A
330
1F
100
AcDbEntity
  8
0
 62
   178
100
AcDbLine
 10
-1163.175073961233
 20
-141.0000997634165
 30
0.0
 11
-1163.175073961233
 21
-131.0000145013811
 31
0.0
  0
LINE
  5
14B
330
1F
100
AcDbEntity
  8
0
 62
   178
100
AcDbLine
 10
-1163.175073961233
 20
-120.9999292393457
 30
0.0
 11
-1163.175073961233
 21
-111.0001884870862
 31
0.0
  0
LINE
  5
14C
330
1F
100
AcDbEntity
  8
0
 62
   178
100
AcDbLine
 10
-1163.175073961233
 20
-131.0000145013811
 30
0.0
 11
-1163.175073961233
 21
-120.9999292393457
 31
0.0
  0
LINE
  5
14D
330
1F
100
AcDbEntity
  8
0
 62
   178
100
AcDbLine
 10
-865.1034933935085
 20
-600.0004648401504
 30
0.0
 11
-436.9606966799495
 21
-600.0004648401504
 31
0.0
  0
LINE
  5
14E
330
1F
100
AcDbEntity
  8
0
 62
   178
100
AcDbLine
 10
-404.0508835823568
 20
-600.0004648401504
 30
0.0
 11
877.3399638651255
 21
-600.0004648401504
 31
0.0
  0
LINE
  5
14F
330
1F
100
AcDbEntity
  8
0
 62
   178
100
AcDbLine
 10
1057.025583117357
 20
-600.0004648401504
 30
0.0
 11
1163.17455719657
 21
-600.0004648401504
 31
0.0
  0
LINE
  5
150
330
1F
100
AcDbEntity
  8
0
 62
   178
100
AcDbLine
 10
1163.17455719657
 20
-600.0004648401504
 30
0.0
 11
1173.174297948829
 21
-600.0004648401504
 31
0.0
  0
LINE
  5
151
330
1F
100
AcDbEntity
  8
0
 62
   178
100
AcDbLine
 10
1180.728019292935
 20
-605.553273406433
 30
0.0
 11
-1180.728019292935
 21
-605.553273406433
 31
0.0
  0
LINE
  5
152
330
1F
100
AcDbEntity
  8
0
 62
   178
100
AcDbLine
 10
1180.728019292935
 20
605.553273406433
 30
0.0
 11
1180.728019292935
 21
-605.553273406433
 31
0.0
  0
LINE
  5
153
330
1F
100
AcDbEntity
  8
0
 62
   178
100
AcDbLine
 10
-1180.728019292935
 20
605.553273406433
 30
0.0
 11
1180.728019292935
 21
605.553273406433
 31
0.0
  0
LINE
  5
154
330
1F
100
AcDbEntity
  8
0
 62
   178
100
AcDbLine
 10
-1180.728019292935
 20
-605.553273406433
 30
0.0
 11
-1180.728019292935
 21
605.553273406433
 31
0.0
  0
ENDSEC
  0
SECTION
  2
OBJECTS
  0
DICTIONARY
  5
C
330
0
100
AcDbDictionary
  3
ACAD_GROUP
350
D
  3
ACAD_LAYOUT
350
1A
  3
ACAD_MATERIAL
350
43
  3
ACAD_MLEADERSTYLE
350
177
  3
ACAD_MLINESTYLE
350
17
  3
ACAD_PLOTSETTINGS
350
19
  3
ACAD_SCALELIST
350
47
  3
ACAD_VISUALSTYLE
350
2A
  3
ACDBHEADERROUNDTRIPXREC
350
155
  3
ACDBVARIABLEDICTIONARY
350
175
  0
DICTIONARY
  5
17C
330
8
100
AcDbDictionary
280
     1
  3
ACAD_XREC_ROUNDTRIP
360
17D
  0
DICTIONARY
  5
D
102
{ACAD_REACTORS
330
C
102
}
330
C
100
AcDbDictionary
  0
DICTIONARY
  5
1A
102
{ACAD_REACTORS
330
C
102
}
330
C
100
AcDbDictionary
  0
DICTIONARY
  5
43
102
{ACAD_REACTORS
330
C
102
}
330
C
100
AcDbDictionary
  3
BYBLOCK
350
45
  3
BYLAYER
350
44
  3
GLOBAL
350
46
  0
DICTIONARY
  5
177
102
{ACAD_REACTORS
330
C
102
}
330
C
100
AcDbDictionary
  0
DICTIONARY
  5
17
102
{ACAD_REACTORS
330
C
102
}
330
C
100
AcDbDictionary
  3
STANDARD
350
18
  0
DICTIONARY
  5
19
102
{ACAD_REACTORS
330
C
102
}
330
C
100
AcDbDictionary
  0
DICTIONARY
  5
47
102
{ACAD_REACTORS
330
C
102
}
330
C
100
AcDbDictionary
  3
A0
350
48
  3
A1
350
49
  3
A2
350
4A
  3
A3
350
4B
  3
A4
350
4C
  3
A5
350
4D
  3
A6
350
4E
  3
A7
350
4F
  3
A8
350
50
  3
A9
350
51
  3
B0
350
52
  3
B1
350
53
  3
B2
350
54
  3
B3
350
55
  3
B4
350
56
  3
B5
350
57
  3
B6
350
58
  3
B7
350
59
  3
B8
350
5A
  3
B9
350
5B
  3
C0
350
5C
  3
C1
350
5D
  3
C2
350
5E
  3
C3
350
5F
  3
C4
350
60
  3
C5
350
61
  3
C6
350
62
  3
C7
350
63
  3
C8
350
64
  3
C9
350
65
  3
D0
350
66
  3
D1
350
67
  3
D2
350
68
  0
DICTIONARY
  5
2A
102
{ACAD_REACTORS
330
C
102
}
330
C
100
AcDbDictionary
  3
2DWIREFRAME
350
2F
  3
BASIC
350
32
  3
BRIGHTEN
350
36
  3
COLORCHANGE
350
3A
  3
CONCEPTUAL
350
34
  3
DIM
350
35
  3
EDGECOLOROFF
350
3D
  3
FACEPATTERN
350
39
  3
FLAT
350
2B
  3
FLATWITHEDGES
350
2C
  3
GOURAUD
350
2D
  3
GOURAUDWITHEDGES
350
2E
  3
HIDDEN
350
31
  3
JITTEROFF
350
3B
  3
LINEPATTERN
350
38
  3
OVERHANGOFF
350
3C
  3
REALISTIC
350
33
  3
SHADED
350
42
  3
SHADED_WITH_EDGES
350
41
  3
SHADES_OF_GRAY
350
3E
  3
SKETCHY
350
3F
  3
THICKEN
350
37
  3
WIREFRAME
350
30
  3
X-RAY
350
40
  0
DICTIONARY
  5
155
102
{ACAD_REACTORS
330
C
102
}
330
C
100
AcDbDictionary
  3
CEPSNTYPE
350
15E
  3
DIMSTYLEDATA
350
174
  3
FINGERPRINTGUID
350
15F
  3
HYPERLINKBASE
350
158
  3
INSUNITS
350
15D
  3
LAYOUTDICT
350
15A
  3
LWETCUNION
350
15C
  3
PLOTSETDICT
350
15B
  3
PSVPSCALE
350
161
  3
PUCSBASE
350
164
  3
PUCSORGBACK
350
16A
  3
PUCSORGBOTTOM
350
166
  3
PUCSORGFRONT
350
169
  3
PUCSORGLEFT
350
167
  3
PUCSORGRIGHT
350
168
  3
PUCSORGTOP
350
165
  3
PUCSORTHOREF
350
162
  3
PUCSORTHOVIEW
350
163
  3
STYLESHEET
350
159
  3
TSTACKALIGN
350
156
  3
TSTACKSIZE
350
157
  3
UCSBASE
350
16D
  3
UCSORGBACK
350
173
  3
UCSORGBOTTOM
350
16F
  3
UCSORGFRONT
350
172
  3
UCSORGLEFT
350
170
  3
UCSORGRIGHT
350
171
  3
UCSORGTOP
350
16E
  3
UCSORTHOREF
350
16B
  3
UCSORTHOVIEW
350
16C
  3
VERSIONGUID
350
160
  0
DICTIONARY
  5
175
102
{ACAD_REACTORS
330
C
102
}
330
C
100
AcDbDictionary
  3
CANNOSCALE
350
17E
  3
DIMASSOC
350
17A
  3
HIDETEXT
350
17B
  3
MSLTSCALE
350
17F
  0
XRECORD
  5
17D
102
{ACAD_REACTORS
330
17C
102
}
330
17C
100
AcDbXrecord
102
VTR_0.000_0.000_1.000_1.000_GRIDDISPLAY
 70
     3
102
VTR_0.000_0.000_1.000_1.000_GRIDMAJOR
 70
     5
102
VTR_0.000_0.000_1.000_1.000_DEFAULTLIGHTING
280
     1
102
VTR_0.000_0.000_1.000_1.000_DEFAULTLIGHTINGTYPE
 70
     1
102
VTR_0.000_0.000_1.000_1.000_BRIGHTNESS
141
0.0
102
VTR_0.000_0.000_1.000_1.000_CONTRAST
142
0.0
  0
MATERIAL
  5
45
102
{ACAD_REACTORS
330
43
102
}
102
{ACAD_XDICTIONARY
360
182
102
}
330
43
100
AcDbMaterial
  1
BYBLOCK
  0
MATERIAL
  5
44
102
{ACAD_REACTORS
330
43
102
}
102
{ACAD_XDICTIONARY
360
180
102
}
330
43
100
AcDbMaterial
  1
BYLAYER
  0
MATERIAL
  5
46
102
{ACAD_REACTORS
330
43
102
}
102
{ACAD_XDICTIONARY
360
184
102
}
330
43
100
AcDbMaterial
  1
GLOBAL
  0
MLINESTYLE
  5
18
102
{ACAD_REACTORS
330
17
102
}
330
17
100
AcDbMlineStyle
  2
Standard
 70
     0
  3

 62
   256
 51
90.0
 52
90.0
 71
     2
 49
0.5
 62
   256
  6
BYLAYER
 49
-0.5
 62
   256
  6
BYLAYER
  0
ACAD_PROXY_OBJECT
  5
48
102
{ACAD_REACTORS
330
47
102
}
330
47
100
AcDbProxyObject
 90
      499
 91
      503
 93
       41
310
903313A31580
  0
ACAD_PROXY_OBJECT
  5
49
102
{ACAD_REACTORS
330
47
102
}
330
47
100
AcDbProxyObject
 90
      499
 91
      503
 93
      105
310
903313A324000000000000004000
  0
ACAD_PROXY_OBJECT
  5
4A
102
{ACAD_REACTORS
330
47
102
}
330
47
100
AcDbProxyObject
 90
      499
 91
      503
 93
      105
310
903313A344000000000000104000
  0
ACAD_PROXY_OBJECT
  5
4B
102
{ACAD_REACTORS
330
47
102
}
330
47
100
AcDbProxyObject
 90
      499
 91
      503
 93
      105
310
903313A354000000000000144000
  0
ACAD_PROXY_OBJECT
  5
4C
102
{ACAD_REACTORS
330
47
102
}
330
47
100
AcDbProxyObject
 90
      499
 91
      503
 93
      105
310
903313A384000000000000204000
  0
ACAD_PROXY_OBJECT
  5
4D
102
{ACAD_REACTORS
330
47
102
}
330
47
100
AcDbProxyObject
 90
      499
 91
      503
 93
      113
310
904313A31304000000000000244000
  0
ACAD_PROXY_OBJECT
  5
4E
102
{ACAD_REACTORS
330
47
102
}
330
47
100
AcDbProxyObject
 90
      499
 91
      503
 93
      113
310
904313A31364000000000000304000
  0
ACAD_PROXY_OBJECT
  5
4F
102
{ACAD_REACTORS
330
47
102
}
330
47
100
AcDbProxyObject
 90
      499
 91
      503
 93
      113
310
904313A32304000000000000344000
  0
ACAD_PROXY_OBJECT
  5
50
102
{ACAD_REACTORS
330
47
102
}
330
47
100
AcDbProxyObject
 90
      499
 91
      503
 93
      113
310
904313A333040000000000003E4000
  0
ACAD_PROXY_OBJECT
  5
51
102
{ACAD_REACTORS
330
47
102
}
330
47
100
AcDbProxyObject
 90
      499
 91
      503
 93
      113
310
904313A34304000000000000444000
  0
ACAD_PROXY_OBJECT
  5
52
102
{ACAD_REACTORS
330
47
102
}
330
47
100
AcDbProxyObject
 90
      499
 91
      503
 93
      113
310
904313A35304000000000000494000
  0
ACAD_PROXY_OBJECT
  5
53
102
{ACAD_REACTORS
330
47
102
}
330
47
100
AcDbProxyObject
 90
      499
 91
      503
 93
      121
310
905313A3130304000000000000594000
  0
ACAD_PROXY_OBJECT
  5
54
102
{ACAD_REACTORS
330
47
102
}
330
47
100
AcDbProxyObject
 90
      499
 91
      503
 93
      105
310
903323A310000000000000010100
  0
ACAD_PROXY_OBJECT
  5
55
102
{ACAD_REACTORS
330
47
102
}
330
47
100
AcDbProxyObject
 90
      499
 91
      503
 93
      105
310
903343A310000000000000410100
  0
ACAD_PROXY_OBJECT
  5
56
102
{ACAD_REACTORS
330
47
102
}
330
47
100
AcDbProxyObject
 90
      499
 91
      503
 93
      105
310
903383A310000000000000810100
  0
ACAD_PROXY_OBJECT
  5
57
102
{ACAD_REACTORS
330
47
102
}
330
47
100
AcDbProxyObject
 90
      499
 91
      503
 93
      113
310
90431303A310000000000000910100
  0
ACAD_PROXY_OBJECT
  5
58
102
{ACAD_REACTORS
330
47
102
}
330
47
100
AcDbProxyObject
 90
      499
 91
      503
 93
      121
310
9053130303A310000000000001650100
  0
ACAD_PROXY_OBJECT
  5
59
102
{ACAD_REACTORS
330
47
102
}
330
47
100
AcDbProxyObject
 90
      499
 91
      503
 93
      257
310
90E312F31323822203D2031272D3022000000000000200FC000000000000284000
  0
ACAD_PROXY_OBJECT
  5
5A
102
{ACAD_REACTORS
330
47
102
}
330
47
100
AcDbProxyObject
 90
      499
 91
      503
 93
      249
310
90D312F363422203D2031272D3022000000000000240FC000000000000284000
  0
ACAD_PROXY_OBJECT
  5
5B
102
{ACAD_REACTORS
330
47
102
}
330
47
100
AcDbProxyObject
 90
      499
 91
      503
 93
      249
310
90D312F333222203D2031272D3022000000000000280FC000000000000284000
  0
ACAD_PROXY_OBJECT
  5
5C
102
{ACAD_REACTORS
330
47
102
}
330
47
100
AcDbProxyObject
 90
      499
 91
      503
 93
      249
310
90D312F313622203D2031272D30220000000000002C0FC000000000000284000
  0
ACAD_PROXY_OBJECT
  5
5D
102
{ACAD_REACTORS
330
47
102
}
330
47
100
AcDbProxyObject
 90
      499
 91
      503
 93
      249
310
90D332F333222203D2031272D30220000000000002E0FC000000000000284000
  0
ACAD_PROXY_OBJECT
  5
5E
102
{ACAD_REACTORS
330
47
102
}
330
47
100
AcDbProxyObject
 90
      499
 91
      503
 93
      241
310
90C312F3822203D2031272D3022000000000000300FC000000000000284000
  0
ACAD_PROXY_OBJECT
  5
5F
102
{ACAD_REACTORS
330
47
102
}
330
47
100
AcDbProxyObject
 90
      499
 91
      503
 93
      249
310
90D332F313622203D2031272D3022000000000000320FC000000000000284000
  0
ACAD_PROXY_OBJECT
  5
60
102
{ACAD_REACTORS
330
47
102
}
330
47
100
AcDbProxyObject
 90
      499
 91
      503
 93
      241
310
90C312F3422203D2031272D3022000000000000340FC000000000000284000
  0
ACAD_PROXY_OBJECT
  5
61
102
{ACAD_REACTORS
330
47
102
}
330
47
100
AcDbProxyObject
 90
      499
 91
      503
 93
      241
310
90C332F3822203D2031272D3022000000000000360FC000000000000284000
  0
ACAD_PROXY_OBJECT
  5
62
102
{ACAD_REACTORS
330
47
102
}
330
47
100
AcDbProxyObject
 90
      499
 91
      503
 93
      241
310
90C312F3222203D2031272D3022000000000000380FC000000000000284000
  0
ACAD_PROXY_OBJECT
  5
63
102
{ACAD_REACTORS
330
47
102
}
330
47
100
AcDbProxyObject
 90
      499
 91
      503
 93
      241
310
90C332F3422203D2031272D30220000000000003A0FC000000000000284000
  0
ACAD_PROXY_OBJECT
  5
64
102
{ACAD_REACTORS
330
47
102
}
330
47
100
AcDbProxyObject
 90
      499
 91
      503
 93
      161
310
90A3122203D2031272D30224000000000000284000
  0
ACAD_PROXY_OBJECT
  5
65
102
{ACAD_REACTORS
330
47
102
}
330
47
100
AcDbProxyObject
 90
      499
 91
      503
 93
      257
310
90E312D312F3222203D2031272D30220000000000003E0FC000000000000284000
  0
ACAD_PROXY_OBJECT
  5
66
102
{ACAD_REACTORS
330
47
102
}
330
47
100
AcDbProxyObject
 90
      499
 91
      503
 93
      225
310
90A3322203D2031272D302200000000000002100000000000000284000
  0
ACAD_PROXY_OBJECT
  5
67
102
{ACAD_REACTORS
330
47
102
}
330
47
100
AcDbProxyObject
 90
      499
 91
      503
 93
      225
310
90A3622203D2031272D302200000000000006100000000000000284000
  0
ACAD_PROXY_OBJECT
  5
68
102
{ACAD_REACTORS
330
47
102
}
330
47
100
AcDbProxyObject
 90
      499
 91
      503
 93
      249
310
90D31272D3022203D2031272D30220000000000000A100000000000000284000
  0
ACAD_PROXY_OBJECT
  5
2F
102
{ACAD_REACTORS
330
2A
102
}
330
2A
100
AcDbProxyObject
 90
      499
 91
      501
 93
      436
310
42CC9915DA5C99599C985B595049028333333333333E33F0000000000000F90107901411070040501600405405064090741402480A0340
1001
ACAD
1000
AcDbSavedByObjectVersion
1070
     0
  0
ACAD_PROXY_OBJECT
  5
32
102
{ACAD_REACTORS
330
2A
102
}
330
2A
100
AcDbProxyObject
 90
      499
 91
      501
 93
      388
310
4150985CDA58D07406404333333333333E33F0000000000000F90107A41107004050150841D405064090741402480A0350
1001
ACAD
1000
AcDbSavedByObjectVersion
1070
     0
  0
ACAD_PROXY_OBJECT
  5
36
102
{ACAD_REACTORS
330
2A
102
}
330
2A
100
AcDbProxyObject
 90
      499
 91
      501
 93
      428
310
42109C9A59DA1D195B90C409028333333333333E33F0000000000000F9010790141107004050150841D405064090741402480A029950
1001
ACAD
1000
AcDbSavedByObjectVersion
1070
     0
  0
ACAD_PROXY_OBJECT
  5
3A
102
{ACAD_REACTORS
330
2A
102
}
330
2A
100
AcDbProxyObject
 90
      499
 91
      501
 93
      452
310
42D0DBDB1BDC90DA185B99D95104090240C333333333333E33F0000000000000F90108901411070040501508421405064090741402480A0350
1001
ACAD
1000
AcDbSavedByObjectVersion
1070
     0
  0
ACAD_PROXY_OBJECT
  5
34
102
{ACAD_REACTORS
330
2A
102
}
330
2A
100
AcDbProxyObject
 90
      499
 91
      501
 93
      500
310
4290DBDB98D95C1D1D585B10940D028333333333333E33F0000000000000F90107902409070040501000000000018199010841D405064090740C02480A0340
1001
ACAD
1000
AcDbSavedByObjectVersion
1070
     0
  0
ACAD_PROXY_OBJECT
  5
35
102
{ACAD_REACTORS
330
2A
102
}
330
2A
100
AcDbProxyObject
 90
      499
 91
      501
 93
      412
310
40D11A5B50B409028333333333333E33F0000000000000F9010790141107004050150841D405064090741402480A02677FFFFFD0
1001
ACAD
1000
AcDbSavedByObjectVersion
1070
     0
  0
ACAD_PROXY_OBJECT
  5
3D
102
{ACAD_REACTORS
330
2A
102
}
330
2A
100
AcDbProxyObject
 90
      499
 91
      501
 93
      452
310
43115919D950DBDB1BDC93D999916409028333333333333E33F0000000000000F9010790141107004050150841D405064090741402480A0350
1001
ACAD
1000
AcDbSavedByObjectVersion
1070
     0
  0
ACAD_PROXY_OBJECT
  5
39
102
{ACAD_REACTORS
330
2A
102
}
330
2A
100
AcDbProxyObject
 90
      499
 91
      501
 93
      444
310
42D19858D95C185D1D195C9B90F409028333333333333E33F0000000000000F9010790141107004050150841D405064090741402480A0350
1001
ACAD
1000
AcDbSavedByObjectVersion
1070
     0
  0
ACAD_PROXY_OBJECT
  5
2B
102
{ACAD_REACTORS
330
2A
102
}
330
2A
100
AcDbProxyObject
 90
      499
 91
      501
 93
      380
310
41119B185D240901404333333333333E33F0000000000000F9010740A907004050150841D405064090741402480A1B50
1001
ACAD
1000
AcDbSavedByObjectVersion
1070
     0
  0
ACAD_PROXY_OBJECT
  5
2C
102
{ACAD_REACTORS
330
2A
102
}
330
2A
100
AcDbProxyObject
 90
      499
 91
      501
 93
      468
310
43519B185D15DA5D1A115919D95CD0140901404333333333333E33F0000000000000F90107409019070040501600405405064090741402480A1B50
1001
ACAD
1000
AcDbSavedByObjectVersion
1070
     0
  0
ACAD_PROXY_OBJECT
  5
2D
102
{ACAD_REACTORS
330
2A
102
}
330
2A
100
AcDbProxyObject
 90
      499
 91
      501
 93
      404
310
41D1DBDD5C985D5910240902404333333333333E33F0000000000000F9010740A9070040501641D405064090741402480A1B50
1001
ACAD
1000
AcDbSavedByObjectVersion
1070
     0
  0
ACAD_PROXY_OBJECT
  5
2E
102
{ACAD_REACTORS
330
2A
102
}
330
2A
100
AcDbProxyObject
 90
      499
 91
      501
 93
      492
310
4411DBDD5C985D5915DA5D1A115919D95CD0340902404333333333333E33F0000000000000F90107409019070040501600405405064090741402480A1B50
1001
ACAD
1000
AcDbSavedByObjectVersion
1070
     0
  0
ACAD_PROXY_OBJECT
  5
31
102
{ACAD_REACTORS
330
2A
102
}
330
2A
100
AcDbProxyObject
 90
      499
 91
      501
 93
      476
310
41921A5919195B90640502408333333333333E33F0000000000000F901079024090700405020000000000001110200405405064090740C02480A0340
1001
ACAD
1000
AcDbSavedByObjectVersion
1070
     0
  0
ACAD_PROXY_OBJECT
  5
3B
102
{ACAD_REACTORS
330
2A
102
}
330
2A
100
AcDbProxyObject
 90
      499
 91
      501
 93
      428
310
42529A5D1D195C93D999914409028333333333333E33F0000000000000F9010790141107004050150A41D405064090741402480A0350
1001
ACAD
1000
AcDbSavedByObjectVersion
1070
     0
  0
ACAD_PROXY_OBJECT
  5
38
102
{ACAD_REACTORS
330
2A
102
}
330
2A
100
AcDbProxyObject
 90
      499
 91
      501
 93
      444
310
42D31A5B995C185D1D195C9B90E409028333333333333E33F0000000000000F9010790141107004050750841D405064090741402483A0350
1001
ACAD
1000
AcDbSavedByObjectVersion
1070
     0
  0
ACAD_PROXY_OBJECT
  5
3C
102
{ACAD_REACTORS
330
2A
102
}
330
2A
100
AcDbProxyObject
 90
      499
 91
      501
 93
      444
310
42D3DD995C9A185B99D3D999915409028333333333333E33F0000000000000F9010790141107004050150941D405064090741402480A0350
1001
ACAD
1000
AcDbSavedByObjectVersion
1070
     0
  0
ACAD_PROXY_OBJECT
  5
33
102
{ACAD_REACTORS
330
2A
102
}
330
2A
100
AcDbProxyObject
 90
      499
 91
      501
 93
      428
310
425499585B1A5CDD1A58D08409038333333333333E33F0000000000000F9010740A907004050150800405405064090740C02480A1B40
1001
ACAD
1000
AcDbSavedByObjectVersion
1070
     0
  0
ACAD_PROXY_OBJECT
  5
42
102
{ACAD_REACTORS
330
2A
102
}
330
2A
100
AcDbProxyObject
 90
      499
 91
      501
 93
      420
310
4194DA1859195911B40902404333333333333E33F0000000000000F9010740A41107004050150800405405064090840C02480A0B40
1001
ACAD
1000
AcDbSavedByObjectVersion
1070
     0
  0
ACAD_PROXY_OBJECT
  5
41
102
{ACAD_REACTORS
330
2A
102
}
330
2A
100
AcDbProxyObject
 90
      499
 91
      501
 93
      516
310
4454DA18591959081DDA5D1A08195919D95CD1A40902404333333333333E33F0000000000000F901074090142907004050250800405405064090740C02480A0B40
1001
ACAD
1000
AcDbSavedByObjectVersion
1070
     0
  0
ACAD_PROXY_OBJECT
  5
3E
102
{ACAD_REACTORS
330
2A
102
}
330
2A
100
AcDbProxyObject
 90
      499
 91
      501
 93
      532
310
4394DA1859195CC81BD98811DC985E5174090240C333333333333E33F0000000000000F901079024090741D01000000000000111010841D405064090740C02480A0340
1001
ACAD
1000
AcDbSavedByObjectVersion
1070
     0
  0
ACAD_PROXY_OBJECT
  5
3F
102
{ACAD_REACTORS
330
2A
102
}
330
2A
100
AcDbProxyObject
 90
      499
 91
      501
 93
      476
310
41D4DAD95D18DA1E51840502408333333333333E33F0000000000000F901079024090741D01000000000000111010B41D405064090741802480A0340
1001
ACAD
1000
AcDbSavedByObjectVersion
1070
     0
  0
ACAD_PROXY_OBJECT
  5
37
102
{ACAD_REACTORS
330
2A
102
}
330
2A
100
AcDbProxyObject
 90
      499
 91
      501
 93
      412
310
41D51A1A58DAD95B90D409028333333333333E33F0000000000000F9010790141107004050150C41D405064090741402480A0350
1001
ACAD
1000
AcDbSavedByObjectVersion
1070
     0
  0
ACAD_PROXY_OBJECT
  5
30
102
{ACAD_REACTORS
330
2A
102
}
330
2A
100
AcDbProxyObject
 90
      499
 91
      501
 93
      420
310
4255DA5C99599C985B595059028333333333333E33F0000000000000F90107901411070040501600405405064090740C02480A0340
1001
ACAD
1000
AcDbSavedByObjectVersion
1070
     0
  0
ACAD_PROXY_OBJECT
  5
40
102
{ACAD_REACTORS
330
2A
102
}
330
2A
100
AcDbProxyObject
 90
      499
 91
      501
 93
      404
310
41560B54985E51940902404000000000000E03F0000000000000F9010740501907004050150841D405064090740C02480A1B40
1001
ACAD
1000
AcDbSavedByObjectVersion
1070
     0
  0
XRECORD
  5
15E
102
{ACAD_REACTORS
330
155
102
}
330
155
100
AcDbXrecord
 90
        0
  0
XRECORD
  5
174
102
{ACAD_REACTORS
330
155
102
}
330
155
100
AcDbXrecord
1000
DSTYLE
1002
{
1070
   171
 70
     2
1070
   143
 40
25.4
1070
   274
 70
     2
1070
    41
 40
0.18
1070
   141
 40
0.09
1070
   271
 70
     4
1070
    43
 40
0.38
1070
   278
 70
    46
1070
    44
 40
0.18
1070
    42
 40
0.0625
1070
   147
 40
0.09
1070
    77
 70
     0
1070
   272
 70
     4
1070
    73
 70
     1
1070
   172
 70
     0
1070
    74
 70
     1
1070
   283
 70
     1
1070
   340
340
11
1070
   140
 40
0.18
1070
   284
 70
     0
1070
    78
 70
     0
1002
}
  0
XRECORD
  5
15F
102
{ACAD_REACTORS
330
155
102
}
330
155
100
AcDbXrecord
  1
{F8BDF4E4-2D6F-CD4E-80D7-EC5316E01ACB}
  0
XRECORD
  5
158
102
{ACAD_REACTORS
330
155
102
}
330
155
100
AcDbXrecord
  1

  0
XRECORD
  5
15D
102
{ACAD_REACTORS
330
155
102
}
330
155
100
AcDbXrecord
 90
        4
  0
XRECORD
  5
15A
102
{ACAD_REACTORS
330
155
102
}
330
155
100
AcDbXrecord
340
1A
  0
XRECORD
  5
15C
102
{ACAD_REACTORS
330
155
102
}
330
155
100
AcDbXrecord
 90
    10781
  0
XRECORD
  5
15B
102
{ACAD_REACTORS
330
155
102
}
330
155
100
AcDbXrecord
340
19
  0
XRECORD
  5
161
102
{ACAD_REACTORS
330
155
102
}
330
155
100
AcDbXrecord
 40
0.0
  0
XRECORD
  5
164
102
{ACAD_REACTORS
330
155
102
}
330
155
100
AcDbXrecord
340
0
  0
XRECORD
  5
16A
102
{ACAD_REACTORS
330
155
102
}
330
155
100
AcDbXrecord
 10
0.0
 20
0.0
 30
0.0
  0
XRECORD
  5
166
102
{ACAD_REACTORS
330
155
102
}
330
155
100
AcDbXrecord
 10
0.0
 20
0.0
 30
0.0
  0
XRECORD
  5
169
102
{ACAD_REACTORS
330
155
102
}
330
155
100
AcDbXrecord
 10
0.0
 20
0.0
 30
0.0
  0
XRECORD
  5
167
102
{ACAD_REACTORS
330
155
102
}
330
155
100
AcDbXrecord
 10
0.0
 20
0.0
 30
0.0
  0
XRECORD
  5
168
102
{ACAD_REACTORS
330
155
102
}
330
155
100
AcDbXrecord
 10
0.0
 20
0.0
 30
0.0
  0
XRECORD
  5
165
102
{ACAD_REACTORS
330
155
102
}
330
155
100
AcDbXrecord
 10
0.0
 20
0.0
 30
0.0
  0
XRECORD
  5
162
102
{ACAD_REACTORS
330
155
102
}
330
155
100
AcDbXrecord
340
0
  0
XRECORD
  5
163
102
{ACAD_REACTORS
330
155
102
}
330
155
100
AcDbXrecord
 70
     0
  0
XRECORD
  5
159
102
{ACAD_REACTORS
330
155
102
}
330
155
100
AcDbXrecord
  1

  0
XRECORD
  5
156
102
{ACAD_REACTORS
330
155
102
}
330
155
100
AcDbXrecord
 90
        1
  0
XRECORD
  5
157
102
{ACAD_REACTORS
330
155
102
}
330
155
100
AcDbXrecord
 90
       70
  0
XRECORD
  5
16D
102
{ACAD_REACTORS
330
155
102
}
330
155
100
AcDbXrecord
340
0
  0
XRECORD
  5
173
102
{ACAD_REACTORS
330
155
102
}
330
155
100
AcDbXrecord
 10
0.0
 20
0.0
 30
0.0
  0
XRECORD
  5
16F
102
{ACAD_REACTORS
330
155
102
}
330
155
100
AcDbXrecord
 10
0.0
 20
0.0
 30
0.0
  0
XRECORD
  5
172
102
{ACAD_REACTORS
330
155
102
}
330
155
100
AcDbXrecord
 10
0.0
 20
0.0
 30
0.0
  0
XRECORD
  5
170
102
{ACAD_REACTORS
330
155
102
}
330
155
100
AcDbXrecord
 10
0.0
 20
0.0
 30
0.0
  0
XRECORD
  5
171
102
{ACAD_REACTORS
330
155
102
}
330
155
100
AcDbXrecord
 10
0.0
 20
0.0
 30
0.0
  0
XRECORD
  5
16E
102
{ACAD_REACTORS
330
155
102
}
330
155
100
AcDbXrecord
 10
0.0
 20
0.0
 30
0.0
  0
XRECORD
  5
16B
102
{ACAD_REACTORS
330
155
102
}
330
155
100
AcDbXrecord
340
0
  0
XRECORD
  5
16C
102
{ACAD_REACTORS
330
155
102
}
330
155
100
AcDbXrecord
 70
     0
  0
XRECORD
  5
160
102
{ACAD_REACTORS
330
155
102
}
330
155
100
AcDbXrecord
  1
{FAEB1C32-E019-11D5-929B-00C0DF256EC4}
  0
DICTIONARYVAR
  5
17E
102
{ACAD_REACTORS
330
175
102
}
330
175
100
DictionaryVariables
280
     0
  1
1:1
  0
DICTIONARYVAR
  5
17A
102
{ACAD_REACTORS
330
175
102
}
330
175
100
DictionaryVariables
280
     0
  1
2
  0
DICTIONARYVAR
  5
17B
102
{ACAD_REACTORS
330
175
102
}
330
175
100
DictionaryVariables
280
     0
  1
1
  0
DICTIONARYVAR
  5
17F
102
{ACAD_REACTORS
330
175
102
}
330
175
100
DictionaryVariables
280
     0
  1
1
  0
DICTIONARY
  5
182
330
45
100
AcDbDictionary
280
     1
  3
ACAD_XREC_ROUNDTRIP
360
183
  0
DICTIONARY
  5
180
330
44
100
AcDbDictionary
280
     1
  3
ACAD_XREC_ROUNDTRIP
360
181
  0
DICTIONARY
  5
184
330
46
100
AcDbDictionary
280
     1
  3
ACAD_XREC_ROUNDTRIP
360
185
  0
XRECORD
  5
183
102
{ACAD_REACTORS
330
182
102
}
330
182
100
AcDbXrecord
102
MATERIAL
148
0.0
149
0.0
149
0.0
 93
        0
 94
      127
282
     0
 72
     1
 77
     1
171
     1
175
     1
179
     1
273
     0
  0
XRECORD
  5
181
102
{ACAD_REACTORS
330
180
102
}
330
180
100
AcDbXrecord
102
MATERIAL
148
0.0
149
0.0
149
0.0
 93
        0
 94
      127
282
     0
 72
     1
 77
     1
171
     1
175
     1
179
     1
273
     0
  0
XRECORD
  5
185
102
{ACAD_REACTORS
330
184
102
}
330
184
100
AcDbXrecord
102
MATERIAL
148
0.0
149
0.0
149
0.0
 93
        0
 94
      127
282
     0
 72
     1
 77
     1
171
     1
175
     1
179
     1
273
     0
  0
ENDSEC
  0
EOF
